  0
SECTION
  2
HEADER
  9
$ACADVER
  1
AC1015
  9
$HANDSEED
  5
27C
  9
$LIMMIN
 10
2.09114670753479
 20
0.0681764259934425
  9
$LIMMAX
 10
2.64714241027832
 20
0.900593400001526
  9
$MEASUREMENT
 70
1
  0
ENDSEC
  0
SECTION
  2
TABLES
  0
TABLE
  2
VPORT
  5
  1
100
AcDbSymbolTable
  0
ENDTAB
  0
TABLE
  2
LTYPE
  5
  2
100
AcDbSymbolTable
  0
LTYPE
  5
  3
100
AcDbSymbolTableRecord
100
AcDbLinetypeTableRecord
  2
BYBLOCK
 70
     0
  0
LTYPE
  5
  4
100
AcDbSymbolTableRecord
100
AcDbLinetypeTableRecord
  2
BYLAYER
 70
     0
  0
LTYPE
  5
20
100
AcDbSymbolTableRecord
100
AcDbLinetypeTableRecord
  2
_SOLID
  3

 70
0
 72
65
 73
2
 40
5
 49
5
 74
0
 49
0
 74
0
  0
LTYPE
  5
21
100
AcDbSymbolTableRecord
100
AcDbLinetypeTableRecord
  2
_DASH
  3

 70
0
 72
65
 73
2
 40
7
 49
5
 74
0
 49
-2
 74
0
  0
LTYPE
  5
22
100
AcDbSymbolTableRecord
100
AcDbLinetypeTableRecord
  2
_DOT
  3

 70
0
 72
65
 73
2
 40
4
 49
2
 74
0
 49
-2
 74
0
  0
LTYPE
  5
23
100
AcDbSymbolTableRecord
100
AcDbLinetypeTableRecord
  2
_DASHDOT
  3

 70
0
 72
65
 73
4
 40
11
 49
5
 74
0
 49
-2
 74
0
 49
2
 74
0
 49
-2
 74
0
  0
LTYPE
  5
24
100
AcDbSymbolTableRecord
100
AcDbLinetypeTableRecord
  2
_DASHDOTDOT
  3

 70
0
 72
65
 73
6
 40
15
 49
5
 74
0
 49
-2
 74
0
 49
2
 74
0
 49
-2
 74
0
 49
2
 74
0
 49
-2
 74
0
  0
LTYPE
  5
25
100
AcDbSymbolTableRecord
100
AcDbLinetypeTableRecord
  2
ISO128-20-02
  3

 70
0
 72
65
 73
2
 40
15
 49
12
 74
0
 49
-3
 74
0
  0
LTYPE
  5
26
100
AcDbSymbolTableRecord
100
AcDbLinetypeTableRecord
  2
ISO128-20-03
  3

 70
0
 72
65
 73
2
 40
30
 49
12
 74
0
 49
-18
 74
0
  0
LTYPE
  5
27
100
AcDbSymbolTableRecord
100
AcDbLinetypeTableRecord
  2
ISO128-20-04
  3

 70
0
 72
65
 73
4
 40
30
 49
24
 74
0
 49
-3
 74
0
 49
0
 74
0
 49
-3
 74
0
  0
LTYPE
  5
28
100
AcDbSymbolTableRecord
100
AcDbLinetypeTableRecord
  2
ISO128-20-05
  3

 70
0
 72
65
 73
6
 40
33
 49
24
 74
0
 49
-3
 74
0
 49
0
 74
0
 49
-3
 74
0
 49
0
 74
0
 49
-3
 74
0
  0
LTYPE
  5
29
100
AcDbSymbolTableRecord
100
AcDbLinetypeTableRecord
  2
ISO128-20-06
  3

 70
0
 72
65
 73
8
 40
36
 49
24
 74
0
 49
-3
 74
0
 49
0
 74
0
 49
-3
 74
0
 49
0
 74
0
 49
-3
 74
0
 49
0
 74
0
 49
-3
 74
0
  0
LTYPE
  5
2A
100
AcDbSymbolTableRecord
100
AcDbLinetypeTableRecord
  2
ISO128-20-07
  3

 70
0
 72
65
 73
2
 40
3
 49
0
 74
0
 49
-3
 74
0
  0
LTYPE
  5
2B
100
AcDbSymbolTableRecord
100
AcDbLinetypeTableRecord
  2
ISO128-20-08
  3

 70
0
 72
65
 73
4
 40
36
 49
24
 74
0
 49
-3
 74
0
 49
6
 74
0
 49
-3
 74
0
  0
LTYPE
  5
2C
100
AcDbSymbolTableRecord
100
AcDbLinetypeTableRecord
  2
ISO128-20-09
  3

 70
0
 72
65
 73
6
 40
45
 49
24
 74
0
 49
-3
 74
0
 49
6
 74
0
 49
-3
 74
0
 49
6
 74
0
 49
-3
 74
0
  0
LTYPE
  5
2D
100
AcDbSymbolTableRecord
100
AcDbLinetypeTableRecord
  2
ISO128-20-10
  3

 70
0
 72
65
 73
4
 40
18
 49
12
 74
0
 49
-3
 74
0
 49
0
 74
0
 49
-3
 74
0
  0
LTYPE
  5
2E
100
AcDbSymbolTableRecord
100
AcDbLinetypeTableRecord
  2
ISO128-20-11
  3

 70
0
 72
65
 73
6
 40
33
 49
12
 74
0
 49
-3
 74
0
 49
12
 74
0
 49
-3
 74
0
 49
0
 74
0
 49
-3
 74
0
  0
LTYPE
  5
2F
100
AcDbSymbolTableRecord
100
AcDbLinetypeTableRecord
  2
ISO128-20-12
  3

 70
0
 72
65
 73
6
 40
21
 49
12
 74
0
 49
-3
 74
0
 49
0
 74
0
 49
-3
 74
0
 49
0
 74
0
 49
-3
 74
0
  0
LTYPE
  5
30
100
AcDbSymbolTableRecord
100
AcDbLinetypeTableRecord
  2
ISO128-20-13
  3

 70
0
 72
65
 73
8
 40
36
 49
12
 74
0
 49
-3
 74
0
 49
12
 74
0
 49
-3
 74
0
 49
0
 74
0
 49
-3
 74
0
 49
0
 74
0
 49
-3
 74
0
  0
LTYPE
  5
31
100
AcDbSymbolTableRecord
100
AcDbLinetypeTableRecord
  2
ISO128-20-14
  3

 70
0
 72
65
 73
8
 40
24
 49
12
 74
0
 49
-3
 74
0
 49
0
 74
0
 49
-3
 74
0
 49
0
 74
0
 49
-3
 74
0
 49
0
 74
0
 49
-3
 74
0
  0
LTYPE
  5
32
100
AcDbSymbolTableRecord
100
AcDbLinetypeTableRecord
  2
ISO128-20-15
  3

 70
0
 72
65
 73
10
 40
39
 49
12
 74
0
 49
-3
 74
0
 49
12
 74
0
 49
-3
 74
0
 49
0
 74
0
 49
-3
 74
0
 49
0
 74
0
 49
-3
 74
0
 49
0
 74
0
 49
-3
 74
0
  0
ENDTAB
  0
TABLE
  2
LAYER
  5
 1A
330
  0
100
AcDbSymbolTable
  0
LAYER
  5
278
330
 1A
100
AcDbSymbolTableRecord
100
AcDbLayerTableRecord
  2
0
 70
0
 62
7
  6
Continuous
370
-3
390
 19
  0
LAYER
  5
279
330
 1A
100
AcDbSymbolTableRecord
100
AcDbLayerTableRecord
  2
SEMA2D
 70
0
 62
7
  6
Continuous
370
-3
390
 19
  0
LAYER
  5
27A
330
 1A
100
AcDbSymbolTableRecord
100
AcDbLayerTableRecord
  2
SEMATEXT
 70
0
 62
7
  6
Continuous
370
-3
390
 19
  0
ENDTAB
  0
TABLE
  2
STYLE
  5
  5
100
AcDbSymbolTable
  0
STYLE
  5
  6
100
AcDbSymbolTableRecord
100
AcDbTextStyleTableRecord
  2
STANDARD
 70
     0
 40
0.0
 41
1.0
 50
0.0
 71
     0
 42
10.0
  3
txt
  4

  0
ENDTAB
  0
TABLE
  2
VIEW
  5
  7
100
AcDbSymbolTable
  0
ENDTAB
  0
TABLE
  2
UCS
  5
  8
100
AcDbSymbolTable
  0
ENDTAB
  0
TABLE
  2
APPID
  5
  9
100
AcDbSymbolTable
  0
APPID
  5
  A
100
AcDbSymbolTableRecord
100
AcDbRegAppTableRecord
  2
ACAD
 70
0
  0
ENDTAB
  0
TABLE
  2
DIMSTYLE
  5
  B
100
AcDbSymbolTable
 70
     1
100
AcDbDimStyleTable
 71
     0
  0
DIMSTYLE
105
 1B
330
B
100
AcDbSymbolTableRecord
100
AcDbDimStyleTableRecord
  2
STANDARD
 70
    0
340
  6
  0
ENDTAB
  0
TABLE
  2
BLOCK_RECORD
  5
  C
100
AcDbSymbolTable
  0
BLOCK_RECORD
  5
  D
100
AcDbSymbolTableRecord
100
AcDbBlockTableRecord
  2
*MODEL_SPACE
  0
BLOCK_RECORD
  5
  E
100
AcDbSymbolTableRecord
100
AcDbBlockTableRecord
  2
*PAPER_SPACE
  0
ENDTAB
  0
ENDSEC
  0
SECTION
  2
BLOCKS
  0
BLOCK
  5
  F
330
  D
100
AcDbEntity
  8
0
100
AcDbBlockBegin
  2
*MODEL_SPACE
 70
     0
  0
ENDBLK
  5
 10
100
AcDbEntity
  8
0
100
AcDbBlockEnd
  0
BLOCK
  5
 11
330
  E
100
AcDbEntity
  8
0
100
AcDbBlockBegin
  2
*PAPER_SPACE
 70
     0
  0
ENDBLK
  5
 12
100
AcDbEntity
  8
0
100
AcDbBlockEnd
  0
ENDSEC
  0
SECTION
  2
ENTITIES
  0
LINE
  5
33
100
AcDbEntity
  8
SEMA2D
100
AcDbLine
 62
7
  6
_SOLID
370
35
 10
2.10380792617798
 20
0.859013378620148
 11
2.35970520973206
 21
0.859013378620148
  0
LINE
  5
34
100
AcDbEntity
  8
SEMA2D
100
AcDbLine
 62
7
  6
_SOLID
370
35
 10
2.10380792617798
 20
0.834013402462006
 11
2.33470511436462
 21
0.834013402462006
  0
LINE
  5
35
100
AcDbEntity
  8
SEMA2D
100
AcDbLine
 62
7
  6
_SOLID
370
35
 10
2.35970520973206
 20
0.859013378620148
 11
2.35970520973206
 21
0.753713369369507
  0
LINE
  5
36
100
AcDbEntity
  8
SEMA2D
100
AcDbLine
 62
7
  6
_SOLID
370
35
 10
2.33470511436462
 20
0.753713369369507
 11
2.33470511436462
 21
0.859013378620148
  0
LINE
  5
37
100
AcDbEntity
  8
SEMA2D
100
AcDbLine
 62
7
  6
_SOLID
370
35
 10
2.35970520973206
 20
0.753713369369507
 11
2.33470511436462
 21
0.753713369369507
  0
LINE
  5
38
100
AcDbEntity
  8
SEMA2D
100
AcDbLine
 62
7
  6
_SOLID
370
9
 10
2.38719654083252
 20
0.815025389194489
 11
2.40068435668945
 21
0.828512966632843
  0
LINE
  5
39
100
AcDbEntity
  8
SEMA2D
100
AcDbLine
 62
7
  6
_SOLID
370
9
 10
2.38686394691467
 20
0.821374773979187
 11
2.40035152435303
 21
0.834862351417542
  0
LINE
  5
3A
100
AcDbEntity
  8
SEMA2D
100
AcDbLine
 62
7
  6
_SOLID
370
9
 10
2.34954953193665
 20
0.858540892601013
 11
2.34714770317078
 21
0.868174731731415
  0
LINE
  5
3B
100
AcDbEntity
  8
SEMA2D
100
AcDbLine
 62
7
  6
_SOLID
370
9
 10
2.38786220550537
 20
0.802326560020447
 11
2.40134978294373
 21
0.815814197063446
  0
LINE
  5
3C
100
AcDbEntity
  8
SEMA2D
100
AcDbLine
 62
7
  6
_SOLID
370
9
 10
2.38752937316895
 20
0.808675944805145
 11
2.4010169506073
 21
0.822163581848145
  0
LINE
  5
3D
100
AcDbEntity
  8
SEMA2D
100
AcDbLine
 62
7
  6
_SOLID
370
9
 10
2.26474261283874
 20
0.893745005130768
 11
2.24609136581421
 21
0.893745005130768
  0
LINE
  5
3E
100
AcDbEntity
  8
SEMA2D
100
AcDbLine
 62
7
  6
_SOLID
370
9
 10
2.17112874984741
 20
0.895868360996246
 11
2.39715433120728
 21
0.895868360996246
  0
LINE
  5
3F
100
AcDbEntity
  8
SEMA2D
100
AcDbLine
 62
7
  6
_SOLID
370
9
 10
2.38653111457825
 20
0.827724158763885
 11
2.4000186920166
 21
0.841211795806885
  0
LINE
  5
40
100
AcDbEntity
  8
SEMA2D
100
AcDbLine
 62
7
  6
_SOLID
370
9
 10
2.38919019699097
 20
0.776987373828888
 11
2.37701416015625
 21
0.799674510955811
  0
LINE
  5
41
100
AcDbEntity
  8
SEMA2D
100
AcDbLine
 62
7
  6
_SOLID
370
9
 10
2.38886046409607
 20
0.783278346061706
 11
2.40234804153442
 21
0.796765983104706
  0
LINE
  5
42
100
AcDbEntity
  8
SEMA2D
100
AcDbLine
 62
7
  6
_SOLID
370
9
 10
2.38365316390991
 20
0.882638394832611
 11
2.38919019699097
 21
0.776987373828888
  0
LINE
  5
43
100
AcDbEntity
  8
SEMA2D
100
AcDbLine
 62
7
  6
_SOLID
370
9
 10
2.38925170898438
 20
0.776987373828888
 11
2.40268087387085
 21
0.790416538715363
  0
LINE
  5
44
100
AcDbEntity
  8
SEMA2D
100
AcDbLine
 62
7
  6
_SOLID
370
9
 10
2.40400815010071
 20
0.783173441886902
 11
2.40420913696289
 21
0.779338717460632
  0
LINE
  5
45
100
AcDbEntity
  8
SEMA2D
100
AcDbLine
 62
7
  6
_SOLID
370
9
 10
2.39715433120728
 20
0.895868360996246
 11
2.40306258201599
 21
0.783129870891571
  0
LINE
  5
46
100
AcDbEntity
  8
SEMA2D
100
AcDbLine
 62
7
  6
_SOLID
370
9
 10
2.3733389377594
 20
0.859013378620148
 11
2.37701416015625
 21
0.799674510955811
  0
LINE
  5
47
100
AcDbEntity
  8
SEMA2D
100
AcDbLine
 62
7
  6
_SOLID
370
9
 10
2.40400815010071
 20
0.783173441886902
 11
2.40295791625977
 21
0.785130381584167
  0
LINE
  5
48
100
AcDbEntity
  8
SEMA2D
100
AcDbLine
 62
7
  6
_SOLID
370
9
 10
2.38182425498962
 20
0.882638394832611
 11
2.38271546363831
 21
0.859013378620148
  0
LINE
  5
49
100
AcDbEntity
  8
SEMA2D
100
AcDbLine
 62
7
  6
_SOLID
370
9
 10
2.38852763175964
 20
0.78962779045105
 11
2.402015209198
 21
0.803115367889404
  0
LINE
  5
4A
100
AcDbEntity
  8
SEMA2D
100
AcDbLine
 62
7
  6
_SOLID
370
9
 10
2.3881950378418
 20
0.795977175235748
 11
2.40168261528015
 21
0.809464752674103
  0
LINE
  5
4B
100
AcDbEntity
  8
SEMA2D
100
AcDbLine
 62
7
  6
_SOLID
370
9
 10
2.31291222572327
 20
0.893745005130768
 11
2.29048109054565
 21
0.893745005130768
  0
LINE
  5
4C
100
AcDbEntity
  8
SEMA2D
100
AcDbLine
 62
7
  6
_SOLID
370
9
 10
2.38553285598755
 20
0.846772372722626
 11
2.3990204334259
 21
0.86025995016098
  0
LINE
  5
4D
100
AcDbEntity
  8
SEMA2D
100
AcDbLine
 62
7
  6
_SOLID
370
9
 10
2.38520002365112
 20
0.853121757507324
 11
2.39868760108948
 21
0.866609394550323
  0
LINE
  5
4E
100
AcDbEntity
  8
SEMA2D
100
AcDbLine
 62
7
  6
_SOLID
370
9
 10
2.26376891136169
 20
0.880275905132294
 11
2.2914547920227
 21
0.880275905132294
  0
LINE
  5
4F
100
AcDbEntity
  8
SEMA2D
100
AcDbLine
 62
7
  6
_SOLID
370
9
 10
2.17318940162659
 20
0.880984604358673
 11
2.17720556259155
 21
0.880984604358673
  0
LINE
  5
50
100
AcDbEntity
  8
SEMA2D
100
AcDbLine
 62
7
  6
_SOLID
370
9
 10
2.1496410369873
 20
0.880984604358673
 11
2.15759682655334
 21
0.880984604358673
  0
LINE
  5
51
100
AcDbEntity
  8
SEMA2D
100
AcDbLine
 62
7
  6
_SOLID
370
9
 10
2.30880761146545
 20
0.874133408069611
 11
2.3242495059967
 21
0.874133408069611
  0
LINE
  5
52
100
AcDbEntity
  8
SEMA2D
100
AcDbLine
 62
7
  6
_SOLID
370
9
 10
2.23475408554077
 20
0.874133408069611
 11
2.24641585350037
 21
0.874133408069611
  0
LINE
  5
53
100
AcDbEntity
  8
SEMA2D
100
AcDbLine
 62
7
  6
_SOLID
370
9
 10
2.15968585014343
 20
0.876023352146149
 11
2.16762948036194
 21
0.876023352146149
  0
LINE
  5
54
100
AcDbEntity
  8
SEMA2D
100
AcDbLine
 62
7
  6
_SOLID
370
9
 10
2.34423422813416
 20
0.845783352851868
 11
2.34863519668579
 21
0.862208068370819
  0
LINE
  5
55
100
AcDbEntity
  8
SEMA2D
100
AcDbLine
 62
7
  6
_SOLID
370
9
 10
2.31251382827759
 20
0.895868360996246
 11
2.31291222572327
 21
0.893745005130768
  0
LINE
  5
56
100
AcDbEntity
  8
SEMA2D
100
AcDbLine
 62
7
  6
_SOLID
370
9
 10
2.38619828224182
 20
0.834073603153229
 11
2.39968585968018
 21
0.847561180591583
  0
LINE
  5
57
100
AcDbEntity
  8
SEMA2D
100
AcDbLine
 62
7
  6
_SOLID
370
9
 10
2.38586568832397
 20
0.840422987937927
 11
2.39935326576233
 21
0.853910565376282
  0
LINE
  5
58
100
AcDbEntity
  8
SEMA2D
100
AcDbLine
 62
7
  6
_SOLID
370
9
 10
2.25512361526489
 20
0.893505871295929
 11
2.26466655731201
 21
0.893505871295929
  0
LINE
  5
59
100
AcDbEntity
  8
SEMA2D
100
AcDbLine
 62
7
  6
_SOLID
370
9
 10
2.29055714607239
 20
0.893505871295929
 11
2.30010008811951
 21
0.893505871295929
  0
LINE
  5
5A
100
AcDbEntity
  8
SEMA2D
100
AcDbLine
 62
7
  6
_SOLID
370
9
 10
2.23508667945862
 20
0.882360458374023
 11
2.25150322914124
 21
0.882360458374023
  0
LINE
  5
5B
100
AcDbEntity
  8
SEMA2D
100
AcDbLine
 62
7
  6
_SOLID
370
9
 10
2.32391691207886
 20
0.882360458374023
 11
2.30372023582458
 21
0.882360458374023
  0
LINE
  5
5C
100
AcDbEntity
  8
SEMA2D
100
AcDbLine
 62
7
  6
_SOLID
370
9
 10
2.35917854309082
 20
0.882638394832611
 11
2.38365316390991
 21
0.882638394832611
  0
LINE
  5
5D
100
AcDbEntity
  8
SEMA2D
100
AcDbLine
 62
7
  6
_SOLID
370
9
 10
2.3540563583374
 20
0.858540892601013
 11
2.35917854309082
 21
0.882638394832611
  0
LINE
  5
5E
100
AcDbEntity
  8
SEMA2D
100
AcDbLine
 62
7
  6
_SOLID
370
9
 10
2.3173291683197
 20
0.895868360996246
 11
2.3224983215332
 21
0.882360458374023
  0
LINE
  5
5F
100
AcDbEntity
  8
SEMA2D
100
AcDbLine
 62
7
  6
_SOLID
370
9
 10
2.39593386650085
 20
0.776987373828888
 11
2.4030134677887
 21
0.784067153930664
  0
LINE
  5
60
100
AcDbEntity
  8
SEMA2D
100
AcDbLine
 62
7
  6
_SOLID
370
9
 10
2.402259349823
 20
0.776987373828888
 11
2.40259027481079
 21
0.779349863529205
  0
LINE
  5
61
100
AcDbEntity
  8
SEMA2D
100
AcDbLine
 62
7
  6
_SOLID
370
9
 10
2.18074941635132
 20
0.872007131576538
 11
2.19492435455322
 21
0.872007131576538
  0
LINE
  5
62
100
AcDbEntity
  8
SEMA2D
100
AcDbLine
 62
7
  6
_SOLID
370
9
 10
2.29322123527527
 20
0.874739527702332
 11
2.30301260948181
 21
0.884530961513519
  0
LINE
  5
63
100
AcDbEntity
  8
SEMA2D
100
AcDbLine
 62
7
  6
_SOLID
370
9
 10
2.23839545249939
 20
0.860903382301331
 11
2.23886680603027
 21
0.859013378620148
  0
LINE
  5
64
100
AcDbEntity
  8
SEMA2D
100
AcDbLine
 62
7
  6
_SOLID
370
9
 10
2.29484081268311
 20
0.869677126407623
 11
2.30508375167847
 21
0.87992000579834
  0
LINE
  5
65
100
AcDbEntity
  8
SEMA2D
100
AcDbLine
 62
7
  6
_SOLID
370
9
 10
2.29646420478821
 20
0.864618301391602
 11
2.30810713768005
 21
0.876261234283447
  0
LINE
  5
66
100
AcDbEntity
  8
SEMA2D
100
AcDbLine
 62
7
  6
_SOLID
370
9
 10
2.28189826011658
 20
0.860903382301331
 11
2.28139185905457
 21
0.859013378620148
  0
LINE
  5
67
100
AcDbEntity
  8
SEMA2D
100
AcDbLine
 62
7
  6
_SOLID
370
9
 10
2.38919019699097
 20
0.776987373828888
 11
2.402259349823
 21
0.776987373828888
  0
LINE
  5
68
100
AcDbEntity
  8
SEMA2D
100
AcDbLine
 62
7
  6
_SOLID
370
9
 10
2.40400815010071
 20
0.783173441886902
 11
2.40306258201599
 21
0.783129870891571
  0
LINE
  5
69
100
AcDbEntity
  8
SEMA2D
100
AcDbLine
 62
7
  6
_SOLID
370
9
 10
2.40259027481079
 20
0.779349863529205
 11
2.40420913696289
 21
0.779338717460632
  0
LINE
  5
6A
100
AcDbEntity
  8
SEMA2D
100
AcDbLine
 62
7
  6
_SOLID
370
9
 10
2.29160475730896
 20
0.879805326461792
 11
2.30137372016907
 21
0.889574348926544
  0
LINE
  5
6B
100
AcDbEntity
  8
SEMA2D
100
AcDbLine
 62
7
  6
_SOLID
370
9
 10
2.28539323806763
 20
0.880275905132294
 11
2.29862308502197
 21
0.893505871295929
  0
LINE
  5
6C
100
AcDbEntity
  8
SEMA2D
100
AcDbLine
 62
7
  6
_SOLID
370
9
 10
2.31947803497314
 20
0.860903382301331
 11
2.33498620986938
 21
0.876411557197571
  0
LINE
  5
6D
100
AcDbEntity
  8
SEMA2D
100
AcDbLine
 62
7
  6
_SOLID
370
9
 10
2.31758785247803
 20
0.859013378620148
 11
2.31842470169067
 21
0.85985004901886
  0
LINE
  5
6E
100
AcDbEntity
  8
SEMA2D
100
AcDbLine
 62
7
  6
_SOLID
370
9
 10
2.34842705726624
 20
0.889852523803711
 11
2.35444283485413
 21
0.895868360996246
  0
LINE
  5
6F
100
AcDbEntity
  8
SEMA2D
100
AcDbLine
 62
7
  6
_SOLID
370
9
 10
2.26694536209106
 20
0.860903382301331
 11
2.27099680900574
 21
0.845783352851868
  0
LINE
  5
70
100
AcDbEntity
  8
SEMA2D
100
AcDbLine
 62
7
  6
_SOLID
370
9
 10
2.19942116737366
 20
0.859013378620148
 11
2.20023965835571
 21
0.858540892601013
  0
LINE
  5
71
100
AcDbEntity
  8
SEMA2D
100
AcDbLine
 62
7
  6
_SOLID
370
9
 10
2.29943156242371
 20
0.860903382301331
 11
2.31266140937805
 21
0.874133408069611
  0
LINE
  5
72
100
AcDbEntity
  8
SEMA2D
100
AcDbLine
 62
7
  6
_SOLID
370
9
 10
2.28517174720764
 20
0.845783352851868
 11
2.28922319412231
 21
0.860903382301331
  0
LINE
  5
73
100
AcDbEntity
  8
SEMA2D
100
AcDbLine
 62
7
  6
_SOLID
370
9
 10
2.31147837638855
 20
0.85958594083786
 11
2.32609033584595
 21
0.874197840690613
  0
LINE
  5
74
100
AcDbEntity
  8
SEMA2D
100
AcDbLine
 62
7
  6
_SOLID
370
9
 10
2.30611371994019
 20
0.860903382301331
 11
2.31934356689453
 21
0.874133408069611
  0
LINE
  5
75
100
AcDbEntity
  8
SEMA2D
100
AcDbLine
 62
7
  6
_SOLID
370
9
 10
2.27871108055115
 20
0.880275905132294
 11
2.29194092750549
 21
0.893505871295929
  0
LINE
  5
76
100
AcDbEntity
  8
SEMA2D
100
AcDbLine
 62
7
  6
_SOLID
370
9
 10
2.2267484664917
 20
0.861724138259888
 11
2.23915767669678
 21
0.874133408069611
  0
LINE
  5
77
100
AcDbEntity
  8
SEMA2D
100
AcDbLine
 62
7
  6
_SOLID
370
9
 10
2.24167442321777
 20
0.895868360996246
 11
2.23650527000427
 21
0.882360458374023
  0
LINE
  5
78
100
AcDbEntity
  8
SEMA2D
100
AcDbLine
 62
7
  6
_SOLID
370
9
 10
2.25348997116089
 20
0.888465583324432
 11
2.2585301399231
 21
0.893505871295929
  0
LINE
  5
79
100
AcDbEntity
  8
SEMA2D
100
AcDbLine
 62
7
  6
_SOLID
370
9
 10
2.24669885635376
 20
0.874992370605469
 11
2.26757478713989
 21
0.895868360996246
  0
LINE
  5
7A
100
AcDbEntity
  8
SEMA2D
100
AcDbLine
 62
7
  6
_SOLID
370
9
 10
2.23266911506653
 20
0.860962569713593
 11
2.24583983421326
 21
0.874133408069611
  0
LINE
  5
7B
100
AcDbEntity
  8
SEMA2D
100
AcDbLine
 62
7
  6
_SOLID
370
9
 10
2.2126259803772
 20
0.867648184299469
 11
2.22225379943848
 21
0.877275943756104
  0
LINE
  5
7C
100
AcDbEntity
  8
SEMA2D
100
AcDbLine
 62
7
  6
_SOLID
370
9
 10
2.20399117469788
 20
0.859013378620148
 11
2.20507764816284
 21
0.860099852085113
  0
LINE
  5
7D
100
AcDbEntity
  8
SEMA2D
100
AcDbLine
 62
7
  6
_SOLID
370
9
 10
2.2168390750885
 20
0.865179002285004
 11
2.22696852684021
 21
0.875308394432068
  0
LINE
  5
7E
100
AcDbEntity
  8
SEMA2D
100
AcDbLine
 62
7
  6
_SOLID
370
9
 10
2.17720556259155
 20
0.880984604358673
 11
2.18074941635132
 21
0.872007131576538
  0
LINE
  5
7F
100
AcDbEntity
  8
SEMA2D
100
AcDbLine
 62
7
  6
_SOLID
370
9
 10
2.22152018547058
 20
0.863178014755249
 11
2.23256969451904
 21
0.874227464199066
  0
LINE
  5
80
100
AcDbEntity
  8
SEMA2D
100
AcDbLine
 62
7
  6
_SOLID
370
9
 10
2.24648976325989
 20
0.895868360996246
 11
2.24609136581421
 21
0.893745005130768
  0
LINE
  5
81
100
AcDbEntity
  8
SEMA2D
100
AcDbLine
 62
7
  6
_SOLID
370
9
 10
2.23508667945862
 20
0.882360458374023
 11
2.23508667945862
 21
0.874133408069611
  0
LINE
  5
82
100
AcDbEntity
  8
SEMA2D
100
AcDbLine
 62
7
  6
_SOLID
370
9
 10
2.24193692207336
 20
0.845783352851868
 11
2.24598813056946
 21
0.860903382301331
  0
LINE
  5
83
100
AcDbEntity
  8
SEMA2D
100
AcDbLine
 62
7
  6
_SOLID
370
9
 10
2.27202892303467
 20
0.880275905132294
 11
2.28762125968933
 21
0.895868360996246
  0
LINE
  5
84
100
AcDbEntity
  8
SEMA2D
100
AcDbLine
 62
7
  6
_SOLID
370
9
 10
2.25265645980835
 20
0.860903382301331
 11
2.25988841056824
 21
0.868135511875153
  0
LINE
  5
85
100
AcDbEntity
  8
SEMA2D
100
AcDbLine
 62
7
  6
_SOLID
370
9
 10
2.2385745048523
 20
0.86018580198288
 11
2.27425694465637
 21
0.895868360996246
  0
LINE
  5
86
100
AcDbEntity
  8
SEMA2D
100
AcDbLine
 62
7
  6
_SOLID
370
9
 10
2.20887160301209
 20
0.866030931472778
 11
2.21429681777954
 21
0.845783352851868
  0
LINE
  5
87
100
AcDbEntity
  8
SEMA2D
100
AcDbLine
 62
7
  6
_SOLID
370
9
 10
2.24408411979675
 20
0.859013378620148
 11
2.26303029060364
 21
0.877959489822388
  0
LINE
  5
88
100
AcDbEntity
  8
SEMA2D
100
AcDbLine
 62
7
  6
_SOLID
370
9
 10
2.20862674713135
 20
0.895868360996246
 11
2.20919585227966
 21
0.893745005130768
  0
LINE
  5
89
100
AcDbEntity
  8
SEMA2D
100
AcDbLine
 62
7
  6
_SOLID
370
9
 10
2.26534676551819
 20
0.880275905132294
 11
2.28093910217285
 21
0.895868360996246
  0
LINE
  5
8A
100
AcDbEntity
  8
SEMA2D
100
AcDbLine
 62
7
  6
_SOLID
370
9
 10
2.32621312141418
 20
0.860956430435181
 11
2.36112499237061
 21
0.895868360996246
  0
LINE
  5
8B
100
AcDbEntity
  8
SEMA2D
100
AcDbLine
 62
7
  6
_SOLID
370
9
 10
2.34943175315857
 20
0.859013378620148
 11
2.38271546363831
 21
0.859013378620148
  0
LINE
  5
8C
100
AcDbEntity
  8
SEMA2D
100
AcDbLine
 62
7
  6
_SOLID
370
9
 10
2.31163167953491
 20
0.859013378620148
 11
2.31824684143066
 21
0.859013378620148
  0
LINE
  5
8D
100
AcDbEntity
  8
SEMA2D
100
AcDbLine
 62
7
  6
_SOLID
370
9
 10
2.3242495059967
 20
0.860903382301331
 11
2.31864857673645
 21
0.860903382301331
  0
LINE
  5
8E
100
AcDbEntity
  8
SEMA2D
100
AcDbLine
 62
7
  6
_SOLID
370
9
 10
2.2742702960968
 20
0.860903382301331
 11
2.24598813056946
 21
0.860903382301331
  0
LINE
  5
8F
100
AcDbEntity
  8
SEMA2D
100
AcDbLine
 62
7
  6
_SOLID
370
9
 10
2.3111252784729
 20
0.860903382301331
 11
2.28189826011658
 21
0.860903382301331
  0
LINE
  5
90
100
AcDbEntity
  8
SEMA2D
100
AcDbLine
 62
7
  6
_SOLID
370
9
 10
2.23886680603027
 20
0.859013378620148
 11
2.24548172950745
 21
0.859013378620148
  0
LINE
  5
91
100
AcDbEntity
  8
SEMA2D
100
AcDbLine
 62
7
  6
_SOLID
370
9
 10
2.15015435218811
 20
0.859013378620148
 11
2.20484685897827
 21
0.859013378620148
  0
LINE
  5
92
100
AcDbEntity
  8
SEMA2D
100
AcDbLine
 62
7
  6
_SOLID
370
9
 10
2.34980773925781
 20
0.893745005130768
 11
2.35037684440613
 21
0.895868360996246
  0
LINE
  5
93
100
AcDbEntity
  8
SEMA2D
100
AcDbLine
 62
7
  6
_SOLID
370
9
 10
2.32391691207886
 20
0.882360458374023
 11
2.32391691207886
 21
0.874133408069611
  0
LINE
  5
94
100
AcDbEntity
  8
SEMA2D
100
AcDbLine
 62
7
  6
_SOLID
370
9
 10
2.38453459739685
 20
0.865820586681366
 11
2.39802217483521
 21
0.87930816411972
  0
LINE
  5
95
100
AcDbEntity
  8
SEMA2D
100
AcDbLine
 62
7
  6
_SOLID
370
9
 10
2.16137671470642
 20
0.872007131576538
 11
2.17106294631958
 21
0.872007131576538
  0
LINE
  5
96
100
AcDbEntity
  8
SEMA2D
100
AcDbLine
 62
7
  6
_SOLID
370
9
 10
2.38486742973328
 20
0.859471201896668
 11
2.39835500717163
 21
0.872958779335022
  0
LINE
  5
97
100
AcDbEntity
  8
SEMA2D
100
AcDbLine
 62
7
  6
_SOLID
370
9
 10
2.20633840560913
 20
0.866030931472778
 11
2.2152419090271
 21
0.866030931472778
  0
LINE
  5
98
100
AcDbEntity
  8
SEMA2D
100
AcDbLine
 62
7
  6
_SOLID
370
9
 10
2.23839545249939
 20
0.860903382301331
 11
2.23475408554077
 21
0.860903382301331
  0
LINE
  5
99
100
AcDbEntity
  8
SEMA2D
100
AcDbLine
 62
7
  6
_SOLID
370
9
 10
2.34376168251038
 20
0.866030931472778
 11
2.34768223762512
 21
0.866030931472778
  0
LINE
  5
9A
100
AcDbEntity
  8
SEMA2D
100
AcDbLine
 62
7
  6
_SOLID
370
9
 10
2.3111252784729
 20
0.860903382301331
 11
2.31517672538757
 21
0.845783352851868
  0
LINE
  5
9B
100
AcDbEntity
  8
SEMA2D
100
AcDbLine
 62
7
  6
_SOLID
370
9
 10
2.14909172058105
 20
0.866573393344879
 11
2.14814686775208
 21
0.866573393344879
  0
LINE
  5
9C
100
AcDbEntity
  8
SEMA2D
100
AcDbLine
 62
7
  6
_SOLID
370
9
 10
2.21429681777954
 20
0.845783352851868
 11
2.24193692207336
 21
0.845783352851868
  0
LINE
  5
9D
100
AcDbEntity
  8
SEMA2D
100
AcDbLine
 62
7
  6
_SOLID
370
9
 10
2.3679416179657
 20
0.882638394832611
 11
2.38117170333862
 21
0.895868360996246
  0
LINE
  5
9E
100
AcDbEntity
  8
SEMA2D
100
AcDbLine
 62
7
  6
_SOLID
370
9
 10
2.27099680900574
 20
0.845783352851868
 11
2.28517174720764
 21
0.845783352851868
  0
LINE
  5
9F
100
AcDbEntity
  8
SEMA2D
100
AcDbLine
 62
7
  6
_SOLID
370
9
 10
2.31824684143066
 20
0.859013378620148
 11
2.31864857673645
 21
0.860903382301331
  0
LINE
  5
A0
100
AcDbEntity
  8
SEMA2D
100
AcDbLine
 62
7
  6
_SOLID
370
9
 10
2.31517672538757
 20
0.845783352851868
 11
2.34423422813416
 21
0.845783352851868
  0
LINE
  5
A1
100
AcDbEntity
  8
SEMA2D
100
AcDbLine
 62
7
  6
_SOLID
370
9
 10
2.27477669715881
 20
0.859013378620148
 11
2.2742702960968
 21
0.860903382301331
  0
LINE
  5
A2
100
AcDbEntity
  8
SEMA2D
100
AcDbLine
 62
7
  6
_SOLID
370
9
 10
2.33408188819885
 20
0.86214292049408
 11
2.36780714988709
 21
0.895868360996246
  0
LINE
  5
A3
100
AcDbEntity
  8
SEMA2D
100
AcDbLine
 62
7
  6
_SOLID
370
9
 10
2.34604859352112
 20
0.86742752790451
 11
2.35861682891846
 21
0.87999564409256
  0
LINE
  5
A4
100
AcDbEntity
  8
SEMA2D
100
AcDbLine
 62
7
  6
_SOLID
370
9
 10
2.34841084480286
 20
0.863107740879059
 11
2.35681295394897
 21
0.871509790420532
  0
LINE
  5
A5
100
AcDbEntity
  8
SEMA2D
100
AcDbLine
 62
7
  6
_SOLID
370
9
 10
2.36125946044922
 20
0.882638394832611
 11
2.37448954582214
 21
0.895868360996246
  0
LINE
  5
A6
100
AcDbEntity
  8
SEMA2D
100
AcDbLine
 62
7
  6
_SOLID
370
9
 10
2.34954953193665
 20
0.858540892601013
 11
2.3540563583374
 21
0.858540892601013
  0
LINE
  5
A7
100
AcDbEntity
  8
SEMA2D
100
AcDbLine
 62
7
  6
_SOLID
370
9
 10
2.20023965835571
 20
0.858540892601013
 11
2.20474624633789
 21
0.858540892601013
  0
LINE
  5
A8
100
AcDbEntity
  8
SEMA2D
100
AcDbLine
 62
7
  6
_SOLID
370
9
 10
2.28139185905457
 20
0.859013378620148
 11
2.27477669715881
 21
0.859013378620148
  0
LINE
  5
A9
100
AcDbEntity
  8
SEMA2D
100
AcDbLine
 62
7
  6
_SOLID
370
9
 10
2.37462377548218
 20
0.882638394832611
 11
2.3878538608551
 21
0.895868360996246
  0
LINE
  5
AA
100
AcDbEntity
  8
SEMA2D
100
AcDbLine
 62
7
  6
_SOLID
370
9
 10
2.35099864006042
 20
0.859013378620148
 11
2.35500931739807
 21
0.86302387714386
  0
LINE
  5
AB
100
AcDbEntity
  8
SEMA2D
100
AcDbLine
 62
7
  6
_SOLID
370
9
 10
2.38130593299866
 20
0.882638394832611
 11
2.39453601837158
 21
0.895868360996246
  0
LINE
  5
AC
100
AcDbEntity
  8
SEMA2D
100
AcDbLine
 62
7
  6
_SOLID
370
9
 10
2.38420176506042
 20
0.872169971466065
 11
2.39768934249878
 21
0.885657608509064
  0
LINE
  5
AD
100
AcDbEntity
  8
SEMA2D
100
AcDbLine
 62
7
  6
_SOLID
370
9
 10
2.38386917114258
 20
0.878519356250763
 11
2.39735674858093
 21
0.892006993293762
  0
ARC
  5
AE
100
AcDbEntity
  8
SEMA2D
100
AcDbCircle
 62
7
  6
_SOLID
370
9
 10
2.23475408554077
 20
0.900593400001526
 40
0.0264599993824959
100
AcDbArc
 50
195
 51
270
  0
ARC
  5
AF
100
AcDbEntity
  8
SEMA2D
100
AcDbCircle
 62
7
  6
_SOLID
370
9
 10
2.23475408554077
 20
0.900593400001526
 40
0.0396899990737438
100
AcDbArc
 50
226.718383789062
 51
270
  0
ARC
  5
B0
100
AcDbEntity
  8
SEMA2D
100
AcDbCircle
 62
7
  6
_SOLID
370
9
 10
2.3242495059967
 20
0.900593400001526
 40
0.0264599993824959
100
AcDbArc
 50
270
 51
345
  0
ARC
  5
B1
100
AcDbEntity
  8
SEMA2D
100
AcDbCircle
 62
7
  6
_SOLID
370
9
 10
2.3242495059967
 20
0.900593400001526
 40
0.0396899990737438
100
AcDbArc
 50
270
 51
305.234588623047
  0
LINE
  5
B2
100
AcDbEntity
  8
SEMA2D
100
AcDbLine
 62
7
  6
_SOLID
370
9
 10
2.17132782936096
 20
0.873125076293945
 11
2.17776656150818
 21
0.879563689231873
  0
LINE
  5
B3
100
AcDbEntity
  8
SEMA2D
100
AcDbLine
 62
7
  6
_SOLID
370
9
 10
2.15721607208252
 20
0.859013378620148
 11
2.17020988464355
 21
0.872007131576538
  0
LINE
  5
B4
100
AcDbEntity
  8
SEMA2D
100
AcDbLine
 62
7
  6
_SOLID
370
9
 10
2.163898229599
 20
0.859013378620148
 11
2.17965769767761
 21
0.874772727489471
  0
LINE
  5
B5
100
AcDbEntity
  8
SEMA2D
100
AcDbLine
 62
7
  6
_SOLID
370
9
 10
2.17058038711548
 20
0.859013378620148
 11
2.18357419967651
 21
0.872007131576538
  0
LINE
  5
B6
100
AcDbEntity
  8
SEMA2D
100
AcDbLine
 62
7
  6
_SOLID
370
9
 10
2.19782614707947
 20
0.892941117286682
 11
2.2007532119751
 21
0.895868360996246
  0
LINE
  5
B7
100
AcDbEntity
  8
SEMA2D
100
AcDbLine
 62
7
  6
_SOLID
370
9
 10
2.1493775844574
 20
0.864539265632629
 11
2.1600341796875
 21
0.875195801258087
  0
LINE
  5
B8
100
AcDbEntity
  8
SEMA2D
100
AcDbLine
 62
7
  6
_SOLID
370
9
 10
2.14814686775208
 20
0.869990527629852
 11
2.15805435180664
 21
0.879898011684418
  0
LINE
  5
B9
100
AcDbEntity
  8
SEMA2D
100
AcDbLine
 62
7
  6
_SOLID
370
9
 10
2.15015435218811
 20
0.859013378620148
 11
2.14909172058105
 21
0.866573393344879
  0
LINE
  5
BA
100
AcDbEntity
  8
SEMA2D
100
AcDbLine
 62
7
  6
_SOLID
370
9
 10
2.15053391456604
 20
0.859013378620148
 11
2.16352772712708
 21
0.872007131576538
  0
LINE
  5
BB
100
AcDbEntity
  8
SEMA2D
100
AcDbLine
 62
7
  6
_SOLID
370
9
 10
2.17106294631958
 20
0.872007131576538
 11
2.17318940162659
 21
0.880984604358673
  0
LINE
  5
BC
100
AcDbEntity
  8
SEMA2D
100
AcDbLine
 62
7
  6
_SOLID
370
9
 10
2.20474624633789
 20
0.858540892601013
 11
2.20754337310791
 21
0.871699333190918
  0
LINE
  5
BD
100
AcDbEntity
  8
SEMA2D
100
AcDbLine
 62
7
  6
_SOLID
370
9
 10
2.15759682655334
 20
0.880984604358673
 11
2.16137671470642
 21
0.872007131576538
  0
LINE
  5
BE
100
AcDbEntity
  8
SEMA2D
100
AcDbLine
 62
7
  6
_SOLID
370
9
 10
2.19062685966492
 20
0.859013378620148
 11
2.21481585502625
 21
0.883202254772186
  0
LINE
  5
BF
100
AcDbEntity
  8
SEMA2D
100
AcDbLine
 62
7
  6
_SOLID
370
9
 10
2.2088360786438
 20
0.87054044008255
 11
2.21822881698608
 21
0.879933178424835
  0
LINE
  5
C0
100
AcDbEntity
  8
SEMA2D
100
AcDbLine
 62
7
  6
_SOLID
370
9
 10
2.1973090171814
 20
0.859013378620148
 11
2.20688152313232
 21
0.868585765361786
  0
LINE
  5
C1
100
AcDbEntity
  8
SEMA2D
100
AcDbLine
 62
7
  6
_SOLID
370
9
 10
2.19492435455322
 20
0.872007131576538
 11
2.19823169708252
 21
0.895868360996246
  0
LINE
  5
C2
100
AcDbEntity
  8
SEMA2D
100
AcDbLine
 62
7
  6
_SOLID
370
9
 10
2.19675064086914
 20
0.885183691978455
 11
2.20743536949158
 21
0.895868360996246
  0
LINE
  5
C3
100
AcDbEntity
  8
SEMA2D
100
AcDbLine
 62
7
  6
_SOLID
370
9
 10
2.17726254463196
 20
0.859013378620148
 11
2.19025635719299
 21
0.872007131576538
  0
LINE
  5
C4
100
AcDbEntity
  8
SEMA2D
100
AcDbLine
 62
7
  6
_SOLID
370
9
 10
2.18394470214844
 20
0.859013378620148
 11
2.21200776100159
 21
0.887076437473297
  0
LINE
  5
C5
100
AcDbEntity
  8
SEMA2D
100
AcDbLine
 62
7
  6
_SOLID
370
9
 10
2.19567537307739
 20
0.877426207065582
 11
2.20986700057983
 21
0.891617834568024
  0
LINE
  5
C6
100
AcDbEntity
  8
SEMA2D
100
AcDbLine
 62
7
  6
_SOLID
370
9
 10
2.14814686775208
 20
0.866573393344879
 11
2.14814686775208
 21
0.870353400707245
  0
LINE
  5
C7
100
AcDbEntity
  8
SEMA2D
100
AcDbLine
 62
7
  6
_SOLID
370
9
 10
2.1496410369873
 20
0.880984604358673
 11
2.14814686775208
 21
0.870353400707245
  0
LINE
  5
C8
100
AcDbEntity
  8
SEMA2D
100
AcDbLine
 62
7
  6
_SOLID
370
9
 10
2.17112874984741
 20
0.895868360996246
 11
2.16762948036194
 21
0.876023352146149
  0
LINE
  5
C9
100
AcDbEntity
  8
SEMA2D
100
AcDbLine
 62
7
  6
_SOLID
370
9
 10
2.1491801738739
 20
0.877706050872803
 11
2.15245866775513
 21
0.880984604358673
  0
LINE
  5
CA
100
AcDbEntity
  8
SEMA2D
100
AcDbLine
 62
7
  6
_SOLID
370
9
 10
2.26376891136169
 20
0.880275905132294
 11
2.25756430625916
 21
0.860903382301331
  0
LINE
  5
CB
100
AcDbEntity
  8
SEMA2D
100
AcDbLine
 62
7
  6
_SOLID
370
9
 10
2.2914547920227
 20
0.880275905132294
 11
2.29765915870666
 21
0.860903382301331
  0
LINE
  5
CC
100
AcDbEntity
  8
SEMA2D
100
AcDbLine
 62
7
  6
_SOLID
370
9
 10
2.27761173248291
 20
0.880275905132294
 11
2.27761173248291
 21
0.859013378620148
  0
LINE
  5
CD
100
AcDbEntity
  8
SEMA2D
100
AcDbLine
 62
7
  6
_SOLID
370
9
 10
2.30010008811951
 20
0.893505871295929
 11
2.30398964881897
 21
0.881531238555908
  0
LINE
  5
CE
100
AcDbEntity
  8
SEMA2D
100
AcDbLine
 62
7
  6
_SOLID
370
9
 10
2.25512361526489
 20
0.893505871295929
 11
2.25123381614685
 21
0.881531238555908
  0
ARC
  5
CF
100
AcDbEntity
  8
SEMA2D
100
AcDbCircle
 62
7
  6
_SOLID
370
9
 10
2.30005717277527
 20
0.87370240688324
 40
0.00876096356660128
100
AcDbArc
 50
2.81967878341675
 51
63.3297920227051
  0
ARC
  5
D0
100
AcDbEntity
  8
SEMA2D
100
AcDbCircle
 62
7
  6
_SOLID
370
9
 10
2.25627565383911
 20
0.872979938983917
 40
0.00992694217711687
100
AcDbArc
 50
120.523040771484
 51
173.327484130859
  0
ARC
  5
D1
100
AcDbEntity
  8
SEMA2D
100
AcDbCircle
 62
7
  6
_SOLID
370
9
 10
2.26802229881287
 20
0.892346203327179
 40
0.00355050479993224
100
AcDbArc
 50
97.2396621704102
 51
160.935684204102
  0
ARC
  5
D2
100
AcDbEntity
  8
SEMA2D
100
AcDbCircle
 62
7
  6
_SOLID
370
9
 10
2.28642439842224
 20
0.89137589931488
 40
0.00464917719364166
100
AcDbArc
 50
27.2671852111816
 51
75.0819396972656
  0
LINE
  5
D3
100
AcDbEntity
  8
SEMA2D
100
AcDbLine
 62
7
  6
_SOLID
370
9
 10
2.14820909500122
 20
0.704096436500549
 11
2.40420913696289
 21
0.704096436500549
  0
LINE
  5
D4
100
AcDbEntity
  8
SEMA2D
100
AcDbLine
 62
7
  6
_SOLID
370
9
 10
2.14820909500122
 20
0.704096436500549
 11
2.14820909500122
 21
0.711096405982971
  0
LINE
  5
D5
100
AcDbEntity
  8
SEMA2D
100
AcDbLine
 62
7
  6
_SOLID
370
9
 10
2.14820909500122
 20
0.704096436500549
 11
2.14820909500122
 21
0.697096407413483
  0
LINE
  5
D6
100
AcDbEntity
  8
SEMA2D
100
AcDbLine
 62
7
  6
_SOLID
370
9
 10
2.14820909500122
 20
0.704096436500549
 11
2.15427136421204
 21
0.70759642124176
  0
LINE
  5
D7
100
AcDbEntity
  8
SEMA2D
100
AcDbLine
 62
7
  6
_SOLID
370
9
 10
2.14820909500122
 20
0.704096436500549
 11
2.14214682579041
 21
0.700596451759338
  0
LINE
  5
D8
100
AcDbEntity
  8
SEMA2D
100
AcDbLine
 62
7
  6
_DOT
370
9
 10
2.14820909500122
 20
0.747713387012482
 11
2.14820909500122
 21
0.704096436500549
  0
LINE
  5
D9
100
AcDbEntity
  8
SEMA2D
100
AcDbLine
 62
7
  6
_DOT
370
9
 10
2.14820909500122
 20
0.697713375091553
 11
2.14820909500122
 21
0.747713387012482
  0
MTEXT
  5
DA
100
AcDbEntity
  8
SEMATEXT
100
AcDbMText
 62
7
 10
2.24753570556641
 20
0.709028005599976
 40
0.00800000037997961
 71
7
  1
{\fArial Narrow;211}
  7
STANDARD
 73
2
  0
LINE
  5
DB
100
AcDbEntity
  8
SEMA2D
100
AcDbLine
 62
7
  6
_SOLID
370
9
 10
2.35970520973206
 20
0.704096436500549
 11
2.35970520973206
 21
0.711096405982971
  0
LINE
  5
DC
100
AcDbEntity
  8
SEMA2D
100
AcDbLine
 62
7
  6
_SOLID
370
9
 10
2.35970520973206
 20
0.704096436500549
 11
2.35970520973206
 21
0.697096407413483
  0
LINE
  5
DD
100
AcDbEntity
  8
SEMA2D
100
AcDbLine
 62
7
  6
_SOLID
370
9
 10
2.35970520973206
 20
0.704096436500549
 11
2.36576724052429
 21
0.70759642124176
  0
LINE
  5
DE
100
AcDbEntity
  8
SEMA2D
100
AcDbLine
 62
7
  6
_SOLID
370
9
 10
2.35970520973206
 20
0.704096436500549
 11
2.35364294052124
 21
0.700596451759338
  0
LINE
  5
DF
100
AcDbEntity
  8
SEMA2D
100
AcDbLine
 62
7
  6
_DOT
370
9
 10
2.35970520973206
 20
0.747713387012482
 11
2.35970520973206
 21
0.704096436500549
  0
LINE
  5
E0
100
AcDbEntity
  8
SEMA2D
100
AcDbLine
 62
7
  6
_DOT
370
9
 10
2.35970520973206
 20
0.747713387012482
 11
2.35970520973206
 21
0.747713387012482
  0
MTEXT
  5
E1
100
AcDbEntity
  8
SEMATEXT
100
AcDbMText
 62
7
 10
2.37767624855042
 20
0.709028005599976
 40
0.00800000037997961
 71
7
  1
{\fArial Narrow;45}
  7
STANDARD
 73
2
  0
LINE
  5
E2
100
AcDbEntity
  8
SEMA2D
100
AcDbLine
 62
7
  6
_SOLID
370
9
 10
2.40420913696289
 20
0.704096436500549
 11
2.40420913696289
 21
0.711096405982971
  0
LINE
  5
E3
100
AcDbEntity
  8
SEMA2D
100
AcDbLine
 62
7
  6
_SOLID
370
9
 10
2.40420913696289
 20
0.704096436500549
 11
2.40420913696289
 21
0.697096407413483
  0
LINE
  5
E4
100
AcDbEntity
  8
SEMA2D
100
AcDbLine
 62
7
  6
_SOLID
370
9
 10
2.40420913696289
 20
0.704096436500549
 11
2.41027116775513
 21
0.70759642124176
  0
LINE
  5
E5
100
AcDbEntity
  8
SEMA2D
100
AcDbLine
 62
7
  6
_SOLID
370
9
 10
2.40420913696289
 20
0.704096436500549
 11
2.39814686775208
 21
0.700596451759338
  0
LINE
  5
E6
100
AcDbEntity
  8
SEMA2D
100
AcDbLine
 62
7
  6
_DOT
370
9
 10
2.40420913696289
 20
0.747713387012482
 11
2.40420913696289
 21
0.704096436500549
  0
LINE
  5
E7
100
AcDbEntity
  8
SEMA2D
100
AcDbLine
 62
7
  6
_DOT
370
9
 10
2.40420913696289
 20
0.747713387012482
 11
2.40420913696289
 21
0.747713387012482
  0
LINE
  5
E8
100
AcDbEntity
  8
SEMA2D
100
AcDbLine
 62
7
  6
_SOLID
370
9
 10
2.64108037948608
 20
0.562988936901093
 11
2.63446545600891
 21
0.564761400222778
  0
LINE
  5
E9
100
AcDbEntity
  8
SEMA2D
100
AcDbLine
 62
7
  6
_SOLID
370
9
 10
2.60422539710999
 20
0.573413610458374
 11
2.58859539031982
 21
0.576169610023499
  0
LINE
  5
EA
100
AcDbEntity
  8
SEMA2D
100
AcDbLine
 62
7
  6
_SOLID
370
9
 10
2.60422539710999
 20
0.59935337305069
 11
2.54488658905029
 21
0.589039504528046
  0
LINE
  5
EB
100
AcDbEntity
  8
SEMA2D
100
AcDbLine
 62
7
  6
_SOLID
370
9
 10
2.62265276908874
 20
0.60310035943985
 11
2.63966274261475
 21
0.60310035943985
  0
LINE
  5
EC
100
AcDbEntity
  8
SEMA2D
100
AcDbLine
 62
7
  6
_SOLID
370
9
 10
2.60422539710999
 20
0.602088928222656
 11
2.61178541183472
 21
0.603151440620422
  0
LINE
  5
ED
100
AcDbEntity
  8
SEMA2D
100
AcDbLine
 62
7
  6
_SOLID
370
9
 10
2.63824534416199
 20
0.555614292621613
 11
2.64108037948608
 21
0.55637389421463
  0
LINE
  5
EE
100
AcDbEntity
  8
SEMA2D
100
AcDbLine
 62
7
  6
_SOLID
370
9
 10
2.60422539710999
 20
0.555668532848358
 11
2.60375285148621
 21
0.556486904621124
  0
LINE
  5
EF
100
AcDbEntity
  8
SEMA2D
100
AcDbLine
 62
7
  6
_SOLID
370
9
 10
2.64108037948608
 20
0.515266418457031
 11
2.63824534416199
 21
0.516026079654694
  0
LINE
  5
F0
100
AcDbEntity
  8
SEMA2D
100
AcDbLine
 62
7
  6
_SOLID
370
9
 10
2.60422539710999
 20
0.58779639005661
 11
2.58859539031982
 21
0.583608329296112
  0
LINE
  5
F1
100
AcDbEntity
  8
SEMA2D
100
AcDbLine
 62
7
  6
_SOLID
370
9
 10
2.64108037948608
 20
0.594173908233643
 11
2.62123537063599
 21
0.589226007461548
  0
LINE
  5
F2
100
AcDbEntity
  8
SEMA2D
100
AcDbLine
 62
7
  6
_SOLID
370
9
 10
2.61556529998779
 20
0.604096412658691
 11
2.62265276908874
 21
0.60310035943985
  0
LINE
  5
F3
100
AcDbEntity
  8
SEMA2D
100
AcDbLine
 62
7
  6
_SOLID
370
9
 10
2.61178541183472
 20
0.604096412658691
 11
2.63262462615967
 21
0.604096412658691
  0
LINE
  5
F4
100
AcDbEntity
  8
SEMA2D
100
AcDbLine
 62
7
  6
_SOLID
370
9
 10
2.63257527351379
 20
0.604096412658691
 11
2.64108037948608
 21
0.602901101112366
  0
LINE
  5
F5
100
AcDbEntity
  8
SEMA2D
100
AcDbLine
 62
7
  6
_SOLID
370
9
 10
2.61556529998779
 20
0.175176426768303
 11
2.61556529998779
 21
0.604096412658691
  0
LINE
  5
F6
100
AcDbEntity
  8
SEMA2D
100
AcDbLine
 62
7
  6
_SOLID
370
9
 10
2.61178541183472
 20
0.175176426768303
 11
2.61178541183472
 21
0.604096412658691
  0
LINE
  5
F7
100
AcDbEntity
  8
SEMA2D
100
AcDbLine
 62
7
  6
_SOLID
370
9
 10
2.60186290740967
 20
0.176287442445755
 11
2.60186290740967
 21
0.185571417212486
  0
LINE
  5
F8
100
AcDbEntity
  8
SEMA2D
100
AcDbLine
 62
7
  6
_SOLID
370
9
 10
2.59808278083801
 20
0.224316418170929
 11
2.59808278083801
 21
0.229041427373886
  0
LINE
  5
F9
100
AcDbEntity
  8
SEMA2D
100
AcDbLine
 62
7
  6
_SOLID
370
9
 10
2.60375285148621
 20
0.567826926708221
 11
2.60375285148621
 21
0.556486904621124
  0
LINE
  5
FA
100
AcDbEntity
  8
SEMA2D
100
AcDbLine
 62
7
  6
_SOLID
370
9
 10
2.60422539710999
 20
0.19092945754528
 11
2.60422539710999
 21
0.602088928222656
  0
LINE
  5
FB
100
AcDbEntity
  8
SEMA2D
100
AcDbLine
 62
7
  6
_SOLID
370
9
 10
2.60422539710999
 20
0.176121428608894
 11
2.60422539710999
 21
0.175176426768303
  0
LINE
  5
FC
100
AcDbEntity
  8
SEMA2D
100
AcDbLine
 62
7
  6
_SOLID
370
9
 10
2.64108037948608
 20
0.197120636701584
 11
2.64108037948608
 21
0.515266418457031
  0
LINE
  5
FD
100
AcDbEntity
  8
SEMA2D
100
AcDbLine
 62
7
  6
_SOLID
370
9
 10
2.63824534416199
 20
0.516026079654694
 11
2.63824534416199
 21
0.555614292621613
  0
LINE
  5
FE
100
AcDbEntity
  8
SEMA2D
100
AcDbLine
 62
7
  6
_SOLID
370
9
 10
2.64108037948608
 20
0.55637389421463
 11
2.64108037948608
 21
0.602901101112366
  0
LINE
  5
FF
100
AcDbEntity
  8
SEMA2D
100
AcDbLine
 62
7
  6
_SOLID
370
9
 10
2.60186290740967
 20
0.185571417212486
 11
2.60414481163025
 21
0.190907880663872
  0
LINE
  5
100
100
AcDbEntity
  8
SEMA2D
100
AcDbLine
 62
7
  6
_SOLID
370
9
 10
2.62619662284851
 20
0.483349770307541
 11
2.62123537063599
 21
0.511486411094666
  0
LINE
  5
101
100
AcDbEntity
  8
SEMA2D
100
AcDbLine
 62
7
  6
_SOLID
370
9
 10
2.62123537063599
 20
0.603299558162689
 11
2.62123537063599
 21
0.511486411094666
  0
LINE
  5
102
100
AcDbEntity
  8
SEMA2D
100
AcDbLine
 62
7
  6
_SOLID
370
9
 10
2.61721920967102
 20
0.175982519984245
 11
2.61721920967102
 21
0.20186884701252
  0
LINE
  5
103
100
AcDbEntity
  8
SEMA2D
100
AcDbLine
 62
7
  6
_SOLID
370
9
 10
2.62619662284851
 20
0.483349770307541
 11
2.62619662284851
 21
0.203130543231964
  0
LINE
  5
104
100
AcDbEntity
  8
SEMA2D
100
AcDbLine
 62
7
  6
_SOLID
370
9
 10
2.63446545600891
 20
0.564761400222778
 11
2.63446545600891
 21
0.592524647712707
  0
LINE
  5
105
100
AcDbEntity
  8
SEMA2D
100
AcDbLine
 62
7
  6
_SOLID
370
9
 10
2.58721542358398
 20
0.178512021899223
 11
2.60186290740967
 21
0.176453456282616
  0
LINE
  5
106
100
AcDbEntity
  8
SEMA2D
100
AcDbLine
 62
7
  6
_SOLID
370
9
 10
2.60422539710999
 20
0.19107423722744
 11
2.58871531486511
 21
0.186918348073959
  0
LINE
  5
107
100
AcDbEntity
  8
SEMA2D
100
AcDbLine
 62
7
  6
_SOLID
370
9
 10
2.61178541183472
 20
0.176121428608894
 11
2.61128354072571
 21
0.176191940903664
  0
LINE
  5
108
100
AcDbEntity
  8
SEMA2D
100
AcDbLine
 62
7
  6
_SOLID
370
9
 10
2.62619662284851
 20
0.203130543231964
 11
2.61556529998779
 21
0.201636418700218
  0
LINE
  5
109
100
AcDbEntity
  8
SEMA2D
100
AcDbLine
 62
7
  6
_SOLID
370
9
 10
2.49996280670166
 20
0.194214627146721
 11
2.58721542358398
 21
0.178677842020988
  0
LINE
  5
10A
100
AcDbEntity
  8
SEMA2D
100
AcDbLine
 62
7
  6
_SOLID
370
9
 10
2.61178541183472
 20
0.176121428608894
 11
2.60422539710999
 21
0.176121428608894
  0
LINE
  5
10B
100
AcDbEntity
  8
SEMA2D
100
AcDbLine
 62
7
  6
_SOLID
370
9
 10
2.61556529998779
 20
0.175176426768303
 11
2.60422539710999
 21
0.175176426768303
  0
LINE
  5
10C
100
AcDbEntity
  8
SEMA2D
100
AcDbLine
 62
7
  6
_SOLID
370
9
 10
2.60186290740967
 20
0.176692798733711
 11
2.61128354072571
 21
0.176191940903664
  0
LINE
  5
10D
100
AcDbEntity
  8
SEMA2D
100
AcDbLine
 62
7
  6
_SOLID
370
9
 10
2.60186290740967
 20
0.176287442445755
 11
2.60422539710999
 21
0.176121428608894
  0
LINE
  5
10E
100
AcDbEntity
  8
SEMA2D
100
AcDbLine
 62
7
  6
_SOLID
370
9
 10
2.50018787384033
 20
0.194201931357384
 11
2.54488658905029
 21
0.589039504528046
  0
LINE
  5
10F
100
AcDbEntity
  8
SEMA2D
100
AcDbLine
 62
7
  6
_SOLID
370
9
 10
2.60422539710999
 20
0.568299412727356
 11
2.60375285148621
 21
0.567826926708221
  0
LINE
  5
110
100
AcDbEntity
  8
SEMA2D
100
AcDbLine
 62
7
  6
_SOLID
370
9
 10
2.58859539031982
 20
0.583608329296112
 11
2.58859539031982
 21
0.576169610023499
  0
LINE
  5
111
100
AcDbEntity
  8
SEMA2D
100
AcDbLine
 62
7
  6
_SOLID
370
9
 10
2.58871531486511
 20
0.178512021899223
 11
2.58871531486511
 21
0.186918348073959
  0
LINE
  5
112
100
AcDbEntity
  8
SEMA2D
100
AcDbLine
 62
7
  6
_SOLID
370
9
 10
2.61556529998779
 20
0.201636418700218
 11
2.61178541183472
 21
0.201636418700218
  0
LINE
  5
113
100
AcDbEntity
  8
SEMA2D
100
AcDbLine
 62
7
  6
_SOLID
370
9
 10
2.60422539710999
 20
0.197856426239014
 11
2.61721920967102
 21
0.197856426239014
  0
LINE
  5
114
100
AcDbEntity
  8
SEMA2D
100
AcDbLine
 62
7
  6
_SOLID
370
9
 10
2.60422539710999
 20
0.203643918037415
 11
2.61178541183472
 21
0.20258142054081
  0
LINE
  5
115
100
AcDbEntity
  8
SEMA2D
100
AcDbLine
 62
7
  6
_SOLID
370
9
 10
2.60422539710999
 20
0.222670540213585
 11
2.59808278083801
 21
0.224316418170929
  0
LINE
  5
116
100
AcDbEntity
  8
SEMA2D
100
AcDbLine
 62
7
  6
_SOLID
370
9
 10
2.59808278083801
 20
0.229041427373886
 11
2.60422539710999
 21
0.23068730533123
  0
LINE
  5
117
100
AcDbEntity
  8
SEMA2D
100
AcDbLine
 62
7
  6
_SOLID
370
9
 10
2.61556529998779
 20
0.175837844610214
 11
2.6221022605896
 21
0.176409751176834
  0
ARC
  5
118
100
AcDbEntity
  8
SEMA2D
100
AcDbCircle
 62
7
  6
_SOLID
370
9
 10
2.61950945854187
 20
0.197836086153984
 40
0.021582642570138
100
AcDbArc
 50
276.899688720703
 51
358.100311279297
  0
LINE
  5
119
100
AcDbEntity
  8
SEMA2D
100
AcDbLine
 62
7
  6
_SOLID
370
9
 10
2.58859539031982
 20
0.65409642457962
 11
2.64108037948608
 21
0.65409642457962
  0
LINE
  5
11A
100
AcDbEntity
  8
SEMA2D
100
AcDbLine
 62
7
  6
_SOLID
370
9
 10
2.58859539031982
 20
0.65409642457962
 11
2.58859539031982
 21
0.661096394062042
  0
LINE
  5
11B
100
AcDbEntity
  8
SEMA2D
100
AcDbLine
 62
7
  6
_SOLID
370
9
 10
2.58859539031982
 20
0.65409642457962
 11
2.58859539031982
 21
0.647096395492554
  0
LINE
  5
11C
100
AcDbEntity
  8
SEMA2D
100
AcDbLine
 62
7
  6
_SOLID
370
9
 10
2.58859539031982
 20
0.65409642457962
 11
2.59465742111206
 21
0.657596409320831
  0
LINE
  5
11D
100
AcDbEntity
  8
SEMA2D
100
AcDbLine
 62
7
  6
_SOLID
370
9
 10
2.58859539031982
 20
0.65409642457962
 11
2.58253312110901
 21
0.650596439838409
  0
LINE
  5
11E
100
AcDbEntity
  8
SEMA2D
100
AcDbLine
 62
7
  6
_DOT
370
9
 10
2.58859539031982
 20
0.604096412658691
 11
2.58859539031982
 21
0.65409642457962
  0
LINE
  5
11F
100
AcDbEntity
  8
SEMA2D
100
AcDbLine
 62
7
  6
_DOT
370
9
 10
2.58859539031982
 20
0.604096412658691
 11
2.58859539031982
 21
0.604096412658691
  0
MTEXT
  5
120
100
AcDbEntity
  8
SEMATEXT
100
AcDbMText
 62
7
 10
2.61055684089661
 20
0.659028053283691
 40
0.00800000037997961
 71
7
  1
{\fArial Narrow;52}
  7
STANDARD
 73
2
  0
LINE
  5
121
100
AcDbEntity
  8
SEMA2D
100
AcDbLine
 62
7
  6
_SOLID
370
9
 10
2.64108037948608
 20
0.65409642457962
 11
2.64108037948608
 21
0.661096394062042
  0
LINE
  5
122
100
AcDbEntity
  8
SEMA2D
100
AcDbLine
 62
7
  6
_SOLID
370
9
 10
2.64108037948608
 20
0.65409642457962
 11
2.64108037948608
 21
0.647096395492554
  0
LINE
  5
123
100
AcDbEntity
  8
SEMA2D
100
AcDbLine
 62
7
  6
_SOLID
370
9
 10
2.64108037948608
 20
0.65409642457962
 11
2.64714241027832
 21
0.657596409320831
  0
LINE
  5
124
100
AcDbEntity
  8
SEMA2D
100
AcDbLine
 62
7
  6
_SOLID
370
9
 10
2.64108037948608
 20
0.65409642457962
 11
2.63501811027527
 21
0.650596439838409
  0
LINE
  5
125
100
AcDbEntity
  8
SEMA2D
100
AcDbLine
 62
7
  6
_DOT
370
9
 10
2.64108037948608
 20
0.604096412658691
 11
2.64108037948608
 21
0.65409642457962
  0
LINE
  5
126
100
AcDbEntity
  8
SEMA2D
100
AcDbLine
 62
7
  6
_DOT
370
9
 10
2.64108037948608
 20
0.604096412658691
 11
2.64108037948608
 21
0.604096412658691
  0
LINE
  5
127
100
AcDbEntity
  8
SEMA2D
100
AcDbLine
 62
7
  6
_SOLID
370
9
 10
2.54488658905029
 20
0.704096436500549
 11
2.64108037948608
 21
0.704096436500549
  0
LINE
  5
128
100
AcDbEntity
  8
SEMA2D
100
AcDbLine
 62
7
  6
_SOLID
370
9
 10
2.54488658905029
 20
0.704096436500549
 11
2.54488658905029
 21
0.711096405982971
  0
LINE
  5
129
100
AcDbEntity
  8
SEMA2D
100
AcDbLine
 62
7
  6
_SOLID
370
9
 10
2.54488658905029
 20
0.704096436500549
 11
2.54488658905029
 21
0.697096407413483
  0
LINE
  5
12A
100
AcDbEntity
  8
SEMA2D
100
AcDbLine
 62
7
  6
_SOLID
370
9
 10
2.54488658905029
 20
0.704096436500549
 11
2.55094861984253
 21
0.70759642124176
  0
LINE
  5
12B
100
AcDbEntity
  8
SEMA2D
100
AcDbLine
 62
7
  6
_SOLID
370
9
 10
2.54488658905029
 20
0.704096436500549
 11
2.53882431983948
 21
0.700596451759338
  0
LINE
  5
12C
100
AcDbEntity
  8
SEMA2D
100
AcDbLine
 62
7
  6
_DOT
370
9
 10
2.54488658905029
 20
0.65409642457962
 11
2.54488658905029
 21
0.704096436500549
  0
LINE
  5
12D
100
AcDbEntity
  8
SEMA2D
100
AcDbLine
 62
7
  6
_DOT
370
9
 10
2.54488658905029
 20
0.65409642457962
 11
2.54488658905029
 21
0.65409642457962
  0
MTEXT
  5
12E
100
AcDbEntity
  8
SEMATEXT
100
AcDbMText
 62
7
 10
2.58870244026184
 20
0.709028005599976
 40
0.00800000037997961
 71
7
  1
{\fArial Narrow;96}
  7
STANDARD
 73
2
  0
LINE
  5
12F
100
AcDbEntity
  8
SEMA2D
100
AcDbLine
 62
7
  6
_SOLID
370
9
 10
2.64108037948608
 20
0.704096436500549
 11
2.64108037948608
 21
0.711096405982971
  0
LINE
  5
130
100
AcDbEntity
  8
SEMA2D
100
AcDbLine
 62
7
  6
_SOLID
370
9
 10
2.64108037948608
 20
0.704096436500549
 11
2.64108037948608
 21
0.697096407413483
  0
LINE
  5
131
100
AcDbEntity
  8
SEMA2D
100
AcDbLine
 62
7
  6
_SOLID
370
9
 10
2.64108037948608
 20
0.704096436500549
 11
2.64714241027832
 21
0.70759642124176
  0
LINE
  5
132
100
AcDbEntity
  8
SEMA2D
100
AcDbLine
 62
7
  6
_SOLID
370
9
 10
2.64108037948608
 20
0.704096436500549
 11
2.63501811027527
 21
0.700596451759338
  0
LINE
  5
133
100
AcDbEntity
  8
SEMA2D
100
AcDbLine
 62
7
  6
_DOT
370
9
 10
2.64108037948608
 20
0.65409642457962
 11
2.64108037948608
 21
0.704096436500549
  0
LINE
  5
134
100
AcDbEntity
  8
SEMA2D
100
AcDbLine
 62
7
  6
_DOT
370
9
 10
2.64108037948608
 20
0.65409642457962
 11
2.64108037948608
 21
0.65409642457962
  0
LINE
  5
135
100
AcDbEntity
  8
SEMA2D
100
AcDbLine
 62
7
  6
_SOLID
370
9
 10
2.58871531486511
 20
0.125176429748535
 11
2.64108037948608
 21
0.125176429748535
  0
LINE
  5
136
100
AcDbEntity
  8
SEMA2D
100
AcDbLine
 62
7
  6
_SOLID
370
9
 10
2.58871531486511
 20
0.125176429748535
 11
2.58871531486511
 21
0.132176429033279
  0
LINE
  5
137
100
AcDbEntity
  8
SEMA2D
100
AcDbLine
 62
7
  6
_SOLID
370
9
 10
2.58871531486511
 20
0.125176429748535
 11
2.58871531486511
 21
0.11817642301321
  0
LINE
  5
138
100
AcDbEntity
  8
SEMA2D
100
AcDbLine
 62
7
  6
_SOLID
370
9
 10
2.58871531486511
 20
0.125176429748535
 11
2.59477758407593
 21
0.128676429390907
  0
LINE
  5
139
100
AcDbEntity
  8
SEMA2D
100
AcDbLine
 62
7
  6
_SOLID
370
9
 10
2.58871531486511
 20
0.125176429748535
 11
2.58265328407288
 21
0.121676422655582
  0
LINE
  5
13A
100
AcDbEntity
  8
SEMA2D
100
AcDbLine
 62
7
  6
_DOT
370
9
 10
2.58871531486511
 20
0.175176426768303
 11
2.58871531486511
 21
0.125176429748535
  0
LINE
  5
13B
100
AcDbEntity
  8
SEMA2D
100
AcDbLine
 62
7
  6
_DOT
370
9
 10
2.58871531486511
 20
0.175176426768303
 11
2.58871531486511
 21
0.175176426768303
  0
MTEXT
  5
13C
100
AcDbEntity
  8
SEMATEXT
100
AcDbMText
 62
7
 10
2.61061692237854
 20
0.130108028650284
 40
0.00800000037997961
 71
7
  1
{\fArial Narrow;52}
  7
STANDARD
 73
2
  0
LINE
  5
13D
100
AcDbEntity
  8
SEMA2D
100
AcDbLine
 62
7
  6
_SOLID
370
9
 10
2.64108037948608
 20
0.125176429748535
 11
2.64108037948608
 21
0.132176429033279
  0
LINE
  5
13E
100
AcDbEntity
  8
SEMA2D
100
AcDbLine
 62
7
  6
_SOLID
370
9
 10
2.64108037948608
 20
0.125176429748535
 11
2.64108037948608
 21
0.11817642301321
  0
LINE
  5
13F
100
AcDbEntity
  8
SEMA2D
100
AcDbLine
 62
7
  6
_SOLID
370
9
 10
2.64108037948608
 20
0.125176429748535
 11
2.64714241027832
 21
0.128676429390907
  0
LINE
  5
140
100
AcDbEntity
  8
SEMA2D
100
AcDbLine
 62
7
  6
_SOLID
370
9
 10
2.64108037948608
 20
0.125176429748535
 11
2.63501811027527
 21
0.121676422655582
  0
LINE
  5
141
100
AcDbEntity
  8
SEMA2D
100
AcDbLine
 62
7
  6
_DOT
370
9
 10
2.64108037948608
 20
0.175176426768303
 11
2.64108037948608
 21
0.125176429748535
  0
LINE
  5
142
100
AcDbEntity
  8
SEMA2D
100
AcDbLine
 62
7
  6
_DOT
370
9
 10
2.64108037948608
 20
0.175176426768303
 11
2.64108037948608
 21
0.175176426768303
  0
LINE
  5
143
100
AcDbEntity
  8
SEMA2D
100
AcDbLine
 62
7
  6
_SOLID
370
9
 10
2.50118780136108
 20
0.0751764252781868
 11
2.64108037948608
 21
0.0751764252781868
  0
LINE
  5
144
100
AcDbEntity
  8
SEMA2D
100
AcDbLine
 62
7
  6
_SOLID
370
9
 10
2.50118780136108
 20
0.0751764252781868
 11
2.50118780136108
 21
0.0821764245629311
  0
LINE
  5
145
100
AcDbEntity
  8
SEMA2D
100
AcDbLine
 62
7
  6
_SOLID
370
9
 10
2.50118780136108
 20
0.0751764252781868
 11
2.50118780136108
 21
0.0681764259934425
  0
LINE
  5
146
100
AcDbEntity
  8
SEMA2D
100
AcDbLine
 62
7
  6
_SOLID
370
9
 10
2.50118780136108
 20
0.0751764252781868
 11
2.5072500705719
 21
0.0786764249205589
  0
LINE
  5
147
100
AcDbEntity
  8
SEMA2D
100
AcDbLine
 62
7
  6
_SOLID
370
9
 10
2.50118780136108
 20
0.0751764252781868
 11
2.49512577056885
 21
0.0716764256358147
  0
LINE
  5
148
100
AcDbEntity
  8
SEMA2D
100
AcDbLine
 62
7
  6
_DOT
370
9
 10
2.50118780136108
 20
0.125176429748535
 11
2.50118780136108
 21
0.0751764252781868
  0
LINE
  5
149
100
AcDbEntity
  8
SEMA2D
100
AcDbLine
 62
7
  6
_DOT
370
9
 10
2.50118780136108
 20
0.0751764252781868
 11
2.50118780136108
 21
0.125176429748535
  0
MTEXT
  5
14A
100
AcDbEntity
  8
SEMATEXT
100
AcDbMText
 62
7
 10
2.56471276283264
 20
0.0801080241799354
 40
0.00800000037997961
 50
-1.13678563903787E-14
 71
7
  1
{\fArial Narrow;140}
  7
STANDARD
 73
2
  0
LINE
  5
14B
100
AcDbEntity
  8
SEMA2D
100
AcDbLine
 62
7
  6
_SOLID
370
9
 10
2.64108037948608
 20
0.0751764252781868
 11
2.64108037948608
 21
0.0821764245629311
  0
LINE
  5
14C
100
AcDbEntity
  8
SEMA2D
100
AcDbLine
 62
7
  6
_SOLID
370
9
 10
2.64108037948608
 20
0.0751764252781868
 11
2.64108037948608
 21
0.0681764259934425
  0
LINE
  5
14D
100
AcDbEntity
  8
SEMA2D
100
AcDbLine
 62
7
  6
_SOLID
370
9
 10
2.64108037948608
 20
0.0751764252781868
 11
2.64714241027832
 21
0.0786764249205589
  0
LINE
  5
14E
100
AcDbEntity
  8
SEMA2D
100
AcDbLine
 62
7
  6
_SOLID
370
9
 10
2.64108037948608
 20
0.0751764252781868
 11
2.63501811027527
 21
0.0716764256358147
  0
LINE
  5
14F
100
AcDbEntity
  8
SEMA2D
100
AcDbLine
 62
7
  6
_DOT
370
9
 10
2.64108037948608
 20
0.125176429748535
 11
2.64108037948608
 21
0.0751764252781868
  0
LINE
  5
150
100
AcDbEntity
  8
SEMA2D
100
AcDbLine
 62
7
  6
_DOT
370
9
 10
2.64108037948608
 20
0.125176429748535
 11
2.64108037948608
 21
0.125176429748535
  0
LINE
  5
151
100
AcDbEntity
  8
SEMA2D
100
AcDbLine
 62
7
  6
_SOLID
370
9
 10
2.14814686775208
 20
0.125176429748535
 11
2.40420913696289
 21
0.125176429748535
  0
LINE
  5
152
100
AcDbEntity
  8
SEMA2D
100
AcDbLine
 62
7
  6
_SOLID
370
9
 10
2.14814686775208
 20
0.125176429748535
 11
2.14814686775208
 21
0.132176429033279
  0
LINE
  5
153
100
AcDbEntity
  8
SEMA2D
100
AcDbLine
 62
7
  6
_SOLID
370
9
 10
2.14814686775208
 20
0.125176429748535
 11
2.14814686775208
 21
0.11817642301321
  0
LINE
  5
154
100
AcDbEntity
  8
SEMA2D
100
AcDbLine
 62
7
  6
_SOLID
370
9
 10
2.14814686775208
 20
0.125176429748535
 11
2.15420889854431
 21
0.128676429390907
  0
LINE
  5
155
100
AcDbEntity
  8
SEMA2D
100
AcDbLine
 62
7
  6
_SOLID
370
9
 10
2.14814686775208
 20
0.125176429748535
 11
2.14208459854126
 21
0.121676422655582
  0
LINE
  5
156
100
AcDbEntity
  8
SEMA2D
100
AcDbLine
 62
7
  6
_DOT
370
9
 10
2.14814686775208
 20
0.175176426768303
 11
2.14814686775208
 21
0.125176429748535
  0
LINE
  5
157
100
AcDbEntity
  8
SEMA2D
100
AcDbLine
 62
7
  6
_DOT
370
9
 10
2.14814686775208
 20
0.175176426768303
 11
2.14814686775208
 21
0.175176426768303
  0
MTEXT
  5
158
100
AcDbEntity
  8
SEMATEXT
100
AcDbMText
 62
7
 10
2.26975655555725
 20
0.130108028650284
 40
0.00800000037997961
 50
-1.2421019887545E-14
 71
7
  1
{\fArial Narrow;256}
  7
STANDARD
 73
2
  0
LINE
  5
159
100
AcDbEntity
  8
SEMA2D
100
AcDbLine
 62
7
  6
_SOLID
370
9
 10
2.40420913696289
 20
0.125176429748535
 11
2.40420913696289
 21
0.132176429033279
  0
LINE
  5
15A
100
AcDbEntity
  8
SEMA2D
100
AcDbLine
 62
7
  6
_SOLID
370
9
 10
2.40420913696289
 20
0.125176429748535
 11
2.40420913696289
 21
0.11817642301321
  0
LINE
  5
15B
100
AcDbEntity
  8
SEMA2D
100
AcDbLine
 62
7
  6
_SOLID
370
9
 10
2.40420913696289
 20
0.125176429748535
 11
2.41027116775513
 21
0.128676429390907
  0
LINE
  5
15C
100
AcDbEntity
  8
SEMA2D
100
AcDbLine
 62
7
  6
_SOLID
370
9
 10
2.40420913696289
 20
0.125176429748535
 11
2.39814686775208
 21
0.121676422655582
  0
LINE
  5
15D
100
AcDbEntity
  8
SEMA2D
100
AcDbLine
 62
7
  6
_DOT
370
9
 10
2.40420913696289
 20
0.175176426768303
 11
2.40420913696289
 21
0.125176429748535
  0
LINE
  5
15E
100
AcDbEntity
  8
SEMA2D
100
AcDbLine
 62
7
  6
_DOT
370
9
 10
2.40420913696289
 20
0.175176426768303
 11
2.40420913696289
 21
0.175176426768303
  0
LINE
  5
15F
100
AcDbEntity
  8
SEMA2D
100
AcDbLine
 62
7
  6
_SOLID
370
9
 10
2.09814691543579
 20
0.175176426768303
 11
2.09814691543579
 21
0.604096412658691
  0
LINE
  5
160
100
AcDbEntity
  8
SEMA2D
100
AcDbLine
 62
7
  6
_SOLID
370
9
 10
2.09814691543579
 20
0.175176426768303
 11
2.09114670753479
 21
0.175176426768303
  0
LINE
  5
161
100
AcDbEntity
  8
SEMA2D
100
AcDbLine
 62
7
  6
_SOLID
370
9
 10
2.09814691543579
 20
0.175176426768303
 11
2.10514688491821
 21
0.175176426768303
  0
LINE
  5
162
100
AcDbEntity
  8
SEMA2D
100
AcDbLine
 62
7
  6
_SOLID
370
9
 10
2.09814691543579
 20
0.175176426768303
 11
2.094646692276
 21
0.181238606572151
  0
LINE
  5
163
100
AcDbEntity
  8
SEMA2D
100
AcDbLine
 62
7
  6
_SOLID
370
9
 10
2.09814691543579
 20
0.175176426768303
 11
2.101646900177
 21
0.169114246964455
  0
LINE
  5
164
100
AcDbEntity
  8
SEMA2D
100
AcDbLine
 62
7
  6
_DOT
370
9
 10
2.14814686775208
 20
0.175176426768303
 11
2.09814691543579
 21
0.175176426768303
  0
LINE
  5
165
100
AcDbEntity
  8
SEMA2D
100
AcDbLine
 62
7
  6
_DOT
370
9
 10
2.14814686775208
 20
0.175176426768303
 11
2.14814686775208
 21
0.175176426768303
  0
MTEXT
  5
166
100
AcDbEntity
  8
SEMATEXT
100
AcDbMText
 62
7
 10
2.09321522712708
 20
0.38193079829216
 40
0.00800000037997961
 50
90
 71
7
  1
{\fArial Narrow;429}
  7
STANDARD
 73
2
  0
LINE
  5
167
100
AcDbEntity
  8
SEMA2D
100
AcDbLine
 62
7
  6
_SOLID
370
9
 10
2.09814691543579
 20
0.604096412658691
 11
2.09114670753479
 21
0.604096412658691
  0
LINE
  5
168
100
AcDbEntity
  8
SEMA2D
100
AcDbLine
 62
7
  6
_SOLID
370
9
 10
2.09814691543579
 20
0.604096412658691
 11
2.10514688491821
 21
0.604096412658691
  0
LINE
  5
169
100
AcDbEntity
  8
SEMA2D
100
AcDbLine
 62
7
  6
_SOLID
370
9
 10
2.09814691543579
 20
0.604096412658691
 11
2.094646692276
 21
0.610158622264862
  0
LINE
  5
16A
100
AcDbEntity
  8
SEMA2D
100
AcDbLine
 62
7
  6
_SOLID
370
9
 10
2.09814691543579
 20
0.604096412658691
 11
2.101646900177
 21
0.598034262657166
  0
LINE
  5
16B
100
AcDbEntity
  8
SEMA2D
100
AcDbLine
 62
7
  6
_DOT
370
9
 10
2.14814686775208
 20
0.604096412658691
 11
2.09814691543579
 21
0.604096412658691
  0
LINE
  5
16C
100
AcDbEntity
  8
SEMA2D
100
AcDbLine
 62
7
  6
_DOT
370
9
 10
2.14814686775208
 20
0.604096412658691
 11
2.14814686775208
 21
0.604096412658691
  0
LINE
  5
16D
100
AcDbEntity
  8
SEMA2D
100
AcDbLine
 62
7
  6
_SOLID
370
9
 10
2.53926205635071
 20
0.539356887340546
 11
2.5986008644104
 21
0.532639265060425
  0
LINE
  5
16E
100
AcDbEntity
  8
SEMA2D
100
AcDbLine
 62
7
  6
_SOLID
370
9
 10
2.53926205635071
 20
0.539356887340546
 11
2.54004955291748
 21
0.54631245136261
  0
LINE
  5
16F
100
AcDbEntity
  8
SEMA2D
100
AcDbLine
 62
7
  6
_SOLID
370
9
 10
2.53926205635071
 20
0.539356887340546
 11
2.53847455978394
 21
0.532401323318481
  0
LINE
  5
170
100
AcDbEntity
  8
SEMA2D
100
AcDbLine
 62
7
  6
_SOLID
370
9
 10
2.53926205635071
 20
0.539356887340546
 11
2.54567956924438
 21
0.542152762413025
  0
LINE
  5
171
100
AcDbEntity
  8
SEMA2D
100
AcDbLine
 62
7
  6
_SOLID
370
9
 10
2.53926205635071
 20
0.539356887340546
 11
2.53284454345703
 21
0.536561012268066
  0
LINE
  5
172
100
AcDbEntity
  8
SEMA2D
100
AcDbLine
 62
7
  6
_DOT
370
9
 10
2.54488658905029
 20
0.589039504528046
 11
2.53926205635071
 21
0.539356887340546
  0
LINE
  5
173
100
AcDbEntity
  8
SEMA2D
100
AcDbLine
 62
7
  6
_DOT
370
9
 10
2.54488658905029
 20
0.589039504528046
 11
2.54488658905029
 21
0.589039504528046
  0
MTEXT
  5
174
100
AcDbEntity
  8
SEMATEXT
100
AcDbMText
 62
7
 10
2.56395626068115
 20
0.541524410247803
 40
0.00800000037997961
 50
353.541198730469
 71
7
  1
{\fArial Narrow;60}
  7
STANDARD
 73
2
  0
LINE
  5
175
100
AcDbEntity
  8
SEMA2D
100
AcDbLine
 62
7
  6
_SOLID
370
9
 10
2.5986008644104
 20
0.532639265060425
 11
2.59938836097717
 21
0.539594829082489
  0
LINE
  5
176
100
AcDbEntity
  8
SEMA2D
100
AcDbLine
 62
7
  6
_SOLID
370
9
 10
2.5986008644104
 20
0.532639265060425
 11
2.59781336784363
 21
0.525683701038361
  0
LINE
  5
177
100
AcDbEntity
  8
SEMA2D
100
AcDbLine
 62
7
  6
_SOLID
370
9
 10
2.5986008644104
 20
0.532639265060425
 11
2.60501837730408
 21
0.535435140132904
  0
LINE
  5
178
100
AcDbEntity
  8
SEMA2D
100
AcDbLine
 62
7
  6
_SOLID
370
9
 10
2.5986008644104
 20
0.532639265060425
 11
2.5921835899353
 21
0.52984344959259
  0
LINE
  5
179
100
AcDbEntity
  8
SEMA2D
100
AcDbLine
 62
7
  6
_DOT
370
9
 10
2.60422539710999
 20
0.58232194185257
 11
2.5986008644104
 21
0.532639265060425
  0
LINE
  5
17A
100
AcDbEntity
  8
SEMA2D
100
AcDbLine
 62
7
  6
_DOT
370
9
 10
2.60422539710999
 20
0.58232194185257
 11
2.60422539710999
 21
0.58232194185257
  0
ARC
  5
17B
100
AcDbEntity
  8
SEMA2D
100
AcDbCircle
 62
7
  6
_SOLID
370
9
 10
2.19067168235779
 20
0.197856426239014
 40
0.0040124193765223
100
AcDbArc
 50
0
 51
90
  0
ARC
  5
17C
100
AcDbEntity
  8
SEMA2D
100
AcDbCircle
 62
7
  6
_SOLID
370
9
 10
2.19067168235779
 20
0.197856426239014
 40
0.00377999991178513
100
AcDbArc
 50
0
 51
90
  0
ARC
  5
17D
100
AcDbEntity
  8
SEMA2D
100
AcDbCircle
 62
7
  6
_SOLID
370
9
 10
2.09269785881042
 20
0.252213984727859
 40
0.188999995589256
100
AcDbArc
 50
11.9355821609497
 51
40.6783447265625
  0
ARC
  5
17E
100
AcDbEntity
  8
SEMA2D
100
AcDbCircle
 62
7
  6
_SOLID
370
9
 10
2.46252584457397
 20
0.252213984727859
 40
0.188999995589256
100
AcDbArc
 50
139.321655273438
 51
168.064422607422
  0
ARC
  5
17F
100
AcDbEntity
  8
SEMA2D
100
AcDbCircle
 62
7
  6
_SOLID
370
9
 10
2.09269785881042
 20
0.498598843812943
 40
0.188999995589256
100
AcDbArc
 50
319.321655273438
 51
348.064422607422
  0
ARC
  5
180
100
AcDbEntity
  8
SEMA2D
100
AcDbCircle
 62
7
  6
_SOLID
370
9
 10
2.46252584457397
 20
0.498598843812943
 40
0.188999995589256
100
AcDbArc
 50
191.935577392578
 51
220.678344726562
  0
ARC
  5
181
100
AcDbEntity
  8
SEMA2D
100
AcDbCircle
 62
7
  6
_SOLID
370
9
 10
2.23508667945862
 20
0.475576430559158
 40
0.0264599993824959
100
AcDbArc
 50
102.621315002441
 51
180
  0
ARC
  5
182
100
AcDbEntity
  8
SEMA2D
100
AcDbCircle
 62
7
  6
_SOLID
370
9
 10
2.32391691207886
 20
0.475576430559158
 40
0.0264599993824959
100
AcDbArc
 50
0
 51
77.3786849975586
  0
ARC
  5
183
100
AcDbEntity
  8
SEMA2D
100
AcDbCircle
 62
7
  6
_SOLID
370
9
 10
2.46252584457397
 20
0.298368871212006
 40
0.188999995589256
100
AcDbArc
 50
191.935577392578
 51
220.678344726562
  0
ARC
  5
184
100
AcDbEntity
  8
SEMA2D
100
AcDbCircle
 62
7
  6
_SOLID
370
9
 10
2.09269785881042
 20
0.498598843812943
 40
0.204119995236397
100
AcDbArc
 50
322.876892089844
 51
334.945861816406
  0
ARC
  5
185
100
AcDbEntity
  8
SEMA2D
100
AcDbCircle
 62
7
  6
_SOLID
370
9
 10
2.09269785881042
 20
0.252213984727859
 40
0.204119995236397
100
AcDbArc
 50
25.0541324615479
 51
37.1230964660645
  0
ARC
  5
186
100
AcDbEntity
  8
SEMA2D
100
AcDbCircle
 62
7
  6
_SOLID
370
9
 10
2.46252584457397
 20
0.498598843812943
 40
0.204119995236397
100
AcDbArc
 50
205.054138183594
 51
217.123092651367
  0
ARC
  5
187
100
AcDbEntity
  8
SEMA2D
100
AcDbCircle
 62
7
  6
_SOLID
370
9
 10
2.46252584457397
 20
0.498598843812943
 40
0.19614751636982
100
AcDbArc
 50
199.484970092773
 51
218.907150268555
  0
ARC
  5
188
100
AcDbEntity
  8
SEMA2D
100
AcDbCircle
 62
7
  6
_SOLID
370
9
 10
2.46252584457397
 20
0.252213984727859
 40
0.19614751636982
100
AcDbArc
 50
141.092849731445
 51
160.515029907227
  0
ARC
  5
189
100
AcDbEntity
  8
SEMA2D
100
AcDbCircle
 62
7
  6
_SOLID
370
9
 10
2.09269785881042
 20
0.498598843812943
 40
0.19026605784893
100
AcDbArc
 50
319.648529052734
 51
346.377960205078
  0
ARC
  5
18A
100
AcDbEntity
  8
SEMA2D
100
AcDbCircle
 62
7
  6
_SOLID
370
9
 10
2.09269785881042
 20
0.498598843812943
 40
0.192938923835754
100
AcDbArc
 50
320.319580078125
 51
343.416870117188
  0
ARC
  5
18B
100
AcDbEntity
  8
SEMA2D
100
AcDbCircle
 62
7
  6
_SOLID
370
9
 10
2.09269785881042
 20
0.252213984727859
 40
0.192938923835754
100
AcDbArc
 50
16.5831165313721
 51
39.680419921875
  0
ARC
  5
18C
100
AcDbEntity
  8
SEMA2D
100
AcDbCircle
 62
7
  6
_SOLID
370
9
 10
2.46252584457397
 20
0.252213984727859
 40
0.204119995236397
100
AcDbArc
 50
142.876907348633
 51
154.945861816406
  0
ARC
  5
18D
100
AcDbEntity
  8
SEMA2D
100
AcDbCircle
 62
7
  6
_SOLID
370
9
 10
2.09269785881042
 20
0.252213984727859
 40
0.19026605784893
100
AcDbArc
 50
13.6220483779907
 51
40.3514633178711
  0
ARC
  5
18E
100
AcDbEntity
  8
SEMA2D
100
AcDbCircle
 62
7
  6
_SOLID
370
9
 10
2.09269785881042
 20
0.252213984727859
 40
0.19614751636982
100
AcDbArc
 50
19.4849681854248
 51
38.9071464538574
  0
ARC
  5
18F
100
AcDbEntity
  8
SEMA2D
100
AcDbCircle
 62
7
  6
_SOLID
370
9
 10
2.09269785881042
 20
0.498598843812943
 40
0.19614751636982
100
AcDbArc
 50
321.092864990234
 51
340.515045166016
  0
ARC
  5
190
100
AcDbEntity
  8
SEMA2D
100
AcDbCircle
 62
7
  6
_SOLID
370
9
 10
2.2554042339325
 20
0.555901408195496
 40
0.00472499988973141
100
AcDbArc
 50
190
 51
350
  0
ARC
  5
191
100
AcDbEntity
  8
SEMA2D
100
AcDbCircle
 62
7
  6
_SOLID
370
9
 10
2.09269785881042
 20
0.298368871212006
 40
0.192854300141335
100
AcDbArc
 50
320.298706054687
 51
343.501525878906
  0
ARC
  5
192
100
AcDbEntity
  8
SEMA2D
100
AcDbCircle
 62
7
  6
_SOLID
370
9
 10
2.46252584457397
 20
0.298368871212006
 40
0.19026605784893
100
AcDbArc
 50
193.622055053711
 51
220.351470947266
  0
ARC
  5
193
100
AcDbEntity
  8
SEMA2D
100
AcDbCircle
 62
7
  6
_SOLID
370
9
 10
2.09269785881042
 20
0.298368871212006
 40
0.19026605784893
100
AcDbArc
 50
319.648529052734
 51
346.377960205078
  0
ARC
  5
194
100
AcDbEntity
  8
SEMA2D
100
AcDbCircle
 62
7
  6
_SOLID
370
9
 10
2.46252584457397
 20
0.298368871212006
 40
0.204119995236397
100
AcDbArc
 50
205.054138183594
 51
212.900344848633
  0
ARC
  5
195
100
AcDbEntity
  8
SEMA2D
100
AcDbCircle
 62
7
  6
_SOLID
370
9
 10
2.09269785881042
 20
0.298368871212006
 40
0.204119995236397
100
AcDbArc
 50
327.099670410156
 51
334.945861816406
  0
ARC
  5
196
100
AcDbEntity
  8
SEMA2D
100
AcDbCircle
 62
7
  6
_SOLID
370
9
 10
2.2554042339325
 20
0.555901408195496
 40
0.00586445396766067
100
AcDbArc
 50
190
 51
350
  0
ARC
  5
197
100
AcDbEntity
  8
SEMA2D
100
AcDbCircle
 62
7
  6
_SOLID
370
9
 10
2.09269785881042
 20
0.298368871212006
 40
0.188999995589256
100
AcDbArc
 50
319.321655273438
 51
348.064422607422
  0
ARC
  5
198
100
AcDbEntity
  8
SEMA2D
100
AcDbCircle
 62
7
  6
_SOLID
370
9
 10
2.46252584457397
 20
0.298368871212006
 40
0.204753026366234
100
AcDbArc
 50
205.430435180664
 51
209.636093139648
  0
ARC
  5
199
100
AcDbEntity
  8
SEMA2D
100
AcDbCircle
 62
7
  6
_SOLID
370
9
 10
2.46252584457397
 20
0.298368871212006
 40
0.192854300141335
100
AcDbArc
 50
196.498474121094
 51
219.701278686523
  0
ARC
  5
19A
100
AcDbEntity
  8
SEMA2D
100
AcDbCircle
 62
7
  6
_SOLID
370
9
 10
2.09269785881042
 20
0.298368871212006
 40
0.204753026366234
100
AcDbArc
 50
330.363922119141
 51
334.569549560547
  0
ARC
  5
19B
100
AcDbEntity
  8
SEMA2D
100
AcDbCircle
 62
7
  6
_SOLID
370
9
 10
2.46252584457397
 20
0.252213984727859
 40
0.192938923835754
100
AcDbArc
 50
140.319580078125
 51
163.416885375977
  0
ARC
  5
19C
100
AcDbEntity
  8
SEMA2D
100
AcDbCircle
 62
7
  6
_SOLID
370
9
 10
2.46252584457397
 20
0.498598843812943
 40
0.204753026366234
100
AcDbArc
 50
205.430435180664
 51
216.989135742187
  0
ARC
  5
19D
100
AcDbEntity
  8
SEMA2D
100
AcDbCircle
 62
7
  6
_SOLID
370
9
 10
2.46252584457397
 20
0.252213984727859
 40
0.19026605784893
100
AcDbArc
 50
139.648529052734
 51
166.377944946289
  0
ARC
  5
19E
100
AcDbEntity
  8
SEMA2D
100
AcDbCircle
 62
7
  6
_SOLID
370
9
 10
2.46252584457397
 20
0.498598843812943
 40
0.19026605784893
100
AcDbArc
 50
193.622055053711
 51
220.351470947266
  0
ARC
  5
19F
100
AcDbEntity
  8
SEMA2D
100
AcDbCircle
 62
7
  6
_SOLID
370
9
 10
2.46252584457397
 20
0.498598843812943
 40
0.192938923835754
100
AcDbArc
 50
196.583114624023
 51
219.680419921875
  0
ARC
  5
1A0
100
AcDbEntity
  8
SEMA2D
100
AcDbCircle
 62
7
  6
_SOLID
370
9
 10
2.09269785881042
 20
0.298368871212006
 40
0.19606925547123
100
AcDbArc
 50
325.564178466797
 51
340.579772949219
  0
ARC
  5
1A1
100
AcDbEntity
  8
SEMA2D
100
AcDbCircle
 62
7
  6
_SOLID
370
9
 10
2.46252584457397
 20
0.298368871212006
 40
0.19606925547123
100
AcDbArc
 50
199.420227050781
 51
214.435821533203
  0
ARC
  5
1A2
100
AcDbEntity
  8
SEMA2D
100
AcDbCircle
 62
7
  6
_SOLID
370
9
 10
2.09269785881042
 20
0.498598843812943
 40
0.204753026366234
100
AcDbArc
 50
323.010864257812
 51
334.569549560547
  0
ARC
  5
1A3
100
AcDbEntity
  8
SEMA2D
100
AcDbCircle
 62
7
  6
_SOLID
370
9
 10
2.46252584457397
 20
0.252213984727859
 40
0.204753026366234
100
AcDbArc
 50
143.010864257812
 51
154.569564819336
  0
ARC
  5
1A4
100
AcDbEntity
  8
SEMA2D
100
AcDbCircle
 62
7
  6
_SOLID
370
9
 10
2.09269785881042
 20
0.252213984727859
 40
0.204753026366234
100
AcDbArc
 50
25.4304351806641
 51
36.9891319274902
  0
LINE
  5
1A5
100
AcDbEntity
  8
SEMA2D
100
AcDbLine
 62
7
  6
_SOLID
370
9
 10
2.24742841720581
 20
0.562988936901093
 11
2.24859476089478
 21
0.55637389421463
  0
LINE
  5
1A6
100
AcDbEntity
  8
SEMA2D
100
AcDbLine
 62
7
  6
_SOLID
370
9
 10
2.23650527000427
 20
0.518885850906372
 11
2.24591422080994
 21
0.493035227060318
  0
LINE
  5
1A7
100
AcDbEntity
  8
SEMA2D
100
AcDbLine
 62
7
  6
_SOLID
370
9
 10
2.24950003623962
 20
0.555614292621613
 11
2.24962902069092
 21
0.554883062839508
  0
LINE
  5
1A8
100
AcDbEntity
  8
SEMA2D
100
AcDbLine
 62
7
  6
_SOLID
370
9
 10
2.24902176856995
 20
0.564888000488281
 11
2.25075101852417
 21
0.555080950260162
  0
LINE
  5
1A9
100
AcDbEntity
  8
SEMA2D
100
AcDbLine
 62
7
  6
_SOLID
370
9
 10
2.3224983215332
 20
0.518885850906372
 11
2.31308937072754
 21
0.493035227060318
  0
LINE
  5
1AA
100
AcDbEntity
  8
SEMA2D
100
AcDbLine
 62
7
  6
_SOLID
370
9
 10
2.22679138183594
 20
0.518885850906372
 11
2.2373366355896
 21
0.489913254976273
  0
LINE
  5
1AB
100
AcDbEntity
  8
SEMA2D
100
AcDbLine
 62
7
  6
_SOLID
370
9
 10
2.22425699234009
 20
0.515266418457031
 11
2.22930502891541
 21
0.501397013664246
  0
LINE
  5
1AC
100
AcDbEntity
  8
SEMA2D
100
AcDbLine
 62
7
  6
_SOLID
370
9
 10
2.38540744781494
 20
0.602901101112366
 11
2.38578748703003
 21
0.604096412658691
  0
LINE
  5
1AD
100
AcDbEntity
  8
SEMA2D
100
AcDbLine
 62
7
  6
_SOLID
370
9
 10
2.31590247154236
 20
0.519824266433716
 11
2.31590247154236
 21
0.55181610584259
  0
LINE
  5
1AE
100
AcDbEntity
  8
SEMA2D
100
AcDbLine
 62
7
  6
_SOLID
370
9
 10
2.21032667160034
 20
0.55637389421463
 11
2.21190476417542
 21
0.553640723228455
  0
LINE
  5
1AF
100
AcDbEntity
  8
SEMA2D
100
AcDbLine
 62
7
  6
_SOLID
370
9
 10
2.33474659919739
 20
0.515266418457031
 11
2.32969856262207
 21
0.501397013664246
  0
LINE
  5
1B0
100
AcDbEntity
  8
SEMA2D
100
AcDbLine
 62
7
  6
_SOLID
370
9
 10
2.33221220970154
 20
0.518885850906372
 11
2.32166695594788
 21
0.489913254976273
  0
LINE
  5
1B1
100
AcDbEntity
  8
SEMA2D
100
AcDbLine
 62
7
  6
_SOLID
370
9
 10
2.19823169708252
 20
0.562988936901093
 11
2.19731497764587
 21
0.564761400222778
  0
LINE
  5
1B2
100
AcDbEntity
  8
SEMA2D
100
AcDbLine
 62
7
  6
_SOLID
370
9
 10
2.31210422515869
 20
0.555614292621613
 11
2.31210422515869
 21
0.516026079654694
  0
LINE
  5
1B3
100
AcDbEntity
  8
SEMA2D
100
AcDbLine
 62
7
  6
_SOLID
370
9
 10
2.24167442321777
 20
0.515266418457031
 11
2.24648976325989
 21
0.502036452293396
  0
LINE
  5
1B4
100
AcDbEntity
  8
SEMA2D
100
AcDbLine
 62
7
  6
_SOLID
370
9
 10
2.3472363948822
 20
0.55181610584259
 11
2.35103464126587
 21
0.555614292621613
  0
LINE
  5
1B5
100
AcDbEntity
  8
SEMA2D
100
AcDbLine
 62
7
  6
_SOLID
370
9
 10
2.20940470695496
 20
0.519824266433716
 11
2.20940470695496
 21
0.55181610584259
  0
LINE
  5
1B6
100
AcDbEntity
  8
SEMA2D
100
AcDbLine
 62
7
  6
_SOLID
370
9
 10
2.31590247154236
 20
0.519824266433716
 11
2.31210422515869
 21
0.516026079654694
  0
LINE
  5
1B7
100
AcDbEntity
  8
SEMA2D
100
AcDbLine
 62
7
  6
_SOLID
370
9
 10
2.26005744934082
 20
0.555080950260162
 11
2.26178669929504
 21
0.564888000488281
  0
LINE
  5
1B8
100
AcDbEntity
  8
SEMA2D
100
AcDbLine
 62
7
  6
_SOLID
370
9
 10
2.37757611274719
 20
0.592524647712707
 11
2.37926077842712
 21
0.594173908233643
  0
LINE
  5
1B9
100
AcDbEntity
  8
SEMA2D
100
AcDbLine
 62
7
  6
_SOLID
370
9
 10
2.20661926269531
 20
0.564761400222778
 11
2.20661926269531
 21
0.592524647712707
  0
LINE
  5
1BA
100
AcDbEntity
  8
SEMA2D
100
AcDbLine
 62
7
  6
_SOLID
370
9
 10
2.20560646057129
 20
0.516026079654694
 11
2.20560646057129
 21
0.555614292621613
  0
LINE
  5
1BB
100
AcDbEntity
  8
SEMA2D
100
AcDbLine
 62
7
  6
_SOLID
370
9
 10
2.20851826667786
 20
0.566660523414612
 11
2.20851826667786
 21
0.590757489204407
  0
LINE
  5
1BC
100
AcDbEntity
  8
SEMA2D
100
AcDbLine
 62
7
  6
_SOLID
370
9
 10
2.20862674713135
 20
0.475576430559158
 11
2.20862674713135
 21
0.197120636701584
  0
LINE
  5
1BD
100
AcDbEntity
  8
SEMA2D
100
AcDbLine
 62
7
  6
_SOLID
370
9
 10
2.24453687667847
 20
0.555614292621613
 11
2.24453687667847
 21
0.516026079654694
  0
LINE
  5
1BE
100
AcDbEntity
  8
SEMA2D
100
AcDbLine
 62
7
  6
_SOLID
370
9
 10
2.2407386302948
 20
0.519824266433716
 11
2.2407386302948
 21
0.55181610584259
  0
LINE
  5
1BF
100
AcDbEntity
  8
SEMA2D
100
AcDbLine
 62
7
  6
_SOLID
370
9
 10
2.34678673744202
 20
0.55637389421463
 11
2.34520888328552
 21
0.553640723228455
  0
LINE
  5
1C0
100
AcDbEntity
  8
SEMA2D
100
AcDbLine
 62
7
  6
_SOLID
370
9
 10
2.3173291683197
 20
0.515266418457031
 11
2.31251382827759
 21
0.502036452293396
  0
LINE
  5
1C1
100
AcDbEntity
  8
SEMA2D
100
AcDbLine
 62
7
  6
_SOLID
370
9
 10
2.19823169708252
 20
0.515266418457031
 11
2.19783878326416
 21
0.516026079654694
  0
LINE
  5
1C2
100
AcDbEntity
  8
SEMA2D
100
AcDbLine
 62
7
  6
_SOLID
370
9
 10
2.26221394538879
 20
0.55637389421463
 11
2.26338028907776
 21
0.562988936901093
  0
LINE
  5
1C3
100
AcDbEntity
  8
SEMA2D
100
AcDbLine
 62
7
  6
_SOLID
370
9
 10
2.26130867004395
 20
0.555614292621613
 11
2.26117968559265
 21
0.554883062839508
  0
LINE
  5
1C4
100
AcDbEntity
  8
SEMA2D
100
AcDbLine
 62
7
  6
_SOLID
370
9
 10
2.32611560821533
 20
0.562988936901093
 11
2.32769346237183
 21
0.565722107887268
  0
LINE
  5
1C5
100
AcDbEntity
  8
SEMA2D
100
AcDbLine
 62
7
  6
_SOLID
370
9
 10
2.1496410369873
 20
0.203130543231964
 11
2.14814686775208
 21
0.201636418700218
  0
LINE
  5
1C6
100
AcDbEntity
  8
SEMA2D
100
AcDbLine
 62
7
  6
_SOLID
370
9
 10
2.40765428543091
 20
0.197117641568184
 11
2.39021182060242
 21
0.515266418457031
  0
LINE
  5
1C7
100
AcDbEntity
  8
SEMA2D
100
AcDbLine
 62
7
  6
_SOLID
370
9
 10
2.38540744781494
 20
0.602901101112366
 11
2.38795804977417
 21
0.55637389421463
  0
LINE
  5
1C8
100
AcDbEntity
  8
SEMA2D
100
AcDbLine
 62
7
  6
_SOLID
370
9
 10
2.39031887054443
 20
0.516026079654694
 11
2.38814830780029
 21
0.555614292621613
  0
LINE
  5
1C9
100
AcDbEntity
  8
SEMA2D
100
AcDbLine
 62
7
  6
_SOLID
370
9
 10
2.38673257827759
 20
0.604096412658691
 11
2.38695526123047
 21
0.600037336349487
  0
LINE
  5
1CA
100
AcDbEntity
  8
SEMA2D
100
AcDbLine
 62
7
  6
_SOLID
370
9
 10
2.38578748703003
 20
0.604096412658691
 11
2.38601279258728
 21
0.599985659122467
  0
LINE
  5
1CB
100
AcDbEntity
  8
SEMA2D
100
AcDbLine
 62
7
  6
_SOLID
370
9
 10
2.26338028907776
 20
0.562988936901093
 11
2.26178669929504
 21
0.564888000488281
  0
LINE
  5
1CC
100
AcDbEntity
  8
SEMA2D
100
AcDbLine
 62
7
  6
_SOLID
370
9
 10
2.20851826667786
 20
0.590757489204407
 11
2.20661926269531
 21
0.592524647712707
  0
LINE
  5
1CD
100
AcDbEntity
  8
SEMA2D
100
AcDbLine
 62
7
  6
_SOLID
370
9
 10
2.31251382827759
 20
0.502036452293396
 11
2.31291222572327
 21
0.50146746635437
  0
LINE
  5
1CE
100
AcDbEntity
  8
SEMA2D
100
AcDbLine
 62
7
  6
_SOLID
370
9
 10
2.38097047805786
 20
0.562988936901093
 11
2.37926077842712
 21
0.594173908233643
  0
LINE
  5
1CF
100
AcDbEntity
  8
SEMA2D
100
AcDbLine
 62
7
  6
_SOLID
370
9
 10
2.37909817695618
 20
0.564761400222778
 11
2.37757611274719
 21
0.592524647712707
  0
LINE
  5
1D0
100
AcDbEntity
  8
SEMA2D
100
AcDbLine
 62
7
  6
_SOLID
370
9
 10
2.31251382827759
 20
0.502036452293396
 11
2.24648976325989
 21
0.502036452293396
  0
LINE
  5
1D1
100
AcDbEntity
  8
SEMA2D
100
AcDbLine
 62
7
  6
_SOLID
370
9
 10
2.31291222572327
 20
0.50146746635437
 11
2.24609136581421
 21
0.50146746635437
  0
LINE
  5
1D2
100
AcDbEntity
  8
SEMA2D
100
AcDbLine
 62
7
  6
_SOLID
370
9
 10
2.17916393280029
 20
0.589226007461548
 11
2.18074941635132
 21
0.588224649429321
  0
LINE
  5
1D3
100
AcDbEntity
  8
SEMA2D
100
AcDbLine
 62
7
  6
_SOLID
370
9
 10
2.15968585014343
 20
0.589226007461548
 11
2.16336631774902
 21
0.587046563625336
  0
LINE
  5
1D4
100
AcDbEntity
  8
SEMA2D
100
AcDbLine
 62
7
  6
_SOLID
370
9
 10
2.41070008277893
 20
0.175176426768303
 11
2.41047525405884
 21
0.179277718067169
  0
LINE
  5
1D5
100
AcDbEntity
  8
SEMA2D
100
AcDbLine
 62
7
  6
_SOLID
370
9
 10
2.38698267936707
 20
0.603196144104004
 11
2.38693332672119
 21
0.604096412658691
  0
LINE
  5
1D6
100
AcDbEntity
  8
SEMA2D
100
AcDbLine
 62
7
  6
_SOLID
370
9
 10
2.41164541244507
 20
0.175176426768303
 11
2.41141772270203
 21
0.179329380393028
  0
LINE
  5
1D7
100
AcDbEntity
  8
SEMA2D
100
AcDbLine
 62
7
  6
_SOLID
370
9
 10
2.17106294631958
 20
0.20186884701252
 11
2.17318940162659
 21
0.203130543231964
  0
LINE
  5
1D8
100
AcDbEntity
  8
SEMA2D
100
AcDbLine
 62
7
  6
_SOLID
370
9
 10
2.41184592247009
 20
0.175176426768303
 11
2.41178798675537
 21
0.176236674189568
  0
LINE
  5
1D9
100
AcDbEntity
  8
SEMA2D
100
AcDbLine
 62
7
  6
_SOLID
370
9
 10
2.35103464126587
 20
0.516026079654694
 11
2.35103464126587
 21
0.555614292621613
  0
LINE
  5
1DA
100
AcDbEntity
  8
SEMA2D
100
AcDbLine
 62
7
  6
_SOLID
370
9
 10
2.35037684440613
 20
0.475576430559158
 11
2.35037684440613
 21
0.197120636701584
  0
LINE
  5
1DB
100
AcDbEntity
  8
SEMA2D
100
AcDbLine
 62
7
  6
_SOLID
370
9
 10
2.14894366264343
 20
0.603299558162689
 11
2.14814686775208
 21
0.604096412658691
  0
LINE
  5
1DC
100
AcDbEntity
  8
SEMA2D
100
AcDbLine
 62
7
  6
_SOLID
370
9
 10
2.20560646057129
 20
0.555614292621613
 11
2.20940470695496
 21
0.55181610584259
  0
LINE
  5
1DD
100
AcDbEntity
  8
SEMA2D
100
AcDbLine
 62
7
  6
_SOLID
370
9
 10
2.2407386302948
 20
0.519824266433716
 11
2.24453687667847
 21
0.516026079654694
  0
LINE
  5
1DE
100
AcDbEntity
  8
SEMA2D
100
AcDbLine
 62
7
  6
_SOLID
370
9
 10
2.3472363948822
 20
0.519824266433716
 11
2.3472363948822
 21
0.55181610584259
  0
LINE
  5
1DF
100
AcDbEntity
  8
SEMA2D
100
AcDbLine
 62
7
  6
_SOLID
370
9
 10
2.23099803924561
 20
0.562988936901093
 11
2.22942018508911
 21
0.565722107887268
  0
LINE
  5
1E0
100
AcDbEntity
  8
SEMA2D
100
AcDbLine
 62
7
  6
_SOLID
370
9
 10
2.3481228351593
 20
0.566660523414612
 11
2.3481228351593
 21
0.590757489204407
  0
LINE
  5
1E1
100
AcDbEntity
  8
SEMA2D
100
AcDbLine
 62
7
  6
_SOLID
370
9
 10
2.35002183914185
 20
0.564761400222778
 11
2.35002183914185
 21
0.592524647712707
  0
LINE
  5
1E2
100
AcDbEntity
  8
SEMA2D
100
AcDbLine
 62
7
  6
_SOLID
370
9
 10
2.17318940162659
 20
0.483349770307541
 11
2.17720556259155
 21
0.483349770307541
  0
LINE
  5
1E3
100
AcDbEntity
  8
SEMA2D
100
AcDbLine
 62
7
  6
_SOLID
370
9
 10
2.1496410369873
 20
0.483349770307541
 11
2.15759682655334
 21
0.483349770307541
  0
LINE
  5
1E4
100
AcDbEntity
  8
SEMA2D
100
AcDbLine
 62
7
  6
_SOLID
370
9
 10
2.16137671470642
 20
0.484081417322159
 11
2.17106294631958
 21
0.484081417322159
  0
LINE
  5
1E5
100
AcDbEntity
  8
SEMA2D
100
AcDbLine
 62
7
  6
_SOLID
370
9
 10
2.17087888717651
 20
0.60310035943985
 11
2.17112874984741
 21
0.602901101112366
  0
LINE
  5
1E6
100
AcDbEntity
  8
SEMA2D
100
AcDbLine
 62
7
  6
_SOLID
370
9
 10
2.16762948036194
 20
0.603299558162689
 11
2.16787958145142
 21
0.60310035943985
  0
LINE
  5
1E7
100
AcDbEntity
  8
SEMA2D
100
AcDbLine
 62
7
  6
_SOLID
370
9
 10
2.39021182060242
 20
0.515266418457031
 11
2.39031887054443
 21
0.516026079654694
  0
LINE
  5
1E8
100
AcDbEntity
  8
SEMA2D
100
AcDbLine
 62
7
  6
_SOLID
370
9
 10
2.24167442321777
 20
0.515266418457031
 11
2.23650527000427
 21
0.518885850906372
  0
LINE
  5
1E9
100
AcDbEntity
  8
SEMA2D
100
AcDbLine
 62
7
  6
_SOLID
370
9
 10
2.19468426704407
 20
0.197856426239014
 11
2.19445180892944
 21
0.197856426239014
  0
LINE
  5
1EA
100
AcDbEntity
  8
SEMA2D
100
AcDbLine
 62
7
  6
_SOLID
370
9
 10
2.20862674713135
 20
0.197120636701584
 11
2.19823169708252
 21
0.197120636701584
  0
LINE
  5
1EB
100
AcDbEntity
  8
SEMA2D
100
AcDbLine
 62
7
  6
_SOLID
370
9
 10
2.19067168235779
 20
0.201636418700218
 11
2.14814686775208
 21
0.201636418700218
  0
LINE
  5
1EC
100
AcDbEntity
  8
SEMA2D
100
AcDbLine
 62
7
  6
_SOLID
370
9
 10
2.18074941635132
 20
0.20186884701252
 11
2.19067168235779
 21
0.20186884701252
  0
LINE
  5
1ED
100
AcDbEntity
  8
SEMA2D
100
AcDbLine
 62
7
  6
_SOLID
370
9
 10
2.16137671470642
 20
0.20186884701252
 11
2.17106294631958
 21
0.20186884701252
  0
LINE
  5
1EE
100
AcDbEntity
  8
SEMA2D
100
AcDbLine
 62
7
  6
_SOLID
370
9
 10
2.21414589881897
 20
0.562988936901093
 11
2.21887993812561
 21
0.565722107887268
  0
LINE
  5
1EF
100
AcDbEntity
  8
SEMA2D
100
AcDbLine
 62
7
  6
_SOLID
370
9
 10
2.17720556259155
 20
0.203130543231964
 11
2.18074941635132
 21
0.20186884701252
  0
LINE
  5
1F0
100
AcDbEntity
  8
SEMA2D
100
AcDbLine
 62
7
  6
_SOLID
370
9
 10
2.41478896141052
 20
0.197634235024452
 11
2.41573119163513
 21
0.19768588244915
  0
LINE
  5
1F1
100
AcDbEntity
  8
SEMA2D
100
AcDbLine
 62
7
  6
_SOLID
370
9
 10
2.28455781936646
 20
0.197120636701584
 11
2.27066588401794
 21
0.197120636701584
  0
LINE
  5
1F2
100
AcDbEntity
  8
SEMA2D
100
AcDbLine
 62
7
  6
_SOLID
370
9
 10
2.40776371955872
 20
0.197120636701584
 11
2.35037684440613
 21
0.197120636701584
  0
LINE
  5
1F3
100
AcDbEntity
  8
SEMA2D
100
AcDbLine
 62
7
  6
_SOLID
370
9
 10
2.14814686775208
 20
0.201636418700218
 11
2.14814686775208
 21
0.604096412658691
  0
LINE
  5
1F4
100
AcDbEntity
  8
SEMA2D
100
AcDbLine
 62
7
  6
_SOLID
370
9
 10
2.19783878326416
 20
0.555614292621613
 11
2.19823169708252
 21
0.55637389421463
  0
LINE
  5
1F5
100
AcDbEntity
  8
SEMA2D
100
AcDbLine
 62
7
  6
_SOLID
370
9
 10
2.14894366264343
 20
0.603299558162689
 11
2.14894366264343
 21
0.511486411094666
  0
LINE
  5
1F6
100
AcDbEntity
  8
SEMA2D
100
AcDbLine
 62
7
  6
_SOLID
370
9
 10
2.21887993812561
 20
0.565722107887268
 11
2.21190476417542
 21
0.553640723228455
  0
LINE
  5
1F7
100
AcDbEntity
  8
SEMA2D
100
AcDbLine
 62
7
  6
_SOLID
370
9
 10
2.21414589881897
 20
0.562988936901093
 11
2.21032667160034
 21
0.55637389421463
  0
LINE
  5
1F8
100
AcDbEntity
  8
SEMA2D
100
AcDbLine
 62
7
  6
_SOLID
370
9
 10
2.17318940162659
 20
0.203130543231964
 11
2.17720556259155
 21
0.203130543231964
  0
LINE
  5
1F9
100
AcDbEntity
  8
SEMA2D
100
AcDbLine
 62
7
  6
_SOLID
370
9
 10
2.1496410369873
 20
0.203130543231964
 11
2.15759682655334
 21
0.203130543231964
  0
LINE
  5
1FA
100
AcDbEntity
  8
SEMA2D
100
AcDbLine
 62
7
  6
_SOLID
370
9
 10
2.19492435455322
 20
0.588224649429321
 11
2.19731497764587
 21
0.592524647712707
  0
LINE
  5
1FB
100
AcDbEntity
  8
SEMA2D
100
AcDbLine
 62
7
  6
_SOLID
370
9
 10
2.22717881202698
 20
0.55637389421463
 11
2.22244477272034
 21
0.553640723228455
  0
LINE
  5
1FC
100
AcDbEntity
  8
SEMA2D
100
AcDbLine
 62
7
  6
_SOLID
370
9
 10
2.20661926269531
 20
0.564761400222778
 11
2.20851826667786
 21
0.566660523414612
  0
LINE
  5
1FD
100
AcDbEntity
  8
SEMA2D
100
AcDbLine
 62
7
  6
_SOLID
370
9
 10
2.41047525405884
 20
0.179277718067169
 11
2.41141772270203
 21
0.179329380393028
  0
LINE
  5
1FE
100
AcDbEntity
  8
SEMA2D
100
AcDbLine
 62
7
  6
_SOLID
370
9
 10
2.16994404792786
 20
0.587046563625336
 11
2.1720142364502
 21
0.589226007461548
  0
LINE
  5
1FF
100
AcDbEntity
  8
SEMA2D
100
AcDbLine
 62
7
  6
_SOLID
370
9
 10
2.25440788269043
 20
0.187495082616806
 11
2.264080286026
 21
0.187495082616806
  0
LINE
  5
200
100
AcDbEntity
  8
SEMA2D
100
AcDbLine
 62
7
  6
_SOLID
370
9
 10
2.15759682655334
 20
0.203130543231964
 11
2.16137671470642
 21
0.20186884701252
  0
LINE
  5
201
100
AcDbEntity
  8
SEMA2D
100
AcDbLine
 62
7
  6
_SOLID
370
9
 10
2.29114317893982
 20
0.187495082616806
 11
2.30081558227539
 21
0.187495082616806
  0
LINE
  5
202
100
AcDbEntity
  8
SEMA2D
100
AcDbLine
 62
7
  6
_SOLID
370
9
 10
2.17112874984741
 20
0.594173908233643
 11
2.16762948036194
 21
0.589226007461548
  0
LINE
  5
203
100
AcDbEntity
  8
SEMA2D
100
AcDbLine
 62
7
  6
_SOLID
370
9
 10
2.20139765739441
 20
0.175176426768303
 11
2.19703269004822
 21
0.175837844610214
  0
LINE
  5
204
100
AcDbEntity
  8
SEMA2D
100
AcDbLine
 62
7
  6
_SOLID
370
9
 10
2.19445180892944
 20
0.175176426768303
 11
2.41184592247009
 21
0.175176426768303
  0
LINE
  5
205
100
AcDbEntity
  8
SEMA2D
100
AcDbLine
 62
7
  6
_SOLID
370
9
 10
2.19492435455322
 20
0.175982519984245
 11
2.19468426704407
 21
0.175982519984245
  0
LINE
  5
206
100
AcDbEntity
  8
SEMA2D
100
AcDbLine
 62
7
  6
_SOLID
370
9
 10
2.19445180892944
 20
0.175837844610214
 11
2.19703269004822
 21
0.175837844610214
  0
LINE
  5
207
100
AcDbEntity
  8
SEMA2D
100
AcDbLine
 62
7
  6
_SOLID
370
9
 10
2.22942018508911
 20
0.565722107887268
 11
2.22244477272034
 21
0.553640723228455
  0
LINE
  5
208
100
AcDbEntity
  8
SEMA2D
100
AcDbLine
 62
7
  6
_SOLID
370
9
 10
2.3481228351593
 20
0.590757489204407
 11
2.35002183914185
 21
0.592524647712707
  0
LINE
  5
209
100
AcDbEntity
  8
SEMA2D
100
AcDbLine
 62
7
  6
_SOLID
370
9
 10
2.17720556259155
 20
0.483349770307541
 11
2.17916393280029
 21
0.511486411094666
  0
LINE
  5
20A
100
AcDbEntity
  8
SEMA2D
100
AcDbLine
 62
7
  6
_SOLID
370
9
 10
2.19445180892944
 20
0.175176426768303
 11
2.19445180892944
 21
0.197856426239014
  0
LINE
  5
20B
100
AcDbEntity
  8
SEMA2D
100
AcDbLine
 62
7
  6
_SOLID
370
9
 10
2.19067168235779
 20
0.20186884701252
 11
2.19067168235779
 21
0.201636418700218
  0
LINE
  5
20C
100
AcDbEntity
  8
SEMA2D
100
AcDbLine
 62
7
  6
_SOLID
370
9
 10
2.17318940162659
 20
0.203130543231964
 11
2.17318940162659
 21
0.483349770307541
  0
LINE
  5
20D
100
AcDbEntity
  8
SEMA2D
100
AcDbLine
 62
7
  6
_SOLID
370
9
 10
2.1720142364502
 20
0.511486411094666
 11
2.1720142364502
 21
0.589226007461548
  0
LINE
  5
20E
100
AcDbEntity
  8
SEMA2D
100
AcDbLine
 62
7
  6
_SOLID
370
9
 10
2.17720556259155
 20
0.203130543231964
 11
2.17720556259155
 21
0.483349770307541
  0
LINE
  5
20F
100
AcDbEntity
  8
SEMA2D
100
AcDbLine
 62
7
  6
_SOLID
370
9
 10
2.18074941635132
 20
0.20186884701252
 11
2.18074941635132
 21
0.588224649429321
  0
LINE
  5
210
100
AcDbEntity
  8
SEMA2D
100
AcDbLine
 62
7
  6
_SOLID
370
9
 10
2.17916393280029
 20
0.511486411094666
 11
2.17916393280029
 21
0.589226007461548
  0
LINE
  5
211
100
AcDbEntity
  8
SEMA2D
100
AcDbLine
 62
7
  6
_SOLID
370
9
 10
2.19823169708252
 20
0.55637389421463
 11
2.19823169708252
 21
0.562988936901093
  0
LINE
  5
212
100
AcDbEntity
  8
SEMA2D
100
AcDbLine
 62
7
  6
_SOLID
370
9
 10
2.19823169708252
 20
0.197120636701584
 11
2.19823169708252
 21
0.515266418457031
  0
LINE
  5
213
100
AcDbEntity
  8
SEMA2D
100
AcDbLine
 62
7
  6
_SOLID
370
9
 10
2.24648976325989
 20
0.502036452293396
 11
2.24609136581421
 21
0.50146746635437
  0
LINE
  5
214
100
AcDbEntity
  8
SEMA2D
100
AcDbLine
 62
7
  6
_SOLID
370
9
 10
2.20139765739441
 20
0.197120636701584
 11
2.20139765739441
 21
0.176409751176834
  0
LINE
  5
215
100
AcDbEntity
  8
SEMA2D
100
AcDbLine
 62
7
  6
_SOLID
370
9
 10
2.3173291683197
 20
0.515266418457031
 11
2.3224983215332
 21
0.518885850906372
  0
LINE
  5
216
100
AcDbEntity
  8
SEMA2D
100
AcDbLine
 62
7
  6
_SOLID
370
9
 10
2.19492435455322
 20
0.175982519984245
 11
2.19492435455322
 21
0.588224649429321
  0
LINE
  5
217
100
AcDbEntity
  8
SEMA2D
100
AcDbLine
 62
7
  6
_SOLID
370
9
 10
2.19468426704407
 20
0.175982519984245
 11
2.19468426704407
 21
0.197856426239014
  0
LINE
  5
218
100
AcDbEntity
  8
SEMA2D
100
AcDbLine
 62
7
  6
_SOLID
370
9
 10
2.19703269004822
 20
0.175176426768303
 11
2.19703269004822
 21
0.175837844610214
  0
LINE
  5
219
100
AcDbEntity
  8
SEMA2D
100
AcDbLine
 62
7
  6
_SOLID
370
9
 10
2.19783878326416
 20
0.516026079654694
 11
2.19783878326416
 21
0.555614292621613
  0
LINE
  5
21A
100
AcDbEntity
  8
SEMA2D
100
AcDbLine
 62
7
  6
_SOLID
370
9
 10
2.19731497764587
 20
0.564761400222778
 11
2.19731497764587
 21
0.592524647712707
  0
LINE
  5
21B
100
AcDbEntity
  8
SEMA2D
100
AcDbLine
 62
7
  6
_SOLID
370
9
 10
2.15759682655334
 20
0.203130543231964
 11
2.15759682655334
 21
0.483349770307541
  0
LINE
  5
21C
100
AcDbEntity
  8
SEMA2D
100
AcDbLine
 62
7
  6
_SOLID
370
9
 10
2.1496410369873
 20
0.483349770307541
 11
2.1496410369873
 21
0.203130543231964
  0
LINE
  5
21D
100
AcDbEntity
  8
SEMA2D
100
AcDbLine
 62
7
  6
_SOLID
370
9
 10
2.15968585014343
 20
0.511486411094666
 11
2.15968585014343
 21
0.589226007461548
  0
LINE
  5
21E
100
AcDbEntity
  8
SEMA2D
100
AcDbLine
 62
7
  6
_SOLID
370
9
 10
2.16336631774902
 20
0.538088440895081
 11
2.16336631774902
 21
0.587046563625336
  0
LINE
  5
21F
100
AcDbEntity
  8
SEMA2D
100
AcDbLine
 62
7
  6
_SOLID
370
9
 10
2.16137671470642
 20
0.20186884701252
 11
2.16137671470642
 21
0.484081417322159
  0
LINE
  5
220
100
AcDbEntity
  8
SEMA2D
100
AcDbLine
 62
7
  6
_SOLID
370
9
 10
2.2407386302948
 20
0.55181610584259
 11
2.24453687667847
 21
0.555614292621613
  0
LINE
  5
221
100
AcDbEntity
  8
SEMA2D
100
AcDbLine
 62
7
  6
_SOLID
370
9
 10
2.24742841720581
 20
0.562988936901093
 11
2.24902176856995
 21
0.564888000488281
  0
LINE
  5
222
100
AcDbEntity
  8
SEMA2D
100
AcDbLine
 62
7
  6
_SOLID
370
9
 10
2.20940470695496
 20
0.519824266433716
 11
2.20560646057129
 21
0.516026079654694
  0
LINE
  5
223
100
AcDbEntity
  8
SEMA2D
100
AcDbLine
 62
7
  6
_SOLID
370
9
 10
2.1496410369873
 20
0.483349770307541
 11
2.14894366264343
 21
0.511486411094666
  0
LINE
  5
224
100
AcDbEntity
  8
SEMA2D
100
AcDbLine
 62
7
  6
_SOLID
370
9
 10
2.26221394538879
 20
0.55637389421463
 11
2.26130867004395
 21
0.555614292621613
  0
LINE
  5
225
100
AcDbEntity
  8
SEMA2D
100
AcDbLine
 62
7
  6
_SOLID
370
9
 10
2.16762948036194
 20
0.589226007461548
 11
2.16762948036194
 21
0.603299558162689
  0
LINE
  5
226
100
AcDbEntity
  8
SEMA2D
100
AcDbLine
 62
7
  6
_SOLID
370
9
 10
2.17106294631958
 20
0.484081417322159
 11
2.16994404792786
 21
0.538088440895081
  0
LINE
  5
227
100
AcDbEntity
  8
SEMA2D
100
AcDbLine
 62
7
  6
_SOLID
370
9
 10
2.16994404792786
 20
0.538088440895081
 11
2.16994404792786
 21
0.587046563625336
  0
LINE
  5
228
100
AcDbEntity
  8
SEMA2D
100
AcDbLine
 62
7
  6
_SOLID
370
9
 10
2.17112874984741
 20
0.602901101112366
 11
2.17112874984741
 21
0.594173908233643
  0
LINE
  5
229
100
AcDbEntity
  8
SEMA2D
100
AcDbLine
 62
7
  6
_SOLID
370
9
 10
2.17106294631958
 20
0.20186884701252
 11
2.17106294631958
 21
0.484081417322159
  0
LINE
  5
22A
100
AcDbEntity
  8
SEMA2D
100
AcDbLine
 62
7
  6
_SOLID
370
9
 10
2.15759682655334
 20
0.483349770307541
 11
2.15968585014343
 21
0.511486411094666
  0
LINE
  5
22B
100
AcDbEntity
  8
SEMA2D
100
AcDbLine
 62
7
  6
_SOLID
370
9
 10
2.16137671470642
 20
0.484081417322159
 11
2.16336631774902
 21
0.538088440895081
  0
LINE
  5
22C
100
AcDbEntity
  8
SEMA2D
100
AcDbLine
 62
7
  6
_SOLID
370
9
 10
2.23099803924561
 20
0.562988936901093
 11
2.22717881202698
 21
0.55637389421463
  0
LINE
  5
22D
100
AcDbEntity
  8
SEMA2D
100
AcDbLine
 62
7
  6
_SOLID
370
9
 10
2.17318940162659
 20
0.483349770307541
 11
2.1720142364502
 21
0.511486411094666
  0
LINE
  5
22E
100
AcDbEntity
  8
SEMA2D
100
AcDbLine
 62
7
  6
_SOLID
370
9
 10
2.22425699234009
 20
0.515266418457031
 11
2.22679138183594
 21
0.518885850906372
  0
LINE
  5
22F
100
AcDbEntity
  8
SEMA2D
100
AcDbLine
 62
7
  6
_SOLID
370
9
 10
2.24859476089478
 20
0.55637389421463
 11
2.24950003623962
 21
0.555614292621613
  0
LINE
  5
230
100
AcDbEntity
  8
SEMA2D
100
AcDbLine
 62
7
  6
_SOLID
370
9
 10
2.31590247154236
 20
0.55181610584259
 11
2.3472363948822
 21
0.55181610584259
  0
LINE
  5
231
100
AcDbEntity
  8
SEMA2D
100
AcDbLine
 62
7
  6
_SOLID
370
9
 10
2.20940470695496
 20
0.55181610584259
 11
2.2407386302948
 21
0.55181610584259
  0
LINE
  5
232
100
AcDbEntity
  8
SEMA2D
100
AcDbLine
 62
7
  6
_SOLID
370
9
 10
2.31210422515869
 20
0.555614292621613
 11
2.26130867004395
 21
0.555614292621613
  0
LINE
  5
233
100
AcDbEntity
  8
SEMA2D
100
AcDbLine
 62
7
  6
_SOLID
370
9
 10
2.19783878326416
 20
0.555614292621613
 11
2.20560646057129
 21
0.555614292621613
  0
LINE
  5
234
100
AcDbEntity
  8
SEMA2D
100
AcDbLine
 62
7
  6
_SOLID
370
9
 10
2.24950003623962
 20
0.555614292621613
 11
2.24453687667847
 21
0.555614292621613
  0
LINE
  5
235
100
AcDbEntity
  8
SEMA2D
100
AcDbLine
 62
7
  6
_SOLID
370
9
 10
2.31590247154236
 20
0.55181610584259
 11
2.31210422515869
 21
0.555614292621613
  0
LINE
  5
236
100
AcDbEntity
  8
SEMA2D
100
AcDbLine
 62
7
  6
_SOLID
370
9
 10
2.35103464126587
 20
0.516026079654694
 11
2.3472363948822
 21
0.519824266433716
  0
LINE
  5
237
100
AcDbEntity
  8
SEMA2D
100
AcDbLine
 62
7
  6
_SOLID
370
9
 10
2.34296774864197
 20
0.562988936901093
 11
2.34678673744202
 21
0.55637389421463
  0
LINE
  5
238
100
AcDbEntity
  8
SEMA2D
100
AcDbLine
 62
7
  6
_SOLID
370
9
 10
2.24962902069092
 20
0.554883062839508
 11
2.25075101852417
 21
0.555080950260162
  0
LINE
  5
239
100
AcDbEntity
  8
SEMA2D
100
AcDbLine
 62
7
  6
_SOLID
370
9
 10
2.38814830780029
 20
0.555614292621613
 11
2.38795804977417
 21
0.55637389421463
  0
LINE
  5
23A
100
AcDbEntity
  8
SEMA2D
100
AcDbLine
 62
7
  6
_SOLID
370
9
 10
2.32993459701538
 20
0.55637389421463
 11
2.33466863632202
 21
0.553640723228455
  0
LINE
  5
23B
100
AcDbEntity
  8
SEMA2D
100
AcDbLine
 62
7
  6
_SOLID
370
9
 10
2.26117968559265
 20
0.554883062839508
 11
2.26005744934082
 21
0.555080950260162
  0
LINE
  5
23C
100
AcDbEntity
  8
SEMA2D
100
AcDbLine
 62
7
  6
_SOLID
370
9
 10
2.38705492019653
 20
0.603027522563934
 11
2.39203238487244
 21
0.589051902294159
  0
LINE
  5
23D
100
AcDbEntity
  8
SEMA2D
100
AcDbLine
 62
7
  6
_SOLID
370
9
 10
2.39205813407898
 20
0.585317492485046
 11
2.38695526123047
 21
0.600037336349487
  0
LINE
  5
23E
100
AcDbEntity
  8
SEMA2D
100
AcDbLine
 62
7
  6
_SOLID
370
9
 10
2.39111590385437
 20
0.585265815258026
 11
2.38601279258728
 21
0.599985659122467
  0
LINE
  5
23F
100
AcDbEntity
  8
SEMA2D
100
AcDbLine
 62
7
  6
_SOLID
370
9
 10
2.19823169708252
 20
0.55637389421463
 11
2.21032667160034
 21
0.55637389421463
  0
LINE
  5
240
100
AcDbEntity
  8
SEMA2D
100
AcDbLine
 62
7
  6
_SOLID
370
9
 10
2.35103464126587
 20
0.555614292621613
 11
2.38814830780029
 21
0.555614292621613
  0
LINE
  5
241
100
AcDbEntity
  8
SEMA2D
100
AcDbLine
 62
7
  6
_SOLID
370
9
 10
2.22717881202698
 20
0.55637389421463
 11
2.24859476089478
 21
0.55637389421463
  0
LINE
  5
242
100
AcDbEntity
  8
SEMA2D
100
AcDbLine
 62
7
  6
_SOLID
370
9
 10
2.34678673744202
 20
0.55637389421463
 11
2.38795804977417
 21
0.55637389421463
  0
LINE
  5
243
100
AcDbEntity
  8
SEMA2D
100
AcDbLine
 62
7
  6
_SOLID
370
9
 10
2.26221394538879
 20
0.55637389421463
 11
2.32993459701538
 21
0.55637389421463
  0
LINE
  5
244
100
AcDbEntity
  8
SEMA2D
100
AcDbLine
 62
7
  6
_SOLID
370
9
 10
2.14894366264343
 20
0.511486411094666
 11
2.15968585014343
 21
0.511486411094666
  0
LINE
  5
245
100
AcDbEntity
  8
SEMA2D
100
AcDbLine
 62
7
  6
_SOLID
370
9
 10
2.19468426704407
 20
0.175982519984245
 11
2.19445180892944
 21
0.175837844610214
  0
LINE
  5
246
100
AcDbEntity
  8
SEMA2D
100
AcDbLine
 62
7
  6
_SOLID
370
9
 10
2.1720142364502
 20
0.511486411094666
 11
2.17916393280029
 21
0.511486411094666
  0
LINE
  5
247
100
AcDbEntity
  8
SEMA2D
100
AcDbLine
 62
7
  6
_SOLID
370
9
 10
2.3173291683197
 20
0.515266418457031
 11
2.24167442321777
 21
0.515266418457031
  0
LINE
  5
248
100
AcDbEntity
  8
SEMA2D
100
AcDbLine
 62
7
  6
_SOLID
370
9
 10
2.39021182060242
 20
0.515266418457031
 11
2.33474659919739
 21
0.515266418457031
  0
LINE
  5
249
100
AcDbEntity
  8
SEMA2D
100
AcDbLine
 62
7
  6
_SOLID
370
9
 10
2.41466760635376
 20
0.197630554437637
 11
2.39111590385437
 21
0.585265815258026
  0
LINE
  5
24A
100
AcDbEntity
  8
SEMA2D
100
AcDbLine
 62
7
  6
_SOLID
370
9
 10
2.33474659919739
 20
0.515266418457031
 11
2.33221220970154
 21
0.518885850906372
  0
LINE
  5
24B
100
AcDbEntity
  8
SEMA2D
100
AcDbLine
 62
7
  6
_SOLID
370
9
 10
2.41561007499695
 20
0.197682201862335
 11
2.39205813407898
 21
0.585317492485046
  0
LINE
  5
24C
100
AcDbEntity
  8
SEMA2D
100
AcDbLine
 62
7
  6
_SOLID
370
9
 10
2.19492435455322
 20
0.175982519984245
 11
2.19560122489929
 21
0.176409751176834
  0
LINE
  5
24D
100
AcDbEntity
  8
SEMA2D
100
AcDbLine
 62
7
  6
_SOLID
370
9
 10
2.41601276397705
 20
0.194361507892609
 11
2.39203238487244
 21
0.589051902294159
  0
LINE
  5
24E
100
AcDbEntity
  8
SEMA2D
100
AcDbLine
 62
7
  6
_SOLID
370
9
 10
2.32611560821533
 20
0.562988936901093
 11
2.32993459701538
 21
0.55637389421463
  0
LINE
  5
24F
100
AcDbEntity
  8
SEMA2D
100
AcDbLine
 62
7
  6
_SOLID
370
9
 10
2.31590247154236
 20
0.519824266433716
 11
2.3472363948822
 21
0.519824266433716
  0
LINE
  5
250
100
AcDbEntity
  8
SEMA2D
100
AcDbLine
 62
7
  6
_SOLID
370
9
 10
2.32769346237183
 20
0.565722107887268
 11
2.33466863632202
 21
0.553640723228455
  0
LINE
  5
251
100
AcDbEntity
  8
SEMA2D
100
AcDbLine
 62
7
  6
_SOLID
370
9
 10
2.16336631774902
 20
0.538088440895081
 11
2.16994404792786
 21
0.538088440895081
  0
LINE
  5
252
100
AcDbEntity
  8
SEMA2D
100
AcDbLine
 62
7
  6
_SOLID
370
9
 10
2.33823370933533
 20
0.565722107887268
 11
2.34520888328552
 21
0.553640723228455
  0
LINE
  5
253
100
AcDbEntity
  8
SEMA2D
100
AcDbLine
 62
7
  6
_SOLID
370
9
 10
2.31210422515869
 20
0.516026079654694
 11
2.24453687667847
 21
0.516026079654694
  0
LINE
  5
254
100
AcDbEntity
  8
SEMA2D
100
AcDbLine
 62
7
  6
_SOLID
370
9
 10
2.22425699234009
 20
0.515266418457031
 11
2.19823169708252
 21
0.515266418457031
  0
LINE
  5
255
100
AcDbEntity
  8
SEMA2D
100
AcDbLine
 62
7
  6
_SOLID
370
9
 10
2.19783878326416
 20
0.516026079654694
 11
2.20560646057129
 21
0.516026079654694
  0
LINE
  5
256
100
AcDbEntity
  8
SEMA2D
100
AcDbLine
 62
7
  6
_SOLID
370
9
 10
2.20940470695496
 20
0.519824266433716
 11
2.2407386302948
 21
0.519824266433716
  0
LINE
  5
257
100
AcDbEntity
  8
SEMA2D
100
AcDbLine
 62
7
  6
_SOLID
370
9
 10
2.35103464126587
 20
0.516026079654694
 11
2.39031887054443
 21
0.516026079654694
  0
LINE
  5
258
100
AcDbEntity
  8
SEMA2D
100
AcDbLine
 62
7
  6
_SOLID
370
9
 10
2.41047525405884
 20
0.179277718067169
 11
2.41478896141052
 21
0.197634235024452
  0
LINE
  5
259
100
AcDbEntity
  8
SEMA2D
100
AcDbLine
 62
7
  6
_SOLID
370
9
 10
2.14894366264343
 20
0.603299558162689
 11
2.16762948036194
 21
0.603299558162689
  0
LINE
  5
25A
100
AcDbEntity
  8
SEMA2D
100
AcDbLine
 62
7
  6
_SOLID
370
9
 10
2.16787958145142
 20
0.60310035943985
 11
2.17087888717651
 21
0.60310035943985
  0
LINE
  5
25B
100
AcDbEntity
  8
SEMA2D
100
AcDbLine
 62
7
  6
_SOLID
370
9
 10
2.14814686775208
 20
0.604096412658691
 11
2.38693332672119
 21
0.604096412658691
  0
LINE
  5
25C
100
AcDbEntity
  8
SEMA2D
100
AcDbLine
 62
7
  6
_SOLID
370
9
 10
2.16787958145142
 20
0.60310035943985
 11
2.17382669448853
 21
0.604096412658691
  0
LINE
  5
25D
100
AcDbEntity
  8
SEMA2D
100
AcDbLine
 62
7
  6
_SOLID
370
9
 10
2.17087888717651
 20
0.60310035943985
 11
2.17682600021362
 21
0.604096412658691
  0
LINE
  5
25E
100
AcDbEntity
  8
SEMA2D
100
AcDbLine
 62
7
  6
_SOLID
370
9
 10
2.38097047805786
 20
0.562988936901093
 11
2.37909817695618
 21
0.564761400222778
  0
LINE
  5
25F
100
AcDbEntity
  8
SEMA2D
100
AcDbLine
 62
7
  6
_SOLID
370
9
 10
2.35002183914185
 20
0.592524647712707
 11
2.37757611274719
 21
0.592524647712707
  0
LINE
  5
260
100
AcDbEntity
  8
SEMA2D
100
AcDbLine
 62
7
  6
_SOLID
370
9
 10
2.38601279258728
 20
0.599985659122467
 11
2.38695526123047
 21
0.600037336349487
  0
LINE
  5
261
100
AcDbEntity
  8
SEMA2D
100
AcDbLine
 62
7
  6
_SOLID
370
9
 10
2.17112874984741
 20
0.602901101112366
 11
2.38540744781494
 21
0.602901101112366
  0
LINE
  5
262
100
AcDbEntity
  8
SEMA2D
100
AcDbLine
 62
7
  6
_SOLID
370
9
 10
2.17112874984741
 20
0.594173908233643
 11
2.37926077842712
 21
0.594173908233643
  0
LINE
  5
263
100
AcDbEntity
  8
SEMA2D
100
AcDbLine
 62
7
  6
_SOLID
370
9
 10
2.19731497764587
 20
0.564761400222778
 11
2.20661926269531
 21
0.564761400222778
  0
LINE
  5
264
100
AcDbEntity
  8
SEMA2D
100
AcDbLine
 62
7
  6
_SOLID
370
9
 10
2.21414589881897
 20
0.562988936901093
 11
2.19823169708252
 21
0.562988936901093
  0
LINE
  5
265
100
AcDbEntity
  8
SEMA2D
100
AcDbLine
 62
7
  6
_SOLID
370
9
 10
2.35002183914185
 20
0.564761400222778
 11
2.37909817695618
 21
0.564761400222778
  0
LINE
  5
266
100
AcDbEntity
  8
SEMA2D
100
AcDbLine
 62
7
  6
_SOLID
370
9
 10
2.20851826667786
 20
0.566660523414612
 11
2.3481228351593
 21
0.566660523414612
  0
LINE
  5
267
100
AcDbEntity
  8
SEMA2D
100
AcDbLine
 62
7
  6
_SOLID
370
9
 10
2.24902176856995
 20
0.564888000488281
 11
2.26178669929504
 21
0.564888000488281
  0
LINE
  5
268
100
AcDbEntity
  8
SEMA2D
100
AcDbLine
 62
7
  6
_SOLID
370
9
 10
2.41613411903381
 20
0.194365188479424
 11
2.41178798675537
 21
0.176236674189568
  0
LINE
  5
269
100
AcDbEntity
  8
SEMA2D
100
AcDbLine
 62
7
  6
_SOLID
370
9
 10
2.41141772270203
 20
0.179329380393028
 11
2.41573119163513
 21
0.19768588244915
  0
LINE
  5
26A
100
AcDbEntity
  8
SEMA2D
100
AcDbLine
 62
7
  6
_SOLID
370
9
 10
2.38097047805786
 20
0.562988936901093
 11
2.34296774864197
 21
0.562988936901093
  0
LINE
  5
26B
100
AcDbEntity
  8
SEMA2D
100
AcDbLine
 62
7
  6
_SOLID
370
9
 10
2.24742841720581
 20
0.562988936901093
 11
2.23099803924561
 21
0.562988936901093
  0
LINE
  5
26C
100
AcDbEntity
  8
SEMA2D
100
AcDbLine
 62
7
  6
_SOLID
370
9
 10
2.32611560821533
 20
0.562988936901093
 11
2.26338028907776
 21
0.562988936901093
  0
LINE
  5
26D
100
AcDbEntity
  8
SEMA2D
100
AcDbLine
 62
7
  6
_SOLID
370
9
 10
2.15968585014343
 20
0.589226007461548
 11
2.16762948036194
 21
0.589226007461548
  0
LINE
  5
26E
100
AcDbEntity
  8
SEMA2D
100
AcDbLine
 62
7
  6
_SOLID
370
9
 10
2.18074941635132
 20
0.588224649429321
 11
2.19492435455322
 21
0.588224649429321
  0
LINE
  5
26F
100
AcDbEntity
  8
SEMA2D
100
AcDbLine
 62
7
  6
_SOLID
370
9
 10
2.1720142364502
 20
0.589226007461548
 11
2.17916393280029
 21
0.589226007461548
  0
LINE
  5
270
100
AcDbEntity
  8
SEMA2D
100
AcDbLine
 62
7
  6
_SOLID
370
9
 10
2.19731497764587
 20
0.592524647712707
 11
2.20661926269531
 21
0.592524647712707
  0
LINE
  5
271
100
AcDbEntity
  8
SEMA2D
100
AcDbLine
 62
7
  6
_SOLID
370
9
 10
2.20851826667786
 20
0.590757489204407
 11
2.3481228351593
 21
0.590757489204407
  0
LINE
  5
272
100
AcDbEntity
  8
SEMA2D
100
AcDbLine
 62
7
  6
_SOLID
370
9
 10
2.3481228351593
 20
0.566660523414612
 11
2.35002183914185
 21
0.564761400222778
  0
LINE
  5
273
100
AcDbEntity
  8
SEMA2D
100
AcDbLine
 62
7
  6
_SOLID
370
9
 10
2.34296774864197
 20
0.562988936901093
 11
2.33823370933533
 21
0.565722107887268
  0
LINE
  5
274
100
AcDbEntity
  8
SEMA2D
100
AcDbLine
 62
7
  6
_SOLID
370
9
 10
2.38705492019653
 20
0.603027522563934
 11
2.38698267936707
 21
0.603196144104004
  0
LINE
  5
275
100
AcDbEntity
  8
SEMA2D
100
AcDbLine
 62
7
  6
_SOLID
370
9
 10
2.16336631774902
 20
0.587046563625336
 11
2.16994404792786
 21
0.587046563625336
  0
LINE
  5
276
100
AcDbEntity
  8
SEMA2D
100
AcDbLine
 62
7
  6
_SOLID
370
9
 10
2.39111590385437
 20
0.585265815258026
 11
2.39205813407898
 21
0.585317492485046
  0
LINE
  5
277
100
AcDbEntity
  8
SEMA2D
100
AcDbLine
 62
7
  6
_SOLID
370
9
 10
2.27761173248291
 20
0.236794769763947
 11
2.27761173248291
 21
0.233176991343498
  0
ENDSEC
  0
SECTION
  2
OBJECTS
  0
DICTIONARY
  5
 13
330
0
100
AcDbDictionary
281
     1
  3
ACAD_GROUP
350
 14
 3
ACAD_MLINESTYLE
350
 16
  3
ACAD_PLOTSETTINGS
350
 17
  3
ACAD_PLOTSTYLENAME
350
 18
  0
DICTIONARY
  5
 14
330
 13
100
AcDbDictionary
281
     1
  0
DICTIONARY
  5
 16
330
 13
100
AcDbDictionary
281
     1
  0
DICTIONARY
  5
 17
102
{ACAD_REACTORS
330
 13
102
}
330
 13
100
AcDbDictionary
281
     1
  0
ACDBDICTIONARYWDFLT
  5
 18
102
{ACAD_REACTORS
330
 13
102
}
330
 13
100
AcDbDictionary
281
     1
  3
Normal
350
 19
100
AcDbDictionaryWithDefault
340
 19
  0
ACDBPLACEHOLDER
  5
 19
102
{ACAD_REACTORS
330
 18
102
}
330
 18
  0
ENDSEC
  0
EOF
