  0
SECTION
  2
HEADER
  9
$ACADVER
  1
AC1015
  9
$HANDSEED
  5
2E1
  9
$LIMMIN
 10
-145.746246337891
 20
0.118285425007343
  9
$LIMMAX
 10
25.3301620483398
 20
1.06386995315552
  9
$MEASUREMENT
 70
1
  0
ENDSEC
  0
SECTION
  2
TABLES
  0
TABLE
  2
VPORT
  5
  1
100
AcDbSymbolTable
  0
ENDTAB
  0
TABLE
  2
LTYPE
  5
  2
100
AcDbSymbolTable
  0
LTYPE
  5
  3
100
AcDbSymbolTableRecord
100
AcDbLinetypeTableRecord
  2
BYBLOCK
 70
     0
  0
LTYPE
  5
  4
100
AcDbSymbolTableRecord
100
AcDbLinetypeTableRecord
  2
BYLAYER
 70
     0
  0
LTYPE
  5
20
100
AcDbSymbolTableRecord
100
AcDbLinetypeTableRecord
  2
_SOLID
  3

 70
0
 72
65
 73
2
 40
5
 49
5
 74
0
 49
0
 74
0
  0
LTYPE
  5
21
100
AcDbSymbolTableRecord
100
AcDbLinetypeTableRecord
  2
_DASH
  3

 70
0
 72
65
 73
2
 40
7
 49
5
 74
0
 49
-2
 74
0
  0
LTYPE
  5
22
100
AcDbSymbolTableRecord
100
AcDbLinetypeTableRecord
  2
_DOT
  3

 70
0
 72
65
 73
2
 40
4
 49
2
 74
0
 49
-2
 74
0
  0
LTYPE
  5
23
100
AcDbSymbolTableRecord
100
AcDbLinetypeTableRecord
  2
_DASHDOT
  3

 70
0
 72
65
 73
4
 40
11
 49
5
 74
0
 49
-2
 74
0
 49
2
 74
0
 49
-2
 74
0
  0
LTYPE
  5
24
100
AcDbSymbolTableRecord
100
AcDbLinetypeTableRecord
  2
_DASHDOTDOT
  3

 70
0
 72
65
 73
6
 40
15
 49
5
 74
0
 49
-2
 74
0
 49
2
 74
0
 49
-2
 74
0
 49
2
 74
0
 49
-2
 74
0
  0
LTYPE
  5
25
100
AcDbSymbolTableRecord
100
AcDbLinetypeTableRecord
  2
ISO128-20-02
  3

 70
0
 72
65
 73
2
 40
15
 49
12
 74
0
 49
-3
 74
0
  0
LTYPE
  5
26
100
AcDbSymbolTableRecord
100
AcDbLinetypeTableRecord
  2
ISO128-20-03
  3

 70
0
 72
65
 73
2
 40
30
 49
12
 74
0
 49
-18
 74
0
  0
LTYPE
  5
27
100
AcDbSymbolTableRecord
100
AcDbLinetypeTableRecord
  2
ISO128-20-04
  3

 70
0
 72
65
 73
4
 40
30
 49
24
 74
0
 49
-3
 74
0
 49
0
 74
0
 49
-3
 74
0
  0
LTYPE
  5
28
100
AcDbSymbolTableRecord
100
AcDbLinetypeTableRecord
  2
ISO128-20-05
  3

 70
0
 72
65
 73
6
 40
33
 49
24
 74
0
 49
-3
 74
0
 49
0
 74
0
 49
-3
 74
0
 49
0
 74
0
 49
-3
 74
0
  0
LTYPE
  5
29
100
AcDbSymbolTableRecord
100
AcDbLinetypeTableRecord
  2
ISO128-20-06
  3

 70
0
 72
65
 73
8
 40
36
 49
24
 74
0
 49
-3
 74
0
 49
0
 74
0
 49
-3
 74
0
 49
0
 74
0
 49
-3
 74
0
 49
0
 74
0
 49
-3
 74
0
  0
LTYPE
  5
2A
100
AcDbSymbolTableRecord
100
AcDbLinetypeTableRecord
  2
ISO128-20-07
  3

 70
0
 72
65
 73
2
 40
3
 49
0
 74
0
 49
-3
 74
0
  0
LTYPE
  5
2B
100
AcDbSymbolTableRecord
100
AcDbLinetypeTableRecord
  2
ISO128-20-08
  3

 70
0
 72
65
 73
4
 40
36
 49
24
 74
0
 49
-3
 74
0
 49
6
 74
0
 49
-3
 74
0
  0
LTYPE
  5
2C
100
AcDbSymbolTableRecord
100
AcDbLinetypeTableRecord
  2
ISO128-20-09
  3

 70
0
 72
65
 73
6
 40
45
 49
24
 74
0
 49
-3
 74
0
 49
6
 74
0
 49
-3
 74
0
 49
6
 74
0
 49
-3
 74
0
  0
LTYPE
  5
2D
100
AcDbSymbolTableRecord
100
AcDbLinetypeTableRecord
  2
ISO128-20-10
  3

 70
0
 72
65
 73
4
 40
18
 49
12
 74
0
 49
-3
 74
0
 49
0
 74
0
 49
-3
 74
0
  0
LTYPE
  5
2E
100
AcDbSymbolTableRecord
100
AcDbLinetypeTableRecord
  2
ISO128-20-11
  3

 70
0
 72
65
 73
6
 40
33
 49
12
 74
0
 49
-3
 74
0
 49
12
 74
0
 49
-3
 74
0
 49
0
 74
0
 49
-3
 74
0
  0
LTYPE
  5
2F
100
AcDbSymbolTableRecord
100
AcDbLinetypeTableRecord
  2
ISO128-20-12
  3

 70
0
 72
65
 73
6
 40
21
 49
12
 74
0
 49
-3
 74
0
 49
0
 74
0
 49
-3
 74
0
 49
0
 74
0
 49
-3
 74
0
  0
LTYPE
  5
30
100
AcDbSymbolTableRecord
100
AcDbLinetypeTableRecord
  2
ISO128-20-13
  3

 70
0
 72
65
 73
8
 40
36
 49
12
 74
0
 49
-3
 74
0
 49
12
 74
0
 49
-3
 74
0
 49
0
 74
0
 49
-3
 74
0
 49
0
 74
0
 49
-3
 74
0
  0
LTYPE
  5
31
100
AcDbSymbolTableRecord
100
AcDbLinetypeTableRecord
  2
ISO128-20-14
  3

 70
0
 72
65
 73
8
 40
24
 49
12
 74
0
 49
-3
 74
0
 49
0
 74
0
 49
-3
 74
0
 49
0
 74
0
 49
-3
 74
0
 49
0
 74
0
 49
-3
 74
0
  0
LTYPE
  5
32
100
AcDbSymbolTableRecord
100
AcDbLinetypeTableRecord
  2
ISO128-20-15
  3

 70
0
 72
65
 73
10
 40
39
 49
12
 74
0
 49
-3
 74
0
 49
12
 74
0
 49
-3
 74
0
 49
0
 74
0
 49
-3
 74
0
 49
0
 74
0
 49
-3
 74
0
 49
0
 74
0
 49
-3
 74
0
  0
ENDTAB
  0
TABLE
  2
LAYER
  5
 1A
330
  0
100
AcDbSymbolTable
  0
LAYER
  5
2DD
330
 1A
100
AcDbSymbolTableRecord
100
AcDbLayerTableRecord
  2
0
 70
0
 62
7
  6
Continuous
370
-3
390
 19
  0
LAYER
  5
2DE
330
 1A
100
AcDbSymbolTableRecord
100
AcDbLayerTableRecord
  2
SEMA2D
 70
0
 62
7
  6
Continuous
370
-3
390
 19
  0
LAYER
  5
2DF
330
 1A
100
AcDbSymbolTableRecord
100
AcDbLayerTableRecord
  2
SEMATEXT
 70
0
 62
7
  6
Continuous
370
-3
390
 19
  0
ENDTAB
  0
TABLE
  2
STYLE
  5
  5
100
AcDbSymbolTable
  0
STYLE
  5
  6
100
AcDbSymbolTableRecord
100
AcDbTextStyleTableRecord
  2
STANDARD
 70
     0
 40
0.0
 41
1.0
 50
0.0
 71
     0
 42
10.0
  3
txt
  4

  0
ENDTAB
  0
TABLE
  2
VIEW
  5
  7
100
AcDbSymbolTable
  0
ENDTAB
  0
TABLE
  2
UCS
  5
  8
100
AcDbSymbolTable
  0
ENDTAB
  0
TABLE
  2
APPID
  5
  9
100
AcDbSymbolTable
  0
APPID
  5
  A
100
AcDbSymbolTableRecord
100
AcDbRegAppTableRecord
  2
ACAD
 70
0
  0
ENDTAB
  0
TABLE
  2
DIMSTYLE
  5
  B
100
AcDbSymbolTable
 70
     1
100
AcDbDimStyleTable
 71
     0
  0
DIMSTYLE
105
 1B
330
B
100
AcDbSymbolTableRecord
100
AcDbDimStyleTableRecord
  2
STANDARD
 70
    0
340
  6
  0
ENDTAB
  0
TABLE
  2
BLOCK_RECORD
  5
  C
100
AcDbSymbolTable
  0
BLOCK_RECORD
  5
  D
100
AcDbSymbolTableRecord
100
AcDbBlockTableRecord
  2
*MODEL_SPACE
  0
BLOCK_RECORD
  5
  E
100
AcDbSymbolTableRecord
100
AcDbBlockTableRecord
  2
*PAPER_SPACE
  0
ENDTAB
  0
ENDSEC
  0
SECTION
  2
BLOCKS
  0
BLOCK
  5
  F
330
  D
100
AcDbEntity
  8
0
100
AcDbBlockBegin
  2
*MODEL_SPACE
 70
     0
  0
ENDBLK
  5
 10
100
AcDbEntity
  8
0
100
AcDbBlockEnd
  0
BLOCK
  5
 11
330
  E
100
AcDbEntity
  8
0
100
AcDbBlockBegin
  2
*PAPER_SPACE
 70
     0
  0
ENDBLK
  5
 12
100
AcDbEntity
  8
0
100
AcDbBlockEnd
  0
ENDSEC
  0
SECTION
  2
ENTITIES
  0
LINE
  5
33
100
AcDbEntity
  8
SEMA2D
100
AcDbLine
 62
7
  6
_SOLID
370
9
 10
0.558167219161987
 20
0.65409642457962
 11
0.608932256698608
 21
0.65409642457962
  0
LINE
  5
34
100
AcDbEntity
  8
SEMA2D
100
AcDbLine
 62
7
  6
_SOLID
370
9
 10
0.558167219161987
 20
0.65409642457962
 11
0.558167219161987
 21
0.661096394062042
  0
LINE
  5
35
100
AcDbEntity
  8
SEMA2D
100
AcDbLine
 62
7
  6
_SOLID
370
9
 10
0.558167219161987
 20
0.65409642457962
 11
0.558167219161987
 21
0.647096395492554
  0
LINE
  5
36
100
AcDbEntity
  8
SEMA2D
100
AcDbLine
 62
7
  6
_SOLID
370
9
 10
0.558167219161987
 20
0.65409642457962
 11
0.564229428768158
 21
0.657596409320831
  0
LINE
  5
37
100
AcDbEntity
  8
SEMA2D
100
AcDbLine
 62
7
  6
_SOLID
370
9
 10
0.558167219161987
 20
0.65409642457962
 11
0.552105069160461
 21
0.650596439838409
  0
LINE
  5
38
100
AcDbEntity
  8
SEMA2D
100
AcDbLine
 62
7
  6
_DOT
370
9
 10
0.558167219161987
 20
0.604096412658691
 11
0.558167219161987
 21
0.65409642457962
  0
LINE
  5
39
100
AcDbEntity
  8
SEMA2D
100
AcDbLine
 62
7
  6
_DOT
370
9
 10
0.558167219161987
 20
0.604096412658691
 11
0.558167219161987
 21
0.604096412658691
  0
MTEXT
  5
3A
100
AcDbEntity
  8
SEMATEXT
100
AcDbMText
 62
7
 10
0.571275293827057
 20
0.659084618091583
 40
0.00800000037997961
 71
7
  1
{\fArial Narrow;36}
  7
STANDARD
 73
2
  0
LINE
  5
3B
100
AcDbEntity
  8
SEMA2D
100
AcDbLine
 62
7
  6
_SOLID
370
9
 10
0.594164252281189
 20
0.65409642457962
 11
0.594164252281189
 21
0.661096394062042
  0
LINE
  5
3C
100
AcDbEntity
  8
SEMA2D
100
AcDbLine
 62
7
  6
_SOLID
370
9
 10
0.594164252281189
 20
0.65409642457962
 11
0.594164252281189
 21
0.647096395492554
  0
LINE
  5
3D
100
AcDbEntity
  8
SEMA2D
100
AcDbLine
 62
7
  6
_SOLID
370
9
 10
0.594164252281189
 20
0.65409642457962
 11
0.600226402282715
 21
0.657596409320831
  0
LINE
  5
3E
100
AcDbEntity
  8
SEMA2D
100
AcDbLine
 62
7
  6
_SOLID
370
9
 10
0.594164252281189
 20
0.65409642457962
 11
0.588102042675018
 21
0.650596439838409
  0
LINE
  5
3F
100
AcDbEntity
  8
SEMA2D
100
AcDbLine
 62
7
  6
_DOT
370
9
 10
0.594164252281189
 20
0.604096412658691
 11
0.594164252281189
 21
0.65409642457962
  0
LINE
  5
40
100
AcDbEntity
  8
SEMA2D
100
AcDbLine
 62
7
  6
_DOT
370
9
 10
0.594164252281189
 20
0.604096412658691
 11
0.594164252281189
 21
0.604096412658691
  0
MTEXT
  5
41
100
AcDbEntity
  8
SEMATEXT
100
AcDbMText
 62
7
 10
0.596657812595367
 20
0.659084618091583
 40
0.00800000037997961
 71
7
  1
{\fArial Narrow;15}
  7
STANDARD
 73
2
  0
LINE
  5
42
100
AcDbEntity
  8
SEMA2D
100
AcDbLine
 62
7
  6
_SOLID
370
9
 10
0.608932256698608
 20
0.65409642457962
 11
0.608932256698608
 21
0.661096394062042
  0
LINE
  5
43
100
AcDbEntity
  8
SEMA2D
100
AcDbLine
 62
7
  6
_SOLID
370
9
 10
0.608932256698608
 20
0.65409642457962
 11
0.608932256698608
 21
0.647096395492554
  0
LINE
  5
44
100
AcDbEntity
  8
SEMA2D
100
AcDbLine
 62
7
  6
_SOLID
370
9
 10
0.608932256698608
 20
0.65409642457962
 11
0.614994406700134
 21
0.657596409320831
  0
LINE
  5
45
100
AcDbEntity
  8
SEMA2D
100
AcDbLine
 62
7
  6
_SOLID
370
9
 10
0.608932256698608
 20
0.65409642457962
 11
0.602870047092438
 21
0.650596439838409
  0
LINE
  5
46
100
AcDbEntity
  8
SEMA2D
100
AcDbLine
 62
7
  6
_DOT
370
9
 10
0.608932256698608
 20
0.604096412658691
 11
0.608932256698608
 21
0.65409642457962
  0
LINE
  5
47
100
AcDbEntity
  8
SEMA2D
100
AcDbLine
 62
7
  6
_DOT
370
9
 10
0.608932256698608
 20
0.65409642457962
 11
0.608932256698608
 21
0.604096412658691
  0
LINE
  5
48
100
AcDbEntity
  8
SEMA2D
100
AcDbLine
 62
7
  6
_SOLID
370
9
 10
0.747578144073486
 20
0.65409642457962
 11
0.896181106567383
 21
0.65409642457962
  0
LINE
  5
49
100
AcDbEntity
  8
SEMA2D
100
AcDbLine
 62
7
  6
_SOLID
370
9
 10
0.747578144073486
 20
0.65409642457962
 11
0.747578144073486
 21
0.661096394062042
  0
LINE
  5
4A
100
AcDbEntity
  8
SEMA2D
100
AcDbLine
 62
7
  6
_SOLID
370
9
 10
0.747578144073486
 20
0.65409642457962
 11
0.747578144073486
 21
0.647096395492554
  0
LINE
  5
4B
100
AcDbEntity
  8
SEMA2D
100
AcDbLine
 62
7
  6
_SOLID
370
9
 10
0.747578144073486
 20
0.65409642457962
 11
0.753640294075012
 21
0.657596409320831
  0
LINE
  5
4C
100
AcDbEntity
  8
SEMA2D
100
AcDbLine
 62
7
  6
_SOLID
370
9
 10
0.747578144073486
 20
0.65409642457962
 11
0.741515934467316
 21
0.650596439838409
  0
LINE
  5
4D
100
AcDbEntity
  8
SEMA2D
100
AcDbLine
 62
7
  6
_DOT
370
9
 10
0.747578144073486
 20
0.604096412658691
 11
0.747578144073486
 21
0.65409642457962
  0
LINE
  5
4E
100
AcDbEntity
  8
SEMA2D
100
AcDbLine
 62
7
  6
_DOT
370
9
 10
0.747578144073486
 20
0.604096412658691
 11
0.747578144073486
 21
0.604096412658691
  0
MTEXT
  5
4F
100
AcDbEntity
  8
SEMATEXT
100
AcDbMText
 62
7
 10
0.814544022083282
 20
0.659084618091583
 40
0.00800000037997961
 71
7
  1
{\fArial Narrow;149}
  7
STANDARD
 73
2
  0
LINE
  5
50
100
AcDbEntity
  8
SEMA2D
100
AcDbLine
 62
7
  6
_SOLID
370
9
 10
0.896181106567383
 20
0.65409642457962
 11
0.896181106567383
 21
0.661096394062042
  0
LINE
  5
51
100
AcDbEntity
  8
SEMA2D
100
AcDbLine
 62
7
  6
_SOLID
370
9
 10
0.896181106567383
 20
0.65409642457962
 11
0.896181106567383
 21
0.647096395492554
  0
LINE
  5
52
100
AcDbEntity
  8
SEMA2D
100
AcDbLine
 62
7
  6
_SOLID
370
9
 10
0.896181106567383
 20
0.65409642457962
 11
0.902243316173553
 21
0.657596409320831
  0
LINE
  5
53
100
AcDbEntity
  8
SEMA2D
100
AcDbLine
 62
7
  6
_SOLID
370
9
 10
0.896181106567383
 20
0.65409642457962
 11
0.890118956565857
 21
0.650596439838409
  0
LINE
  5
54
100
AcDbEntity
  8
SEMA2D
100
AcDbLine
 62
7
  6
_DOT
370
9
 10
0.896181106567383
 20
0.604096412658691
 11
0.896181106567383
 21
0.65409642457962
  0
LINE
  5
55
100
AcDbEntity
  8
SEMA2D
100
AcDbLine
 62
7
  6
_DOT
370
9
 10
0.896181106567383
 20
0.604096412658691
 11
0.896181106567383
 21
0.604096412658691
  0
LINE
  5
56
100
AcDbEntity
  8
SEMA2D
100
AcDbLine
 62
7
  6
_SOLID
370
9
 10
0.945954740047455
 20
0.175285428762436
 11
0.945954740047455
 21
0.604096412658691
  0
LINE
  5
57
100
AcDbEntity
  8
SEMA2D
100
AcDbLine
 62
7
  6
_SOLID
370
9
 10
0.945954740047455
 20
0.175285428762436
 11
0.938954710960388
 21
0.175285428762436
  0
LINE
  5
58
100
AcDbEntity
  8
SEMA2D
100
AcDbLine
 62
7
  6
_SOLID
370
9
 10
0.945954740047455
 20
0.175285428762436
 11
0.952954709529877
 21
0.175285428762436
  0
LINE
  5
59
100
AcDbEntity
  8
SEMA2D
100
AcDbLine
 62
7
  6
_SOLID
370
9
 10
0.945954740047455
 20
0.175285428762436
 11
0.942454695701599
 21
0.181347593665123
  0
LINE
  5
5A
100
AcDbEntity
  8
SEMA2D
100
AcDbLine
 62
7
  6
_SOLID
370
9
 10
0.945954740047455
 20
0.175285428762436
 11
0.949454724788666
 21
0.169223248958588
  0
LINE
  5
5B
100
AcDbEntity
  8
SEMA2D
100
AcDbLine
 62
7
  6
_DOT
370
9
 10
0.895954728126526
 20
0.175285428762436
 11
0.945954740047455
 21
0.175285428762436
  0
LINE
  5
5C
100
AcDbEntity
  8
SEMA2D
100
AcDbLine
 62
7
  6
_DOT
370
9
 10
0.895954728126526
 20
0.175285428762436
 11
0.895954728126526
 21
0.175285428762436
  0
MTEXT
  5
5D
100
AcDbEntity
  8
SEMATEXT
100
AcDbMText
 62
7
 10
0.940966486930847
 20
0.381132692098618
 40
0.00800000037997961
 50
90
 71
7
  1
{\fArial Narrow;429}
  7
STANDARD
 73
2
  0
LINE
  5
5E
100
AcDbEntity
  8
SEMA2D
100
AcDbLine
 62
7
  6
_SOLID
370
9
 10
0.945954740047455
 20
0.604096412658691
 11
0.938954710960388
 21
0.604096412658691
  0
LINE
  5
5F
100
AcDbEntity
  8
SEMA2D
100
AcDbLine
 62
7
  6
_SOLID
370
9
 10
0.945954740047455
 20
0.604096412658691
 11
0.952954709529877
 21
0.604096412658691
  0
LINE
  5
60
100
AcDbEntity
  8
SEMA2D
100
AcDbLine
 62
7
  6
_SOLID
370
9
 10
0.945954740047455
 20
0.604096412658691
 11
0.942454695701599
 21
0.610158622264862
  0
LINE
  5
61
100
AcDbEntity
  8
SEMA2D
100
AcDbLine
 62
7
  6
_SOLID
370
9
 10
0.945954740047455
 20
0.604096412658691
 11
0.949454724788666
 21
0.598034262657166
  0
LINE
  5
62
100
AcDbEntity
  8
SEMA2D
100
AcDbLine
 62
7
  6
_DOT
370
9
 10
0.895954728126526
 20
0.604096412658691
 11
0.945954740047455
 21
0.604096412658691
  0
LINE
  5
63
100
AcDbEntity
  8
SEMA2D
100
AcDbLine
 62
7
  6
_DOT
370
9
 10
0.895954728126526
 20
0.604096412658691
 11
0.895954728126526
 21
0.604096412658691
  0
LINE
  5
64
100
AcDbEntity
  8
SEMA2D
100
AcDbLine
 62
7
  6
_SOLID
370
9
 10
0.558167219161987
 20
0.125285416841507
 11
0.60939371585846
 21
0.125285416841507
  0
LINE
  5
65
100
AcDbEntity
  8
SEMA2D
100
AcDbLine
 62
7
  6
_SOLID
370
9
 10
0.558167219161987
 20
0.125285416841507
 11
0.558167219161987
 21
0.132285416126251
  0
LINE
  5
66
100
AcDbEntity
  8
SEMA2D
100
AcDbLine
 62
7
  6
_SOLID
370
9
 10
0.558167219161987
 20
0.125285416841507
 11
0.558167219161987
 21
0.118285425007343
  0
LINE
  5
67
100
AcDbEntity
  8
SEMA2D
100
AcDbLine
 62
7
  6
_SOLID
370
9
 10
0.558167219161987
 20
0.125285416841507
 11
0.564229428768158
 21
0.128785416483879
  0
LINE
  5
68
100
AcDbEntity
  8
SEMA2D
100
AcDbLine
 62
7
  6
_SOLID
370
9
 10
0.558167219161987
 20
0.125285416841507
 11
0.552105069160461
 21
0.121785424649715
  0
LINE
  5
69
100
AcDbEntity
  8
SEMA2D
100
AcDbLine
 62
7
  6
_DOT
370
9
 10
0.558167219161987
 20
0.175285428762436
 11
0.558167219161987
 21
0.125285416841507
  0
LINE
  5
6A
100
AcDbEntity
  8
SEMA2D
100
AcDbLine
 62
7
  6
_DOT
370
9
 10
0.558167219161987
 20
0.175285428762436
 11
0.558167219161987
 21
0.175285428762436
  0
MTEXT
  5
6B
100
AcDbEntity
  8
SEMATEXT
100
AcDbMText
 62
7
 10
0.578890085220337
 20
0.130273640155792
 40
0.00800000037997961
 71
7
  1
{\fArial Narrow;51}
  7
STANDARD
 73
2
  0
LINE
  5
6C
100
AcDbEntity
  8
SEMA2D
100
AcDbLine
 62
7
  6
_SOLID
370
9
 10
0.60939371585846
 20
0.125285416841507
 11
0.60939371585846
 21
0.132285416126251
  0
LINE
  5
6D
100
AcDbEntity
  8
SEMA2D
100
AcDbLine
 62
7
  6
_SOLID
370
9
 10
0.60939371585846
 20
0.125285416841507
 11
0.60939371585846
 21
0.118285425007343
  0
LINE
  5
6E
100
AcDbEntity
  8
SEMA2D
100
AcDbLine
 62
7
  6
_SOLID
370
9
 10
0.60939371585846
 20
0.125285416841507
 11
0.61545592546463
 21
0.128785416483879
  0
LINE
  5
6F
100
AcDbEntity
  8
SEMA2D
100
AcDbLine
 62
7
  6
_SOLID
370
9
 10
0.60939371585846
 20
0.125285416841507
 11
0.603331565856934
 21
0.121785424649715
  0
LINE
  5
70
100
AcDbEntity
  8
SEMA2D
100
AcDbLine
 62
7
  6
_DOT
370
9
 10
0.60939371585846
 20
0.175285428762436
 11
0.60939371585846
 21
0.125285416841507
  0
LINE
  5
71
100
AcDbEntity
  8
SEMA2D
100
AcDbLine
 62
7
  6
_DOT
370
9
 10
0.60939371585846
 20
0.175285428762436
 11
0.60939371585846
 21
0.175285428762436
  0
LINE
  5
72
100
AcDbEntity
  8
SEMA2D
100
AcDbLine
 62
7
  6
_SOLID
370
9
 10
0.791646540164947
 20
0.887698292732239
 11
0.896181106567383
 21
0.887698292732239
  0
LINE
  5
73
100
AcDbEntity
  8
SEMA2D
100
AcDbLine
 62
7
  6
_SOLID
370
9
 10
0.791646540164947
 20
0.887698292732239
 11
0.791646540164947
 21
0.894698262214661
  0
LINE
  5
74
100
AcDbEntity
  8
SEMA2D
100
AcDbLine
 62
7
  6
_SOLID
370
9
 10
0.791646540164947
 20
0.887698292732239
 11
0.791646540164947
 21
0.880698263645172
  0
LINE
  5
75
100
AcDbEntity
  8
SEMA2D
100
AcDbLine
 62
7
  6
_SOLID
370
9
 10
0.791646540164947
 20
0.887698292732239
 11
0.797708749771118
 21
0.89119827747345
  0
LINE
  5
76
100
AcDbEntity
  8
SEMA2D
100
AcDbLine
 62
7
  6
_SOLID
370
9
 10
0.791646540164947
 20
0.887698292732239
 11
0.785584390163422
 21
0.884198248386383
  0
LINE
  5
77
100
AcDbEntity
  8
SEMA2D
100
AcDbLine
 62
7
  6
_DOT
370
9
 10
0.791646540164947
 20
0.824698269367218
 11
0.791646540164947
 21
0.887698292732239
  0
LINE
  5
78
100
AcDbEntity
  8
SEMA2D
100
AcDbLine
 62
7
  6
_DOT
370
9
 10
0.791646540164947
 20
0.824698269367218
 11
0.791646540164947
 21
0.824698269367218
  0
MTEXT
  5
79
100
AcDbEntity
  8
SEMATEXT
100
AcDbMText
 62
7
 10
0.836578249931335
 20
0.892686486244202
 40
0.00800000037997961
 71
7
  1
{\fArial Narrow;105}
  7
STANDARD
 73
2
  0
LINE
  5
7A
100
AcDbEntity
  8
SEMA2D
100
AcDbLine
 62
7
  6
_SOLID
370
9
 10
0.896181106567383
 20
0.887698292732239
 11
0.896181106567383
 21
0.894698262214661
  0
LINE
  5
7B
100
AcDbEntity
  8
SEMA2D
100
AcDbLine
 62
7
  6
_SOLID
370
9
 10
0.896181106567383
 20
0.887698292732239
 11
0.896181106567383
 21
0.880698263645172
  0
LINE
  5
7C
100
AcDbEntity
  8
SEMA2D
100
AcDbLine
 62
7
  6
_SOLID
370
9
 10
0.896181106567383
 20
0.887698292732239
 11
0.902243316173553
 21
0.89119827747345
  0
LINE
  5
7D
100
AcDbEntity
  8
SEMA2D
100
AcDbLine
 62
7
  6
_SOLID
370
9
 10
0.896181106567383
 20
0.887698292732239
 11
0.890118956565857
 21
0.884198248386383
  0
LINE
  5
7E
100
AcDbEntity
  8
SEMA2D
100
AcDbLine
 62
7
  6
_DOT
370
9
 10
0.896181106567383
 20
0.824698269367218
 11
0.896181106567383
 21
0.887698292732239
  0
LINE
  5
7F
100
AcDbEntity
  8
SEMA2D
100
AcDbLine
 62
7
  6
_DOT
370
9
 10
0.896181106567383
 20
0.824698269367218
 11
0.896181106567383
 21
0.824698269367218
  0
LINE
  5
80
100
AcDbEntity
  8
SEMA2D
100
AcDbLine
 62
7
  6
_SOLID
370
9
 10
0.588235437870026
 20
0.602426826953888
 11
0.586780250072479
 21
0.602711915969849
  0
LINE
  5
81
100
AcDbEntity
  8
SEMA2D
100
AcDbLine
 62
7
  6
_SOLID
370
9
 10
0.592575132846832
 20
0.601897478103638
 11
0.586780250072479
 21
0.602711915969849
  0
LINE
  5
82
100
AcDbEntity
  8
SEMA2D
100
AcDbLine
 62
7
  6
_SOLID
370
9
 10
0.593241214752197
 20
0.600069463253021
 11
0.590933740139008
 21
0.600393772125244
  0
LINE
  5
83
100
AcDbEntity
  8
SEMA2D
100
AcDbLine
 62
7
  6
_SOLID
370
9
 10
0.561703860759735
 20
0.592476069927216
 11
0.554091393947601
 21
0.594094097614288
  0
LINE
  5
84
100
AcDbEntity
  8
SEMA2D
100
AcDbLine
 62
7
  6
_SOLID
370
9
 10
0.561767101287842
 20
0.594281733036041
 11
0.559692680835724
 21
0.594722628593445
  0
LINE
  5
85
100
AcDbEntity
  8
SEMA2D
100
AcDbLine
 62
7
  6
_SOLID
370
9
 10
0.55762654542923
 20
0.594952523708344
 11
0.55722564458847
 21
0.595037698745727
  0
LINE
  5
86
100
AcDbEntity
  8
SEMA2D
100
AcDbLine
 62
7
  6
_SOLID
370
9
 10
0.588421642780304
 20
0.600146293640137
 11
0.570166230201721
 21
0.602711915969849
  0
LINE
  5
87
100
AcDbEntity
  8
SEMA2D
100
AcDbLine
 62
7
  6
_SOLID
370
9
 10
0.556704878807068
 20
0.593976557254791
 11
0.554282248020172
 21
0.594231188297272
  0
LINE
  5
88
100
AcDbEntity
  8
SEMA2D
100
AcDbLine
 62
7
  6
_SOLID
370
9
 10
0.586780250072479
 20
0.604096412658691
 11
0.566474199295044
 21
0.604096412658691
  0
LINE
  5
89
100
AcDbEntity
  8
SEMA2D
100
AcDbLine
 62
7
  6
_SOLID
370
9
 10
0.586780250072479
 20
0.602711915969849
 11
0.570166230201721
 21
0.602711915969849
  0
LINE
  5
8A
100
AcDbEntity
  8
SEMA2D
100
AcDbLine
 62
7
  6
_SOLID
370
9
 10
0.55559253692627
 20
0.595812439918518
 11
0.553169906139374
 21
0.596067070960999
  0
LINE
  5
8B
100
AcDbEntity
  8
SEMA2D
100
AcDbLine
 62
7
  6
_SOLID
370
9
 10
0.588421642780304
 20
0.59831827878952
 11
0.576370298862457
 21
0.600011944770813
  0
LINE
  5
8C
100
AcDbEntity
  8
SEMA2D
100
AcDbLine
 62
7
  6
_SOLID
370
9
 10
0.570166230201721
 20
0.602711915969849
 11
0.588209331035614
 21
0.600433468818665
  0
LINE
  5
8D
100
AcDbEntity
  8
SEMA2D
100
AcDbLine
 62
7
  6
_SOLID
370
9
 10
0.596353352069855
 20
0.588904798030853
 11
0.608248114585876
 21
0.585717678070068
  0
LINE
  5
8E
100
AcDbEntity
  8
SEMA2D
100
AcDbLine
 62
7
  6
_SOLID
370
9
 10
0.609171092510223
 20
0.588144958019257
 11
0.591378927230835
 21
0.592912375926971
  0
LINE
  5
8F
100
AcDbEntity
  8
SEMA2D
100
AcDbLine
 62
7
  6
_SOLID
370
9
 10
0.592654585838318
 20
0.59082043170929
 11
0.588421642780304
 21
0.591954648494721
  0
LINE
  5
90
100
AcDbEntity
  8
SEMA2D
100
AcDbLine
 62
7
  6
_SOLID
370
9
 10
0.608932256698608
 20
0.585980117321014
 11
0.609171092510223
 21
0.585916101932526
  0
LINE
  5
91
100
AcDbEntity
  8
SEMA2D
100
AcDbLine
 62
7
  6
_SOLID
370
9
 10
0.593241214752197
 20
0.594077169895172
 11
0.590933740139008
 21
0.594695508480072
  0
LINE
  5
92
100
AcDbEntity
  8
SEMA2D
100
AcDbLine
 62
7
  6
_SOLID
370
9
 10
0.574781239032745
 20
0.600269258022308
 11
0.573271572589874
 21
0.600269258022308
  0
LINE
  5
93
100
AcDbEntity
  8
SEMA2D
100
AcDbLine
 62
7
  6
_SOLID
370
9
 10
0.592654585838318
 20
0.571738123893738
 11
0.594754159450531
 21
0.571175575256348
  0
LINE
  5
94
100
AcDbEntity
  8
SEMA2D
100
AcDbLine
 62
7
  6
_SOLID
370
9
 10
0.566474199295044
 20
0.583328902721405
 11
0.566153645515442
 21
0.583272397518158
  0
LINE
  5
95
100
AcDbEntity
  8
SEMA2D
100
AcDbLine
 62
7
  6
_SOLID
370
9
 10
0.596353352069855
 20
0.580129146575928
 11
0.594164252281189
 21
0.580129146575928
  0
LINE
  5
96
100
AcDbEntity
  8
SEMA2D
100
AcDbLine
 62
7
  6
_SOLID
370
9
 10
0.554218292236328
 20
0.601912438869476
 11
0.566474199295044
 21
0.603634893894196
  0
LINE
  5
97
100
AcDbEntity
  8
SEMA2D
100
AcDbLine
 62
7
  6
_SOLID
370
9
 10
0.553169906139374
 20
0.60008442401886
 11
0.55762654542923
 21
0.60071074962616
  0
LINE
  5
98
100
AcDbEntity
  8
SEMA2D
100
AcDbLine
 62
7
  6
_SOLID
370
9
 10
0.609171092510223
 20
0.585029006004333
 11
0.608932256698608
 21
0.584964990615845
  0
LINE
  5
99
100
AcDbEntity
  8
SEMA2D
100
AcDbLine
 62
7
  6
_SOLID
370
9
 10
0.608248114585876
 20
0.583316326141357
 11
0.596353352069855
 21
0.580129146575928
  0
LINE
  5
9A
100
AcDbEntity
  8
SEMA2D
100
AcDbLine
 62
7
  6
_SOLID
370
9
 10
0.609171092510223
 20
0.582800149917603
 11
0.608932256698608
 21
0.582736134529114
  0
LINE
  5
9B
100
AcDbEntity
  8
SEMA2D
100
AcDbLine
 62
7
  6
_SOLID
370
9
 10
0.557548940181732
 20
0.570089817047119
 11
0.554632008075714
 21
0.569575488567352
  0
LINE
  5
9C
100
AcDbEntity
  8
SEMA2D
100
AcDbLine
 62
7
  6
_SOLID
370
9
 10
0.578204393386841
 20
0.58127623796463
 11
0.570166230201721
 21
0.582405924797058
  0
LINE
  5
9D
100
AcDbEntity
  8
SEMA2D
100
AcDbLine
 62
7
  6
_SOLID
370
9
 10
0.595548748970032
 20
0.571175575256348
 11
0.594754159450531
 21
0.571175575256348
  0
LINE
  5
9E
100
AcDbEntity
  8
SEMA2D
100
AcDbLine
 62
7
  6
_SOLID
370
9
 10
0.555539190769196
 20
0.571328043937683
 11
0.561577320098877
 21
0.572392702102661
  0
LINE
  5
9F
100
AcDbEntity
  8
SEMA2D
100
AcDbLine
 62
7
  6
_SOLID
370
9
 10
0.608248114585876
 20
0.583316326141357
 11
0.608932256698608
 21
0.583316326141357
  0
LINE
  5
A0
100
AcDbEntity
  8
SEMA2D
100
AcDbLine
 62
7
  6
_SOLID
370
9
 10
0.553169906139374
 20
0.596067070960999
 11
0.552629232406616
 21
0.596067070960999
  0
LINE
  5
A1
100
AcDbEntity
  8
SEMA2D
100
AcDbLine
 62
7
  6
_SOLID
370
9
 10
0.590010702610016
 20
0.594695508480072
 11
0.590933740139008
 21
0.594695508480072
  0
LINE
  5
A2
100
AcDbEntity
  8
SEMA2D
100
AcDbLine
 62
7
  6
_SOLID
370
9
 10
0.594164252281189
 20
0.594077169895172
 11
0.593241214752197
 21
0.594077169895172
  0
LINE
  5
A3
100
AcDbEntity
  8
SEMA2D
100
AcDbLine
 62
7
  6
_SOLID
370
9
 10
0.590010702610016
 20
0.59831827878952
 11
0.588421642780304
 21
0.59831827878952
  0
LINE
  5
A4
100
AcDbEntity
  8
SEMA2D
100
AcDbLine
 62
7
  6
_SOLID
370
9
 10
0.552629232406616
 20
0.60008442401886
 11
0.553169906139374
 21
0.60008442401886
  0
LINE
  5
A5
100
AcDbEntity
  8
SEMA2D
100
AcDbLine
 62
7
  6
_SOLID
370
9
 10
0.594164252281189
 20
0.600069463253021
 11
0.593241214752197
 21
0.600069463253021
  0
LINE
  5
A6
100
AcDbEntity
  8
SEMA2D
100
AcDbLine
 62
7
  6
_SOLID
370
9
 10
0.576370298862457
 20
0.600011944770813
 11
0.574781239032745
 21
0.600011944770813
  0
LINE
  5
A7
100
AcDbEntity
  8
SEMA2D
100
AcDbLine
 62
7
  6
_SOLID
370
9
 10
0.594164252281189
 20
0.59082043170929
 11
0.592654585838318
 21
0.59082043170929
  0
LINE
  5
A8
100
AcDbEntity
  8
SEMA2D
100
AcDbLine
 62
7
  6
_SOLID
370
9
 10
0.608248114585876
 20
0.585717678070068
 11
0.608932256698608
 21
0.585717678070068
  0
LINE
  5
A9
100
AcDbEntity
  8
SEMA2D
100
AcDbLine
 62
7
  6
_SOLID
370
9
 10
0.609171092510223
 20
0.585029006004333
 11
0.609855234622955
 21
0.585029006004333
  0
LINE
  5
AA
100
AcDbEntity
  8
SEMA2D
100
AcDbLine
 62
7
  6
_SOLID
370
9
 10
0.566474199295044
 20
0.583790421485901
 11
0.570166230201721
 21
0.583790421485901
  0
LINE
  5
AB
100
AcDbEntity
  8
SEMA2D
100
AcDbLine
 62
7
  6
_SOLID
370
9
 10
0.609171092510223
 20
0.585916101932526
 11
0.609855234622955
 21
0.585916101932526
  0
LINE
  5
AC
100
AcDbEntity
  8
SEMA2D
100
AcDbLine
 62
7
  6
_SOLID
370
9
 10
0.596353352069855
 20
0.588904857635498
 11
0.594164252281189
 21
0.588904857635498
  0
LINE
  5
AD
100
AcDbEntity
  8
SEMA2D
100
AcDbLine
 62
7
  6
_SOLID
370
9
 10
0.56462824344635
 20
0.588864743709564
 11
0.566153645515442
 21
0.588864743709564
  0
LINE
  5
AE
100
AcDbEntity
  8
SEMA2D
100
AcDbLine
 62
7
  6
_SOLID
370
9
 10
0.56462824344635
 20
0.587020933628082
 11
0.574781239032745
 21
0.587020933628082
  0
LINE
  5
AF
100
AcDbEntity
  8
SEMA2D
100
AcDbLine
 62
7
  6
_SOLID
370
9
 10
0.608248114585876
 20
0.580641686916351
 11
0.596276521682739
 21
0.577433943748474
  0
LINE
  5
B0
100
AcDbEntity
  8
SEMA2D
100
AcDbLine
 62
7
  6
_SOLID
370
9
 10
0.590472221374512
 20
0.175746917724609
 11
0.589680671691895
 21
0.176479324698448
  0
LINE
  5
B1
100
AcDbEntity
  8
SEMA2D
100
AcDbLine
 62
7
  6
_SOLID
370
9
 10
0.592779755592346
 20
0.27191036939621
 11
0.591270089149475
 21
0.27191036939621
  0
LINE
  5
B2
100
AcDbEntity
  8
SEMA2D
100
AcDbLine
 62
7
  6
_SOLID
370
9
 10
0.594164252281189
 20
0.269028306007385
 11
0.592654585838318
 21
0.269028306007385
  0
LINE
  5
B3
100
AcDbEntity
  8
SEMA2D
100
AcDbLine
 62
7
  6
_SOLID
370
9
 10
0.595944404602051
 20
0.177768617868423
 11
0.580084323883057
 21
0.187899813055992
  0
LINE
  5
B4
100
AcDbEntity
  8
SEMA2D
100
AcDbLine
 62
7
  6
_SOLID
370
9
 10
0.594356894493103
 20
0.208927020430565
 11
0.592654585838318
 21
0.209383144974709
  0
LINE
  5
B5
100
AcDbEntity
  8
SEMA2D
100
AcDbLine
 62
7
  6
_SOLID
370
9
 10
0.557548940181732
 20
0.567950427532196
 11
0.557548940181732
 21
0.570089817047119
  0
LINE
  5
B6
100
AcDbEntity
  8
SEMA2D
100
AcDbLine
 62
7
  6
_SOLID
370
9
 10
0.554632008075714
 20
0.568469345569611
 11
0.554632008075714
 21
0.569575488567352
  0
LINE
  5
B7
100
AcDbEntity
  8
SEMA2D
100
AcDbLine
 62
7
  6
_SOLID
370
9
 10
0.554013729095459
 20
0.568534791469574
 11
0.554013729095459
 21
0.569510042667389
  0
LINE
  5
B8
100
AcDbEntity
  8
SEMA2D
100
AcDbLine
 62
7
  6
_SOLID
370
9
 10
0.55762654542923
 20
0.594952523708344
 11
0.55762654542923
 21
0.60071074962616
  0
LINE
  5
B9
100
AcDbEntity
  8
SEMA2D
100
AcDbLine
 62
7
  6
_SOLID
370
9
 10
0.559629440307617
 20
0.201579883694649
 11
0.559629440307617
 21
0.570245623588562
  0
LINE
  5
BA
100
AcDbEntity
  8
SEMA2D
100
AcDbLine
 62
7
  6
_SOLID
370
9
 10
0.558167219161987
 20
0.594722628593445
 11
0.558167219161987
 21
0.600862741470337
  0
LINE
  5
BB
100
AcDbEntity
  8
SEMA2D
100
AcDbLine
 62
7
  6
_SOLID
370
9
 10
0.558167219161987
 20
0.201579883694649
 11
0.558167219161987
 21
0.570242464542389
  0
LINE
  5
BC
100
AcDbEntity
  8
SEMA2D
100
AcDbLine
 62
7
  6
_SOLID
370
9
 10
0.553169906139374
 20
0.596067070960999
 11
0.553169906139374
 21
0.60008442401886
  0
LINE
  5
BD
100
AcDbEntity
  8
SEMA2D
100
AcDbLine
 62
7
  6
_SOLID
370
9
 10
0.608427047729492
 20
0.18528701364994
 11
0.60732638835907
 21
0.186598733067513
  0
LINE
  5
BE
100
AcDbEntity
  8
SEMA2D
100
AcDbLine
 62
7
  6
_SOLID
370
9
 10
0.594164252281189
 20
0.286603540182114
 11
0.592654585838318
 21
0.286603540182114
  0
LINE
  5
BF
100
AcDbEntity
  8
SEMA2D
100
AcDbLine
 62
7
  6
_SOLID
370
9
 10
0.592779755592346
 20
0.283721476793289
 11
0.591270089149475
 21
0.283721476793289
  0
LINE
  5
C0
100
AcDbEntity
  8
SEMA2D
100
AcDbLine
 62
7
  6
_SOLID
370
9
 10
0.608745932579041
 20
0.185287475585938
 11
0.607644140720367
 21
0.186600476503372
  0
LINE
  5
C1
100
AcDbEntity
  8
SEMA2D
100
AcDbLine
 62
7
  6
_SOLID
370
9
 10
0.552629232406616
 20
0.595899701118469
 11
0.552629232406616
 21
0.60008442401886
  0
LINE
  5
C2
100
AcDbEntity
  8
SEMA2D
100
AcDbLine
 62
7
  6
_SOLID
370
9
 10
0.599813044071198
 20
0.187266975641251
 11
0.599662601947784
 21
0.18732251226902
  0
LINE
  5
C3
100
AcDbEntity
  8
SEMA2D
100
AcDbLine
 62
7
  6
_SOLID
370
9
 10
0.599662601947784
 20
0.18732251226902
 11
0.599495887756348
 21
0.187372848391533
  0
LINE
  5
C4
100
AcDbEntity
  8
SEMA2D
100
AcDbLine
 62
7
  6
_SOLID
370
9
 10
0.583088219165802
 20
0.175285428762436
 11
0.594164252281189
 21
0.175285428762436
  0
LINE
  5
C5
100
AcDbEntity
  8
SEMA2D
100
AcDbLine
 62
7
  6
_SOLID
370
9
 10
0.608427047729492
 20
0.18528701364994
 11
0.608745932579041
 21
0.185287475585938
  0
LINE
  5
C6
100
AcDbEntity
  8
SEMA2D
100
AcDbLine
 62
7
  6
_SOLID
370
9
 10
0.60732638835907
 20
0.186598733067513
 11
0.607644140720367
 21
0.186600476503372
  0
LINE
  5
C7
100
AcDbEntity
  8
SEMA2D
100
AcDbLine
 62
7
  6
_SOLID
370
9
 10
0.583088219165802
 20
0.175746917724609
 11
0.590472221374512
 21
0.175746917724609
  0
LINE
  5
C8
100
AcDbEntity
  8
SEMA2D
100
AcDbLine
 62
7
  6
_SOLID
370
9
 10
0.59002810716629
 20
0.17677541077137
 11
0.578323006629944
 21
0.178839325904846
  0
LINE
  5
C9
100
AcDbEntity
  8
SEMA2D
100
AcDbLine
 62
7
  6
_SOLID
370
9
 10
0.590472221374512
 20
0.175746917724609
 11
0.577998042106628
 21
0.177946463227272
  0
LINE
  5
CA
100
AcDbEntity
  8
SEMA2D
100
AcDbLine
 62
7
  6
_SOLID
370
9
 10
0.609072268009186
 20
0.183508887887001
 11
0.60939371585846
 21
0.183507591485977
  0
LINE
  5
CB
100
AcDbEntity
  8
SEMA2D
100
AcDbLine
 62
7
  6
_SOLID
370
9
 10
0.594164252281189
 20
0.176669925451279
 11
0.607868254184723
 21
0.179086312651634
  0
LINE
  5
CC
100
AcDbEntity
  8
SEMA2D
100
AcDbLine
 62
7
  6
_SOLID
370
9
 10
0.570166230201721
 20
0.186327487230301
 11
0.594164252281189
 21
0.177592918276787
  0
LINE
  5
CD
100
AcDbEntity
  8
SEMA2D
100
AcDbLine
 62
7
  6
_SOLID
370
9
 10
0.570166230201721
 20
0.185763373970985
 11
0.594164252281189
 21
0.177028819918633
  0
LINE
  5
CE
100
AcDbEntity
  8
SEMA2D
100
AcDbLine
 62
7
  6
_SOLID
370
9
 10
0.590472221374512
 20
0.176784187555313
 11
0.566474199295044
 21
0.185518756508827
  0
LINE
  5
CF
100
AcDbEntity
  8
SEMA2D
100
AcDbLine
 62
7
  6
_SOLID
370
9
 10
0.599501013755798
 20
0.187371522188187
 11
0.58281683921814
 21
0.19184198975563
  0
LINE
  5
D0
100
AcDbEntity
  8
SEMA2D
100
AcDbLine
 62
7
  6
_SOLID
370
9
 10
0.594356894493103
 20
0.208927020430565
 11
0.595548748970032
 21
0.208927020430565
  0
LINE
  5
D1
100
AcDbEntity
  8
SEMA2D
100
AcDbLine
 62
7
  6
_SOLID
370
9
 10
0.57802802324295
 20
0.203436926007271
 11
0.570166230201721
 21
0.203436926007271
  0
LINE
  5
D2
100
AcDbEntity
  8
SEMA2D
100
AcDbLine
 62
7
  6
_SOLID
370
9
 10
0.570166230201721
 20
0.187647223472595
 11
0.566474199295044
 21
0.187647223472595
  0
LINE
  5
D3
100
AcDbEntity
  8
SEMA2D
100
AcDbLine
 62
7
  6
_SOLID
370
9
 10
0.559629440307617
 20
0.201579883694649
 11
0.566474199295044
 21
0.201579883694649
  0
LINE
  5
D4
100
AcDbEntity
  8
SEMA2D
100
AcDbLine
 62
7
  6
_SOLID
370
9
 10
0.605771481990814
 20
0.187793493270874
 11
0.595548748970032
 21
0.190532684326172
  0
LINE
  5
D5
100
AcDbEntity
  8
SEMA2D
100
AcDbLine
 62
7
  6
_SOLID
370
9
 10
0.594356894493103
 20
0.190592110157013
 11
0.579761445522308
 21
0.194502949714661
  0
LINE
  5
D6
100
AcDbEntity
  8
SEMA2D
100
AcDbLine
 62
7
  6
_SOLID
370
9
 10
0.559692680835724
 20
0.594722628593445
 11
0.559692680835724
 21
0.600862741470337
  0
LINE
  5
D7
100
AcDbEntity
  8
SEMA2D
100
AcDbLine
 62
7
  6
_SOLID
370
9
 10
0.595548748970032
 20
0.572096705436707
 11
0.595548748970032
 21
0.55881142616272
  0
LINE
  5
D8
100
AcDbEntity
  8
SEMA2D
100
AcDbLine
 62
7
  6
_SOLID
370
9
 10
0.594754159450531
 20
0.571175575256348
 11
0.594754159450531
 21
0.559725999832153
  0
LINE
  5
D9
100
AcDbEntity
  8
SEMA2D
100
AcDbLine
 62
7
  6
_SOLID
370
9
 10
0.594356894493103
 20
0.190592110157013
 11
0.594356894493103
 21
0.208927020430565
  0
LINE
  5
DA
100
AcDbEntity
  8
SEMA2D
100
AcDbLine
 62
7
  6
_SOLID
370
9
 10
0.595548748970032
 20
0.189846962690353
 11
0.595548748970032
 21
0.209806799888611
  0
LINE
  5
DB
100
AcDbEntity
  8
SEMA2D
100
AcDbLine
 62
7
  6
_SOLID
370
9
 10
0.601548254489899
 20
0.184698194265366
 11
0.601548254489899
 21
0.179520905017853
  0
LINE
  5
DC
100
AcDbEntity
  8
SEMA2D
100
AcDbLine
 62
7
  6
_SOLID
370
9
 10
0.596353352069855
 20
0.580129146575928
 11
0.596353352069855
 21
0.588904798030853
  0
LINE
  5
DD
100
AcDbEntity
  8
SEMA2D
100
AcDbLine
 62
7
  6
_SOLID
370
9
 10
0.594164252281189
 20
0.211923077702522
 11
0.594164252281189
 21
0.556435465812683
  0
LINE
  5
DE
100
AcDbEntity
  8
SEMA2D
100
AcDbLine
 62
7
  6
_SOLID
370
9
 10
0.594164252281189
 20
0.177592918276787
 11
0.594164252281189
 21
0.175285428762436
  0
LINE
  5
DF
100
AcDbEntity
  8
SEMA2D
100
AcDbLine
 62
7
  6
_SOLID
370
9
 10
0.594164252281189
 20
0.59082043170929
 11
0.594164252281189
 21
0.574473857879639
  0
LINE
  5
E0
100
AcDbEntity
  8
SEMA2D
100
AcDbLine
 62
7
  6
_SOLID
370
9
 10
0.608248114585876
 20
0.583316326141357
 11
0.608248114585876
 21
0.585717678070068
  0
LINE
  5
E1
100
AcDbEntity
  8
SEMA2D
100
AcDbLine
 62
7
  6
_SOLID
370
9
 10
0.595548748970032
 20
0.559725999832153
 11
0.594754159450531
 21
0.559725999832153
  0
LINE
  5
E2
100
AcDbEntity
  8
SEMA2D
100
AcDbLine
 62
7
  6
_SOLID
370
9
 10
0.594754159450531
 20
0.559725999832153
 11
0.592654585838318
 21
0.559355795383453
  0
LINE
  5
E3
100
AcDbEntity
  8
SEMA2D
100
AcDbLine
 62
7
  6
_SOLID
370
9
 10
0.594164252281189
 20
0.48043355345726
 11
0.592654585838318
 21
0.48043355345726
  0
LINE
  5
E4
100
AcDbEntity
  8
SEMA2D
100
AcDbLine
 62
7
  6
_SOLID
370
9
 10
0.558167219161987
 20
0.566253423690796
 11
0.555539190769196
 21
0.566716849803925
  0
LINE
  5
E5
100
AcDbEntity
  8
SEMA2D
100
AcDbLine
 62
7
  6
_SOLID
370
9
 10
0.570166230201721
 20
0.602711915969849
 11
0.573271572589874
 21
0.600269198417664
  0
LINE
  5
E6
100
AcDbEntity
  8
SEMA2D
100
AcDbLine
 62
7
  6
_SOLID
370
9
 10
0.557419776916504
 20
0.567977786064148
 11
0.554632008075714
 21
0.568469345569611
  0
LINE
  5
E7
100
AcDbEntity
  8
SEMA2D
100
AcDbLine
 62
7
  6
_SOLID
370
9
 10
0.592779755592346
 20
0.477551490068436
 11
0.591270089149475
 21
0.477551490068436
  0
LINE
  5
E8
100
AcDbEntity
  8
SEMA2D
100
AcDbLine
 62
7
  6
_SOLID
370
9
 10
0.60939371585846
 20
0.183507591485977
 11
0.60939371585846
 21
0.180904269218445
  0
LINE
  5
E9
100
AcDbEntity
  8
SEMA2D
100
AcDbLine
 62
7
  6
_SOLID
370
9
 10
0.609171092510223
 20
0.585029006004333
 11
0.609171092510223
 21
0.585916101932526
  0
LINE
  5
EA
100
AcDbEntity
  8
SEMA2D
100
AcDbLine
 62
7
  6
_SOLID
370
9
 10
0.608932256698608
 20
0.581533253192902
 11
0.608932256698608
 21
0.587500751018524
  0
LINE
  5
EB
100
AcDbEntity
  8
SEMA2D
100
AcDbLine
 62
7
  6
_SOLID
370
9
 10
0.609855234622955
 20
0.583691656589508
 11
0.609855234622955
 21
0.587253451347351
  0
LINE
  5
EC
100
AcDbEntity
  8
SEMA2D
100
AcDbLine
 62
7
  6
_SOLID
370
9
 10
0.592779755592346
 20
0.465740352869034
 11
0.591270089149475
 21
0.465740352869034
  0
LINE
  5
ED
100
AcDbEntity
  8
SEMA2D
100
AcDbLine
 62
7
  6
_SOLID
370
9
 10
0.594164252281189
 20
0.462858289480209
 11
0.592654585838318
 21
0.462858289480209
  0
LINE
  5
EE
100
AcDbEntity
  8
SEMA2D
100
AcDbLine
 62
7
  6
_SOLID
370
9
 10
0.578323006629944
 20
0.178839325904846
 11
0.579083681106567
 21
0.180929288268089
  0
LINE
  5
EF
100
AcDbEntity
  8
SEMA2D
100
AcDbLine
 62
7
  6
_SOLID
370
9
 10
0.594164252281189
 20
0.600069463253021
 11
0.594164252281189
 21
0.592166066169739
  0
LINE
  5
F0
100
AcDbEntity
  8
SEMA2D
100
AcDbLine
 62
7
  6
_SOLID
370
9
 10
0.57802802324295
 20
0.579507350921631
 11
0.57802802324295
 21
0.203436926007271
  0
LINE
  5
F1
100
AcDbEntity
  8
SEMA2D
100
AcDbLine
 62
7
  6
_SOLID
370
9
 10
0.576370298862457
 20
0.600011944770813
 11
0.576370298862457
 21
0.581533968448639
  0
LINE
  5
F2
100
AcDbEntity
  8
SEMA2D
100
AcDbLine
 62
7
  6
_SOLID
370
9
 10
0.574781239032745
 20
0.600538849830627
 11
0.574781239032745
 21
0.582735121250153
  0
LINE
  5
F3
100
AcDbEntity
  8
SEMA2D
100
AcDbLine
 62
7
  6
_SOLID
370
9
 10
0.579396247863769
 20
0.579905211925507
 11
0.579396247863769
 21
0.19629979133606
  0
LINE
  5
F4
100
AcDbEntity
  8
SEMA2D
100
AcDbLine
 62
7
  6
_SOLID
370
9
 10
0.586780250072479
 20
0.604096412658691
 11
0.586780250072479
 21
0.602711915969849
  0
LINE
  5
F5
100
AcDbEntity
  8
SEMA2D
100
AcDbLine
 62
7
  6
_SOLID
370
9
 10
0.583088219165802
 20
0.175746917724609
 11
0.583088219165802
 21
0.175285428762436
  0
LINE
  5
F6
100
AcDbEntity
  8
SEMA2D
100
AcDbLine
 62
7
  6
_SOLID
370
9
 10
0.573271572589874
 20
0.581969499588013
 11
0.573271572589874
 21
0.600269198417664
  0
LINE
  5
F7
100
AcDbEntity
  8
SEMA2D
100
AcDbLine
 62
7
  6
_SOLID
370
9
 10
0.566153645515442
 20
0.583272397518158
 11
0.566153645515442
 21
0.588864743709564
  0
LINE
  5
F8
100
AcDbEntity
  8
SEMA2D
100
AcDbLine
 62
7
  6
_SOLID
370
9
 10
0.566090404987335
 20
0.576031923294067
 11
0.566090404987335
 21
0.583094298839569
  0
LINE
  5
F9
100
AcDbEntity
  8
SEMA2D
100
AcDbLine
 62
7
  6
_SOLID
370
9
 10
0.56462824344635
 20
0.576028645038605
 11
0.56462824344635
 21
0.588864743709564
  0
LINE
  5
FA
100
AcDbEntity
  8
SEMA2D
100
AcDbLine
 62
7
  6
_SOLID
370
9
 10
0.566474199295044
 20
0.185518756508827
 11
0.566474199295044
 21
0.604096412658691
  0
LINE
  5
FB
100
AcDbEntity
  8
SEMA2D
100
AcDbLine
 62
7
  6
_SOLID
370
9
 10
0.570166230201721
 20
0.185763373970985
 11
0.570166230201721
 21
0.604096412658691
  0
LINE
  5
FC
100
AcDbEntity
  8
SEMA2D
100
AcDbLine
 62
7
  6
_SOLID
370
9
 10
0.579434156417847
 20
0.192252486944199
 11
0.579441905021667
 21
0.189961314201355
  0
LINE
  5
FD
100
AcDbEntity
  8
SEMA2D
100
AcDbLine
 62
7
  6
_SOLID
370
9
 10
0.579446136951447
 20
0.188799113035202
 11
0.579443275928497
 21
0.18957294523716
  0
LINE
  5
FE
100
AcDbEntity
  8
SEMA2D
100
AcDbLine
 62
7
  6
_SOLID
370
9
 10
0.588209331035614
 20
0.602366745471954
 11
0.588209331035614
 21
0.600433468818665
  0
LINE
  5
FF
100
AcDbEntity
  8
SEMA2D
100
AcDbLine
 62
7
  6
_SOLID
370
9
 10
0.592779755592346
 20
0.477551490068436
 11
0.592779755592346
 21
0.465740352869034
  0
LINE
  5
100
100
AcDbEntity
  8
SEMA2D
100
AcDbLine
 62
7
  6
_SOLID
370
9
 10
0.592654585838318
 20
0.571738123893738
 11
0.592654585838318
 21
0.59082043170929
  0
LINE
  5
101
100
AcDbEntity
  8
SEMA2D
100
AcDbLine
 62
7
  6
_SOLID
370
9
 10
0.592654585838318
 20
0.48043355345726
 11
0.592654585838318
 21
0.559355795383453
  0
LINE
  5
102
100
AcDbEntity
  8
SEMA2D
100
AcDbLine
 62
7
  6
_SOLID
370
9
 10
0.592779755592346
 20
0.283721476793289
 11
0.592779755592346
 21
0.27191036939621
  0
LINE
  5
103
100
AcDbEntity
  8
SEMA2D
100
AcDbLine
 62
7
  6
_SOLID
370
9
 10
0.593241214752197
 20
0.600069463253021
 11
0.593241214752197
 21
0.594077169895172
  0
LINE
  5
104
100
AcDbEntity
  8
SEMA2D
100
AcDbLine
 62
7
  6
_SOLID
370
9
 10
0.59279602766037
 20
0.465497434139252
 11
0.59279602766037
 21
0.477794408798218
  0
LINE
  5
105
100
AcDbEntity
  8
SEMA2D
100
AcDbLine
 62
7
  6
_SOLID
370
9
 10
0.59279602766037
 20
0.283964425325394
 11
0.59279602766037
 21
0.271667420864105
  0
LINE
  5
106
100
AcDbEntity
  8
SEMA2D
100
AcDbLine
 62
7
  6
_SOLID
370
9
 10
0.592654585838318
 20
0.269028306007385
 11
0.592654585838318
 21
0.209383144974709
  0
LINE
  5
107
100
AcDbEntity
  8
SEMA2D
100
AcDbLine
 62
7
  6
_SOLID
370
9
 10
0.590472221374512
 20
0.175285428762436
 11
0.590472221374512
 21
0.176784187555313
  0
LINE
  5
108
100
AcDbEntity
  8
SEMA2D
100
AcDbLine
 62
7
  6
_SOLID
370
9
 10
0.590010702610016
 20
0.594683170318604
 11
0.590010702610016
 21
0.600538730621338
  0
LINE
  5
109
100
AcDbEntity
  8
SEMA2D
100
AcDbLine
 62
7
  6
_SOLID
370
9
 10
0.588421642780304
 20
0.591954648494721
 11
0.588421642780304
 21
0.59831827878952
  0
LINE
  5
10A
100
AcDbEntity
  8
SEMA2D
100
AcDbLine
 62
7
  6
_SOLID
370
9
 10
0.590933740139008
 20
0.600393772125244
 11
0.590933740139008
 21
0.594695508480072
  0
LINE
  5
10B
100
AcDbEntity
  8
SEMA2D
100
AcDbLine
 62
7
  6
_SOLID
370
9
 10
0.592654585838318
 20
0.462858289480209
 11
0.592654585838318
 21
0.286603540182114
  0
LINE
  5
10C
100
AcDbEntity
  8
SEMA2D
100
AcDbLine
 62
7
  6
_SOLID
370
9
 10
0.591270089149475
 20
0.283721476793289
 11
0.591270089149475
 21
0.27191036939621
  0
LINE
  5
10D
100
AcDbEntity
  8
SEMA2D
100
AcDbLine
 62
7
  6
_SOLID
370
9
 10
0.591270089149475
 20
0.477551490068436
 11
0.591270089149475
 21
0.465740352869034
  0
ARC
  5
10E
100
AcDbEntity
  8
SEMA2D
100
AcDbCircle
 62
7
  6
_SOLID
370
9
 10
0.555859744548798
 20
0.568534791469574
 40
0.00184599997010082
100
AcDbArc
 50
180
 51
260
  0
ARC
  5
10F
100
AcDbEntity
  8
SEMA2D
100
AcDbCircle
 62
7
  6
_SOLID
370
9
 10
0.582165241241455
 20
0.201579883694649
 40
0.023997999727726
100
AcDbArc
 50
180
 51
260
  0
ARC
  5
110
100
AcDbEntity
  8
SEMA2D
100
AcDbCircle
 62
7
  6
_SOLID
370
9
 10
0.560936212539673
 20
0.588864743709564
 40
0.00369199994020164
100
AcDbArc
 50
1.70707899087574E-5
 51
78.0000076293945
  0
ARC
  5
111
100
AcDbEntity
  8
SEMA2D
100
AcDbCircle
 62
7
  6
_SOLID
370
9
 10
0.584011256694794
 20
0.196299746632576
 40
0.00461499998345971
100
AcDbArc
 50
179.999435424805
 51
255.00048828125
  0
ARC
  5
112
100
AcDbEntity
  8
SEMA2D
100
AcDbCircle
 62
7
  6
_SOLID
370
9
 10
0.606624722480774
 20
0.183507591485977
 40
0.00276899989694357
100
AcDbArc
 50
0
 51
40
  0
ARC
  5
113
100
AcDbEntity
  8
SEMA2D
100
AcDbCircle
 62
7
  6
_SOLID
370
9
 10
0.604815900325775
 20
0.184227302670479
 40
0.00369199994020164
100
AcDbArc
 50
40
 51
75
  0
ARC
  5
114
100
AcDbEntity
  8
SEMA2D
100
AcDbCircle
 62
7
  6
_SOLID
370
9
 10
0.607547700405121
 20
0.180904269218445
 40
0.00184599997010082
100
AcDbArc
 50
280
 51
0
  0
ARC
  5
115
100
AcDbEntity
  8
SEMA2D
100
AcDbCircle
 62
7
  6
_SOLID
370
9
 10
0.597394704818726
 20
0.189846962690353
 40
0.00184599997010082
100
AcDbArc
 50
179.999893188477
 51
255
  0
ARC
  5
116
100
AcDbEntity
  8
SEMA2D
100
AcDbCircle
 62
7
  6
_SOLID
370
9
 10
0.554475247859955
 20
0.596067070960999
 40
0.0018459998536855
100
AcDbArc
 50
179.999984741211
 51
264
  0
ARC
  5
117
100
AcDbEntity
  8
SEMA2D
100
AcDbCircle
 62
7
  6
_SOLID
370
9
 10
0.59970223903656
 20
0.179520905017853
 40
0.00184599997010082
100
AcDbArc
 50
279.999633789062
 51
0.000170707906363532
  0
ARC
  5
118
100
AcDbEntity
  8
SEMA2D
100
AcDbCircle
 62
7
  6
_SOLID
370
9
 10
0.566474199295044
 20
0.581454455852509
 40
0.00184599997010082
100
AcDbArc
 50
100
 51
180
  0
ARC
  5
119
100
AcDbEntity
  8
SEMA2D
100
AcDbCircle
 62
7
  6
_SOLID
370
9
 10
0.560013234615326
 20
0.570242464542389
 40
0.00184599997010082
100
AcDbArc
 50
100
 51
180
  0
ARC
  5
11A
100
AcDbEntity
  8
SEMA2D
100
AcDbCircle
 62
7
  6
_SOLID
370
9
 10
0.555859744548798
 20
0.569510042667389
 40
0.00184599997010082
100
AcDbArc
 50
100
 51
180
  0
ARC
  5
11B
100
AcDbEntity
  8
SEMA2D
100
AcDbCircle
 62
7
  6
_SOLID
370
9
 10
0.560936212539673
 20
0.576028645038605
 40
0.00369199994020164
100
AcDbArc
 50
280
 51
-1.70707899087574E-5
  0
ARC
  5
11C
100
AcDbEntity
  8
SEMA2D
100
AcDbCircle
 62
7
  6
_SOLID
370
9
 10
0.554475247859955
 20
0.60008442401886
 40
0.00184599997010082
100
AcDbArc
 50
98
 51
180
  0
ARC
  5
11D
100
AcDbEntity
  8
SEMA2D
100
AcDbCircle
 62
7
  6
_SOLID
370
9
 10
0.560013234615326
 20
0.594722628593445
 40
0.00184599997010082
100
AcDbArc
 50
180
 51
258
  0
ARC
  5
11E
100
AcDbEntity
  8
SEMA2D
100
AcDbCircle
 62
7
  6
_SOLID
370
9
 10
0.560013234615326
 20
0.600862741470337
 40
0.00184599997010082
100
AcDbArc
 50
98
 51
180
  0
ARC
  5
11F
100
AcDbEntity
  8
SEMA2D
100
AcDbCircle
 62
7
  6
_SOLID
370
9
 10
0.554475247859955
 20
0.595899760723114
 40
0.00184599997010082
100
AcDbArc
 50
180.000823974609
 51
258
  0
ARC
  5
120
100
AcDbEntity
  8
SEMA2D
100
AcDbCircle
 62
7
  6
_SOLID
370
9
 10
0.59231823682785
 20
0.48043355345726
 40
0.00184599997010082
100
AcDbArc
 50
308.682281494141
 51
0
  0
ARC
  5
121
100
AcDbEntity
  8
SEMA2D
100
AcDbCircle
 62
7
  6
_SOLID
370
9
 10
0.59462571144104
 20
0.27191036939621
 40
0.00184599997010082
100
AcDbArc
 50
179.999694824219
 51
231.317916870117
  0
ARC
  5
122
100
AcDbEntity
  8
SEMA2D
100
AcDbCircle
 62
7
  6
_SOLID
370
9
 10
0.594164252281189
 20
0.209387585520744
 40
0.00138449994847178
100
AcDbArc
 50
3.31069859385025E-5
 51
56.9442710876465
  0
ARC
  5
123
100
AcDbEntity
  8
SEMA2D
100
AcDbCircle
 62
7
  6
_SOLID
370
9
 10
0.59231823682785
 20
0.462858289480209
 40
0.00184599997010082
100
AcDbArc
 50
0
 51
51.317813873291
  0
ARC
  5
124
100
AcDbEntity
  8
SEMA2D
100
AcDbCircle
 62
7
  6
_SOLID
370
9
 10
0.595825612545013
 20
0.212095752358437
 40
0.00166139821521938
100
AcDbArc
 50
183.895874023438
 51
242.335952758789
  0
ARC
  5
125
100
AcDbEntity
  8
SEMA2D
100
AcDbCircle
 62
7
  6
_SOLID
370
9
 10
0.59462571144104
 20
0.209806799888611
 40
0.00092299998505041
100
AcDbArc
 50
-5.58680403628387E-5
 51
62.3359336853027
  0
ARC
  5
126
100
AcDbEntity
  8
SEMA2D
100
AcDbCircle
 62
7
  6
_SOLID
370
9
 10
0.59462571144104
 20
0.477551490068436
 40
0.00184599997010082
100
AcDbArc
 50
128.682083129883
 51
180.000305175781
  0
ARC
  5
127
100
AcDbEntity
  8
SEMA2D
100
AcDbCircle
 62
7
  6
_SOLID
370
9
 10
0.59462571144104
 20
0.283721476793289
 40
0.00184599997010082
100
AcDbArc
 50
128.682083129883
 51
180.000305175781
  0
ARC
  5
128
100
AcDbEntity
  8
SEMA2D
100
AcDbCircle
 62
7
  6
_SOLID
370
9
 10
0.573027551174164
 20
0.600538849830627
 40
0.00175369996577501
100
AcDbArc
 50
9.47469670791179E-5
 51
82
  0
ARC
  5
129
100
AcDbEntity
  8
SEMA2D
100
AcDbCircle
 62
7
  6
_SOLID
370
9
 10
0.573027551174164
 20
0.580232858657837
 40
0.00175369996577501
100
AcDbArc
 50
75.9291229248047
 51
78.9648590087891
  0
ARC
  5
12A
100
AcDbEntity
  8
SEMA2D
100
AcDbCircle
 62
7
  6
_SOLID
370
9
 10
0.577550232410431
 20
0.579504013061523
 40
0.00184599997010082
100
AcDbArc
 50
0
 51
82
  0
ARC
  5
12B
100
AcDbEntity
  8
SEMA2D
100
AcDbCircle
 62
7
  6
_SOLID
370
9
 10
0.578011751174927
 20
0.579905211925507
 40
0.00138449994847178
100
AcDbArc
 50
-4.13837324231281E-6
 51
81.9999618530273
  0
ARC
  5
12C
100
AcDbEntity
  8
SEMA2D
100
AcDbCircle
 62
7
  6
_SOLID
370
9
 10
0.595825612545013
 20
0.211940467357635
 40
0.00166139996144921
100
AcDbArc
 50
180.599563598633
 51
236.944229125977
  0
ARC
  5
12D
100
AcDbEntity
  8
SEMA2D
100
AcDbCircle
 62
7
  6
_SOLID
370
9
 10
0.59231823682785
 20
0.269028306007385
 40
0.00184599997010082
100
AcDbArc
 50
0
 51
51.317813873291
  0
ARC
  5
12E
100
AcDbEntity
  8
SEMA2D
100
AcDbCircle
 62
7
  6
_SOLID
370
9
 10
0.59231823682785
 20
0.286603540182114
 40
0.00184599997010082
100
AcDbArc
 50
308.682281494141
 51
0
  0
ARC
  5
12F
100
AcDbEntity
  8
SEMA2D
100
AcDbCircle
 62
7
  6
_SOLID
370
9
 10
0.59462571144104
 20
0.465740352869034
 40
0.00184599997010082
100
AcDbArc
 50
179.999694824219
 51
231.317916870117
  0
ARC
  5
130
100
AcDbEntity
  8
SEMA2D
100
AcDbCircle
 62
7
  6
_SOLID
370
9
 10
0.59462571144104
 20
0.55881142616272
 40
0.00092299998505041
100
AcDbArc
 50
300.000030517578
 51
-0.000124151207273826
  0
ARC
  5
131
100
AcDbEntity
  8
SEMA2D
100
AcDbCircle
 62
7
  6
_SOLID
370
9
 10
0.59462571144104
 20
0.572096705436707
 40
0.00092299998505041
100
AcDbArc
 50
0.000105528524727561
 51
60.0000343322754
  0
ARC
  5
132
100
AcDbEntity
  8
SEMA2D
100
AcDbCircle
 62
7
  6
_SOLID
370
9
 10
0.592410504817963
 20
0.59082043170929
 40
0.00175369996577501
100
AcDbArc
 50
0
 51
75
  0
ARC
  5
133
100
AcDbEntity
  8
SEMA2D
100
AcDbCircle
 62
7
  6
_SOLID
370
9
 10
0.596010208129883
 20
0.556413412094116
 40
0.00184599997010082
100
AcDbArc
 50
119.999992370605
 51
179.316314697266
  0
ARC
  5
134
100
AcDbEntity
  8
SEMA2D
100
AcDbCircle
 62
7
  6
_SOLID
370
9
 10
0.596010208129883
 20
0.57449471950531
 40
0.00184599997010082
100
AcDbArc
 50
180.648376464844
 51
240.000015258789
  0
ARC
  5
135
100
AcDbEntity
  8
SEMA2D
100
AcDbCircle
 62
7
  6
_SOLID
370
9
 10
0.591856718063354
 20
0.594695508480072
 40
0.00184599997010082
100
AcDbArc
 50
180.382186889648
 51
255
  0
ARC
  5
136
100
AcDbEntity
  8
SEMA2D
100
AcDbCircle
 62
7
  6
_SOLID
370
9
 10
0.608932256698608
 20
0.587253451347351
 40
0.00092299998505041
100
AcDbArc
 50
0
 51
75
  0
ARC
  5
137
100
AcDbEntity
  8
SEMA2D
100
AcDbCircle
 62
7
  6
_SOLID
370
9
 10
0.588164746761322
 20
0.59831827878952
 40
0.00184599997010082
100
AcDbArc
 50
0
 51
82
  0
ARC
  5
138
100
AcDbEntity
  8
SEMA2D
100
AcDbCircle
 62
7
  6
_SOLID
370
9
 10
0.59231823682785
 20
0.600069463253021
 40
0.00184599997010082
100
AcDbArc
 50
0
 51
82
  0
ARC
  5
139
100
AcDbEntity
  8
SEMA2D
100
AcDbCircle
 62
7
  6
_SOLID
370
9
 10
0.608932256698608
 20
0.583691656589508
 40
0.00092299998505041
100
AcDbArc
 50
284.999969482422
 51
-0.000117943643999752
  0
ARC
  5
13A
100
AcDbEntity
  8
SEMA2D
100
AcDbCircle
 62
7
  6
_SOLID
370
9
 10
0.608009219169617
 20
0.581533253192902
 40
0.00092299998505041
100
AcDbArc
 50
284.999969482422
 51
-9.93209614534862E-5
  0
ARC
  5
13B
100
AcDbEntity
  8
SEMA2D
100
AcDbCircle
 62
7
  6
_SOLID
370
9
 10
0.608009219169617
 20
0.587500751018524
 40
0.00092299998505041
100
AcDbArc
 50
0
 51
75
  0
ARC
  5
13C
100
AcDbEntity
  8
SEMA2D
100
AcDbCircle
 62
7
  6
_SOLID
370
9
 10
0.589905202388763
 20
0.212532714009285
 40
0.0374121032655239
100
AcDbArc
 50
235.810592651367
 51
259.501312255859
  0
LINE
  5
13D
100
AcDbEntity
  8
SEMA2D
100
AcDbLine
 62
7
  6
_SOLID
370
9
 10
0.576720416545868
 20
0.178091183304787
 11
0.583088219165802
 21
0.175746917724609
  0
ARC
  5
13E
100
AcDbEntity
  8
SEMA2D
100
AcDbCircle
 62
7
  6
_SOLID
370
9
 10
0.597032487392426
 20
0.574667811393738
 40
0.00286753918044269
100
AcDbArc
 50
105.285270690918
 51
180.004592895508
  0
ARC
  5
13F
100
AcDbEntity
  8
SEMA2D
100
AcDbCircle
 62
7
  6
_SOLID
370
9
 10
0.872644603252411
 20
0.587020933628082
 40
0.00556647730991244
100
AcDbArc
 50
180
 51
270
  0
ARC
  5
140
100
AcDbEntity
  8
SEMA2D
100
AcDbCircle
 62
7
  6
_SOLID
370
9
 10
0.872644603252411
 20
0.587020933628082
 40
0.00369199994020164
100
AcDbArc
 50
180
 51
270
  0
ARC
  5
141
100
AcDbEntity
  8
SEMA2D
100
AcDbCircle
 62
7
  6
_SOLID
370
9
 10
0.78957462310791
 20
0.197898924350739
 40
0.00478920852765441
100
AcDbArc
 50
70.2253799438477
 51
90
  0
ARC
  5
142
100
AcDbEntity
  8
SEMA2D
100
AcDbCircle
 62
7
  6
_SOLID
370
9
 10
0.78957462310791
 20
0.197898924350739
 40
0.00323050003498793
100
AcDbArc
 50
0
 51
90
  0
ARC
  5
143
100
AcDbEntity
  8
SEMA2D
100
AcDbCircle
 62
7
  6
_SOLID
370
9
 10
0.78957462310791
 20
0.197898924350739
 40
0.00369199994020164
100
AcDbArc
 50
0
 51
90
  0
ARC
  5
144
100
AcDbEntity
  8
SEMA2D
100
AcDbCircle
 62
7
  6
_SOLID
370
9
 10
0.872644603252411
 20
0.587020933628082
 40
0.00374852237291634
100
AcDbArc
 50
180
 51
270
  0
ARC
  5
145
100
AcDbEntity
  8
SEMA2D
100
AcDbCircle
 62
7
  6
_SOLID
370
9
 10
0.78957462310791
 20
0.197898924350739
 40
0.00371934892609715
100
AcDbArc
 50
70.2254028320312
 51
90
  0
ARC
  5
146
100
AcDbEntity
  8
SEMA2D
100
AcDbCircle
 62
7
  6
_SOLID
370
9
 10
0.872644603252411
 20
0.587020933628082
 40
0.00323050003498793
100
AcDbArc
 50
180
 51
270
  0
LINE
  5
147
100
AcDbEntity
  8
SEMA2D
100
AcDbLine
 62
7
  6
_SOLID
370
9
 10
0.748039603233337
 20
0.603173434734344
 11
0.748039603233337
 21
0.364599853754044
  0
LINE
  5
148
100
AcDbEntity
  8
SEMA2D
100
AcDbLine
 62
7
  6
_SOLID
370
9
 10
0.794489145278931
 20
0.587304413318634
 11
0.794489145278931
 21
0.570522964000702
  0
LINE
  5
149
100
AcDbEntity
  8
SEMA2D
100
AcDbLine
 62
7
  6
_SOLID
370
9
 10
0.793266654014587
 20
0.197898924350739
 11
0.793266654014587
 21
0.175746917724609
  0
LINE
  5
14A
100
AcDbEntity
  8
SEMA2D
100
AcDbLine
 62
7
  6
_SOLID
370
9
 10
0.795551419258118
 20
0.201579883694649
 11
0.795551419258118
 21
0.567460536956787
  0
LINE
  5
14B
100
AcDbEntity
  8
SEMA2D
100
AcDbLine
 62
7
  6
_SOLID
370
9
 10
0.797393977642059
 20
0.201579883694649
 11
0.797393977642059
 21
0.567460536956787
  0
LINE
  5
14C
100
AcDbEntity
  8
SEMA2D
100
AcDbLine
 62
7
  6
_SOLID
370
9
 10
0.796090483665466
 20
0.175746917724609
 11
0.796090483665466
 21
0.175285428762436
  0
LINE
  5
14D
100
AcDbEntity
  8
SEMA2D
100
AcDbLine
 62
7
  6
_SOLID
370
9
 10
0.78957462310791
 20
0.202688127756119
 11
0.78957462310791
 21
0.201590925455093
  0
LINE
  5
14E
100
AcDbEntity
  8
SEMA2D
100
AcDbLine
 62
7
  6
_SOLID
370
9
 10
0.778968513011932
 20
0.585884571075439
 11
0.778968513011932
 21
0.203972145915031
  0
LINE
  5
14F
100
AcDbEntity
  8
SEMA2D
100
AcDbLine
 62
7
  6
_SOLID
370
9
 10
0.799095511436462
 20
0.575936019420624
 11
0.799188494682312
 21
0.574121356010437
  0
LINE
  5
150
100
AcDbEntity
  8
SEMA2D
100
AcDbLine
 62
7
  6
_SOLID
370
9
 10
0.792805135250092
 20
0.175285428762436
 11
0.792805135250092
 21
0.197898924350739
  0
LINE
  5
151
100
AcDbEntity
  8
SEMA2D
100
AcDbLine
 62
7
  6
_SOLID
370
9
 10
0.794442474842072
 20
0.178764253854752
 11
0.794406473636627
 21
0.197898924350739
  0
LINE
  5
152
100
AcDbEntity
  8
SEMA2D
100
AcDbLine
 62
7
  6
_SOLID
370
9
 10
0.799422085285187
 20
0.575944423675537
 11
0.799422085285187
 21
0.574126422405243
  0
LINE
  5
153
100
AcDbEntity
  8
SEMA2D
100
AcDbLine
 62
7
  6
_SOLID
370
9
 10
0.799095511436462
 20
0.590399563312531
 11
0.799095571041107
 21
0.575936019420624
  0
LINE
  5
154
100
AcDbEntity
  8
SEMA2D
100
AcDbLine
 62
7
  6
_SOLID
370
9
 10
0.800138711929321
 20
0.572060406208038
 11
0.800138711929321
 21
0.570242464542389
  0
LINE
  5
155
100
AcDbEntity
  8
SEMA2D
100
AcDbLine
 62
7
  6
_SOLID
370
9
 10
0.794156610965729
 20
0.177737444639206
 11
0.794314324855804
 21
0.197531193494797
  0
LINE
  5
156
100
AcDbEntity
  8
SEMA2D
100
AcDbLine
 62
7
  6
_SOLID
370
9
 10
0.800353586673737
 20
0.175746917724609
 11
0.800353586673737
 21
0.175285428762436
  0
LINE
  5
157
100
AcDbEntity
  8
SEMA2D
100
AcDbLine
 62
7
  6
_SOLID
370
9
 10
0.777193605899811
 20
0.585884571075439
 11
0.777193605899811
 21
0.203972145915031
  0
LINE
  5
158
100
AcDbEntity
  8
SEMA2D
100
AcDbLine
 62
7
  6
_SOLID
370
9
 10
0.771457016468048
 20
0.586767435073853
 11
0.771457016468048
 21
0.555391609668732
  0
LINE
  5
159
100
AcDbEntity
  8
SEMA2D
100
AcDbLine
 62
7
  6
_SOLID
370
9
 10
0.771035194396973
 20
0.203972145915031
 11
0.771035194396973
 21
0.586632013320923
  0
LINE
  5
15A
100
AcDbEntity
  8
SEMA2D
100
AcDbLine
 62
7
  6
_SOLID
370
9
 10
0.772116541862488
 20
0.324899852275848
 11
0.772116541862488
 21
0.551394879817963
  0
LINE
  5
15B
100
AcDbEntity
  8
SEMA2D
100
AcDbLine
 62
7
  6
_SOLID
370
9
 10
0.773231983184814
 20
0.586767435073853
 11
0.773231983184814
 21
0.555391609668732
  0
LINE
  5
15C
100
AcDbEntity
  8
SEMA2D
100
AcDbLine
 62
7
  6
_SOLID
370
9
 10
0.772664070129395
 20
0.595899760723114
 11
0.772664070129395
 21
0.60008442401886
  0
LINE
  5
15D
100
AcDbEntity
  8
SEMA2D
100
AcDbLine
 62
7
  6
_SOLID
370
9
 10
0.768975853919983
 20
0.603634893894196
 11
0.768975853919983
 21
0.604096412658691
  0
LINE
  5
15E
100
AcDbEntity
  8
SEMA2D
100
AcDbLine
 62
7
  6
_SOLID
370
9
 10
0.768030941486359
 20
0.603634893894196
 11
0.768030941486359
 21
0.604096412658691
  0
LINE
  5
15F
100
AcDbEntity
  8
SEMA2D
100
AcDbLine
 62
7
  6
_SOLID
370
9
 10
0.768995344638824
 20
0.591477274894714
 11
0.768995344638824
 21
0.603168845176697
  0
LINE
  5
160
100
AcDbEntity
  8
SEMA2D
100
AcDbLine
 62
7
  6
_SOLID
370
9
 10
0.77096039056778
 20
0.603634893894196
 11
0.77096039056778
 21
0.604096412658691
  0
LINE
  5
161
100
AcDbEntity
  8
SEMA2D
100
AcDbLine
 62
7
  6
_SOLID
370
9
 10
0.769260227680206
 20
0.203972145915031
 11
0.769260227680206
 21
0.588437676429748
  0
LINE
  5
162
100
AcDbEntity
  8
SEMA2D
100
AcDbLine
 62
7
  6
_SOLID
370
9
 10
0.776112258434296
 20
0.551394879817963
 11
0.776112258434296
 21
0.324899852275848
  0
LINE
  5
163
100
AcDbEntity
  8
SEMA2D
100
AcDbLine
 62
7
  6
_SOLID
370
9
 10
0.774996817111969
 20
0.555391609668732
 11
0.774996817111969
 21
0.586767435073853
  0
LINE
  5
164
100
AcDbEntity
  8
SEMA2D
100
AcDbLine
 62
7
  6
_SOLID
370
9
 10
0.771424651145935
 20
0.204375386238098
 11
0.772111237049103
 21
0.323069542646408
  0
LINE
  5
165
100
AcDbEntity
  8
SEMA2D
100
AcDbLine
 62
7
  6
_SOLID
370
9
 10
0.776771724224091
 20
0.555391609668732
 11
0.776771724224091
 21
0.586767435073853
  0
LINE
  5
166
100
AcDbEntity
  8
SEMA2D
100
AcDbLine
 62
7
  6
_SOLID
370
9
 10
0.773199617862701
 20
0.204338043928146
 11
0.773886144161224
 21
0.323032200336456
  0
LINE
  5
167
100
AcDbEntity
  8
SEMA2D
100
AcDbLine
 62
7
  6
_SOLID
370
9
 10
0.773891448974609
 20
0.324899852275848
 11
0.773891448974609
 21
0.552993595600128
  0
LINE
  5
168
100
AcDbEntity
  8
SEMA2D
100
AcDbLine
 62
7
  6
_SOLID
370
9
 10
0.773240089416504
 20
0.202592179179192
 11
0.773240089416504
 21
0.204337924718857
  0
LINE
  5
169
100
AcDbEntity
  8
SEMA2D
100
AcDbLine
 62
7
  6
_SOLID
370
9
 10
0.774337291717529
 20
0.552993595600128
 11
0.774337291717529
 21
0.324899852275848
  0
LINE
  5
16A
100
AcDbEntity
  8
SEMA2D
100
AcDbLine
 62
7
  6
_SOLID
370
9
 10
0.774988651275635
 20
0.202592179179192
 11
0.774988651275635
 21
0.204337924718857
  0
LINE
  5
16B
100
AcDbEntity
  8
SEMA2D
100
AcDbLine
 62
7
  6
_SOLID
370
9
 10
0.774482011795044
 20
0.594094097614288
 11
0.774482011795044
 21
0.601912438869476
  0
LINE
  5
16C
100
AcDbEntity
  8
SEMA2D
100
AcDbLine
 62
7
  6
_SOLID
370
9
 10
0.869414150714874
 20
0.604096412658691
 11
0.869414150714874
 21
0.587020933628082
  0
LINE
  5
16D
100
AcDbEntity
  8
SEMA2D
100
AcDbLine
 62
7
  6
_SOLID
370
9
 10
0.868952631950378
 20
0.603634893894196
 11
0.868952631950378
 21
0.587020933628082
  0
LINE
  5
16E
100
AcDbEntity
  8
SEMA2D
100
AcDbLine
 62
7
  6
_SOLID
370
9
 10
0.872644603252411
 20
0.581454455852509
 11
0.872644603252411
 21
0.583328902721405
  0
LINE
  5
16F
100
AcDbEntity
  8
SEMA2D
100
AcDbLine
 62
7
  6
_SOLID
370
9
 10
0.755449712276459
 20
0.586859047412872
 11
0.755627751350403
 21
0.586632013320923
  0
LINE
  5
170
100
AcDbEntity
  8
SEMA2D
100
AcDbLine
 62
7
  6
_SOLID
370
9
 10
0.800138711929321
 20
0.572060406208038
 11
0.799422085285187
 21
0.574126422405243
  0
LINE
  5
171
100
AcDbEntity
  8
SEMA2D
100
AcDbLine
 62
7
  6
_SOLID
370
9
 10
0.865938901901245
 20
0.592916965484619
 11
0.865938901901245
 21
0.602690756320953
  0
LINE
  5
172
100
AcDbEntity
  8
SEMA2D
100
AcDbLine
 62
7
  6
_SOLID
370
9
 10
0.795551419258118
 20
0.567460536956787
 11
0.794489145278931
 21
0.570522964000702
  0
LINE
  5
173
100
AcDbEntity
  8
SEMA2D
100
AcDbLine
 62
7
  6
_SOLID
370
9
 10
0.867078125476837
 20
0.587020933628082
 11
0.867078125476837
 21
0.588864743709564
  0
LINE
  5
174
100
AcDbEntity
  8
SEMA2D
100
AcDbLine
 62
7
  6
_SOLID
370
9
 10
0.868896126747131
 20
0.587020933628082
 11
0.868896126747131
 21
0.588864743709564
  0
LINE
  5
175
100
AcDbEntity
  8
SEMA2D
100
AcDbLine
 62
7
  6
_SOLID
370
9
 10
0.867756843566895
 20
0.600862741470337
 11
0.867756843566895
 21
0.594722628593445
  0
LINE
  5
176
100
AcDbEntity
  8
SEMA2D
100
AcDbLine
 62
7
  6
_SOLID
370
9
 10
0.896181106567383
 20
0.583790421485901
 11
0.896181106567383
 21
0.185358479619026
  0
LINE
  5
177
100
AcDbEntity
  8
SEMA2D
100
AcDbLine
 62
7
  6
_SOLID
370
9
 10
0.895719647407532
 20
0.583328902721405
 11
0.895719647407532
 21
0.185438424348831
  0
LINE
  5
178
100
AcDbEntity
  8
SEMA2D
100
AcDbLine
 62
7
  6
_SOLID
370
9
 10
0.772201299667358
 20
0.201618269085884
 11
0.773240089416504
 21
0.202592179179192
  0
LINE
  5
179
100
AcDbEntity
  8
SEMA2D
100
AcDbLine
 62
7
  6
_SOLID
370
9
 10
0.771035194396973
 20
0.203972145915031
 11
0.771465182304382
 21
0.204375267028809
  0
LINE
  5
17A
100
AcDbEntity
  8
SEMA2D
100
AcDbLine
 62
7
  6
_SOLID
370
9
 10
0.892459034919739
 20
0.201579883694649
 11
0.892459034919739
 21
0.572060406208038
  0
LINE
  5
17B
100
AcDbEntity
  8
SEMA2D
100
AcDbLine
 62
7
  6
_SOLID
370
9
 10
0.757243871688843
 20
0.588698923587799
 11
0.757448673248291
 21
0.588437676429748
  0
LINE
  5
17C
100
AcDbEntity
  8
SEMA2D
100
AcDbLine
 62
7
  6
_SOLID
370
9
 10
0.893832385540009
 20
0.576028645038605
 11
0.893832385540009
 21
0.581454455852509
  0
LINE
  5
17D
100
AcDbEntity
  8
SEMA2D
100
AcDbLine
 62
7
  6
_SOLID
370
9
 10
0.895638048648834
 20
0.576028645038605
 11
0.895638048648834
 21
0.583094000816345
  0
LINE
  5
17E
100
AcDbEntity
  8
SEMA2D
100
AcDbLine
 62
7
  6
_SOLID
370
9
 10
0.894264698028564
 20
0.201579883694649
 11
0.894264698028564
 21
0.570242464542389
  0
LINE
  5
17F
100
AcDbEntity
  8
SEMA2D
100
AcDbLine
 62
7
  6
_SOLID
370
9
 10
0.791194915771484
 20
0.202405720949173
 11
0.790832936763763
 21
0.201398938894272
  0
LINE
  5
180
100
AcDbEntity
  8
SEMA2D
100
AcDbLine
 62
7
  6
_SOLID
370
9
 10
0.748807847499847
 20
0.601046919822693
 11
0.748039603233337
 21
0.603634893894196
  0
LINE
  5
181
100
AcDbEntity
  8
SEMA2D
100
AcDbLine
 62
7
  6
_SOLID
370
9
 10
0.751496374607086
 20
0.551927804946899
 11
0.75110399723053
 21
0.552993595600128
  0
LINE
  5
182
100
AcDbEntity
  8
SEMA2D
100
AcDbLine
 62
7
  6
_SOLID
370
9
 10
0.74969071149826
 20
0.550329089164734
 11
0.749298334121704
 21
0.551394879817963
  0
LINE
  5
183
100
AcDbEntity
  8
SEMA2D
100
AcDbLine
 62
7
  6
_SOLID
370
9
 10
0.842562139034271
 20
0.587776958942413
 11
0.842562139034271
 21
0.576930999755859
  0
LINE
  5
184
100
AcDbEntity
  8
SEMA2D
100
AcDbLine
 62
7
  6
_SOLID
370
9
 10
0.841573417186737
 20
0.586788237094879
 11
0.841573417186737
 21
0.577751219272614
  0
LINE
  5
185
100
AcDbEntity
  8
SEMA2D
100
AcDbLine
 62
7
  6
_SOLID
370
9
 10
0.843860983848572
 20
0.594952523708344
 11
0.843860983848572
 21
0.60071074962616
  0
LINE
  5
186
100
AcDbEntity
  8
SEMA2D
100
AcDbLine
 62
7
  6
_SOLID
370
9
 10
0.84527063369751
 20
0.587776958942413
 11
0.84527063369751
 21
0.576930999755859
  0
LINE
  5
187
100
AcDbEntity
  8
SEMA2D
100
AcDbLine
 62
7
  6
_SOLID
370
9
 10
0.845166325569153
 20
0.592916965484619
 11
0.845166325569153
 21
0.602690756320953
  0
LINE
  5
188
100
AcDbEntity
  8
SEMA2D
100
AcDbLine
 62
7
  6
_SOLID
370
9
 10
0.837962090969086
 20
0.588593900203705
 11
0.837962090969086
 21
0.590399563312531
  0
LINE
  5
189
100
AcDbEntity
  8
SEMA2D
100
AcDbLine
 62
7
  6
_SOLID
370
9
 10
0.837948679924011
 20
0.575944423675537
 11
0.837948679924011
 21
0.574126422405243
  0
LINE
  5
18A
100
AcDbEntity
  8
SEMA2D
100
AcDbLine
 62
7
  6
_SOLID
370
9
 10
0.838099002838135
 20
0.595899760723114
 11
0.838099002838135
 21
0.60008442401886
  0
LINE
  5
18B
100
AcDbEntity
  8
SEMA2D
100
AcDbLine
 62
7
  6
_SOLID
370
9
 10
0.839767754077911
 20
0.586788237094879
 11
0.839767754077911
 21
0.577751219272614
  0
LINE
  5
18C
100
AcDbEntity
  8
SEMA2D
100
AcDbLine
 62
7
  6
_SOLID
370
9
 10
0.839404344558716
 20
0.595899760723114
 11
0.839404344558716
 21
0.60008442401886
  0
LINE
  5
18D
100
AcDbEntity
  8
SEMA2D
100
AcDbLine
 62
7
  6
_SOLID
370
9
 10
0.772201299667358
 20
0.201618269085884
 11
0.754229724407196
 21
0.201618269085884
  0
LINE
  5
18E
100
AcDbEntity
  8
SEMA2D
100
AcDbLine
 62
7
  6
_SOLID
370
9
 10
0.78957462310791
 20
0.201618269085884
 11
0.77602744102478
 21
0.201618269085884
  0
LINE
  5
18F
100
AcDbEntity
  8
SEMA2D
100
AcDbLine
 62
7
  6
_SOLID
370
9
 10
0.774988651275635
 20
0.202592179179192
 11
0.773240089416504
 21
0.202592179179192
  0
LINE
  5
190
100
AcDbEntity
  8
SEMA2D
100
AcDbLine
 62
7
  6
_SOLID
370
9
 10
0.778738260269165
 20
0.202688112854958
 11
0.78957462310791
 21
0.202688127756119
  0
LINE
  5
191
100
AcDbEntity
  8
SEMA2D
100
AcDbLine
 62
7
  6
_SOLID
370
9
 10
0.757186233997345
 20
0.202688097953796
 11
0.769490480422974
 21
0.202688097953796
  0
LINE
  5
192
100
AcDbEntity
  8
SEMA2D
100
AcDbLine
 62
7
  6
_SOLID
370
9
 10
0.78957462310791
 20
0.201129421591759
 11
0.747578144073486
 21
0.201129421591759
  0
LINE
  5
193
100
AcDbEntity
  8
SEMA2D
100
AcDbLine
 62
7
  6
_SOLID
370
9
 10
0.771458029747009
 20
0.586946487426758
 11
0.771035194396973
 21
0.586632013320923
  0
LINE
  5
194
100
AcDbEntity
  8
SEMA2D
100
AcDbLine
 62
7
  6
_SOLID
370
9
 10
0.795551419258118
 20
0.201579883694649
 11
0.802251100540161
 21
0.201579883694649
  0
LINE
  5
195
100
AcDbEntity
  8
SEMA2D
100
AcDbLine
 62
7
  6
_SOLID
370
9
 10
0.78957462310791
 20
0.201590925455093
 11
0.748039603233337
 21
0.201590925455093
  0
LINE
  5
196
100
AcDbEntity
  8
SEMA2D
100
AcDbLine
 62
7
  6
_SOLID
370
9
 10
0.841508150100708
 20
0.201579883694649
 11
0.895719647407532
 21
0.201579883694649
  0
LINE
  5
197
100
AcDbEntity
  8
SEMA2D
100
AcDbLine
 62
7
  6
_SOLID
370
9
 10
0.793820559978485
 20
0.197898879647255
 11
0.793266654014587
 21
0.197898924350739
  0
LINE
  5
198
100
AcDbEntity
  8
SEMA2D
100
AcDbLine
 62
7
  6
_SOLID
370
9
 10
0.751011967658997
 20
0.204832419753075
 11
0.753316521644592
 21
0.204832419753075
  0
LINE
  5
199
100
AcDbEntity
  8
SEMA2D
100
AcDbLine
 62
7
  6
_SOLID
370
9
 10
0.755521535873413
 20
0.203344598412514
 11
0.757186233997345
 21
0.202688127756119
  0
LINE
  5
19A
100
AcDbEntity
  8
SEMA2D
100
AcDbLine
 62
7
  6
_SOLID
370
9
 10
0.77711296081543
 20
0.203297823667526
 11
0.778738260269165
 21
0.202688127756119
  0
LINE
  5
19B
100
AcDbEntity
  8
SEMA2D
100
AcDbLine
 62
7
  6
_SOLID
370
9
 10
0.771035194396973
 20
0.203972145915031
 11
0.769260227680206
 21
0.203972145915031
  0
LINE
  5
19C
100
AcDbEntity
  8
SEMA2D
100
AcDbLine
 62
7
  6
_SOLID
370
9
 10
0.751011967658997
 20
0.203086838126183
 11
0.753316521644592
 21
0.203086838126183
  0
LINE
  5
19D
100
AcDbEntity
  8
SEMA2D
100
AcDbLine
 62
7
  6
_SOLID
370
9
 10
0.777193605899811
 20
0.203972145915031
 11
0.778968513011932
 21
0.203972145915031
  0
LINE
  5
19E
100
AcDbEntity
  8
SEMA2D
100
AcDbLine
 62
7
  6
_SOLID
370
9
 10
0.774988651275635
 20
0.204337924718857
 11
0.773240089416504
 21
0.204337924718857
  0
LINE
  5
19F
100
AcDbEntity
  8
SEMA2D
100
AcDbLine
 62
7
  6
_SOLID
370
9
 10
0.755627751350403
 20
0.204081401228905
 11
0.757448673248291
 21
0.204081401228905
  0
LINE
  5
1A0
100
AcDbEntity
  8
SEMA2D
100
AcDbLine
 62
7
  6
_SOLID
370
9
 10
0.769260227680206
 20
0.588437676429748
 11
0.770656406879425
 21
0.589475989341736
  0
LINE
  5
1A1
100
AcDbEntity
  8
SEMA2D
100
AcDbLine
 62
7
  6
_SOLID
370
9
 10
0.81199038028717
 20
0.177946463227272
 11
0.89304393529892
 21
0.177946463227272
  0
LINE
  5
1A2
100
AcDbEntity
  8
SEMA2D
100
AcDbLine
 62
7
  6
_SOLID
370
9
 10
0.892345190048218
 20
0.175990000367165
 11
0.892835259437561
 21
0.175990000367165
  0
LINE
  5
1A3
100
AcDbEntity
  8
SEMA2D
100
AcDbLine
 62
7
  6
_SOLID
370
9
 10
0.895464658737183
 20
0.184724554419518
 11
0.895954728126526
 21
0.184724554419518
  0
LINE
  5
1A4
100
AcDbEntity
  8
SEMA2D
100
AcDbLine
 62
7
  6
_SOLID
370
9
 10
0.793266654014587
 20
0.175746917724609
 11
0.892258405685425
 21
0.175746917724609
  0
LINE
  5
1A5
100
AcDbEntity
  8
SEMA2D
100
AcDbLine
 62
7
  6
_SOLID
370
9
 10
0.792805135250092
 20
0.175285428762436
 11
0.892583608627319
 21
0.175285428762436
  0
LINE
  5
1A6
100
AcDbEntity
  8
SEMA2D
100
AcDbLine
 62
7
  6
_SOLID
370
9
 10
0.751496374607086
 20
0.550329089164734
 11
0.751496374607086
 21
0.324903905391693
  0
LINE
  5
1A7
100
AcDbEntity
  8
SEMA2D
100
AcDbLine
 62
7
  6
_SOLID
370
9
 10
0.751011967658997
 20
0.204832419753075
 11
0.751011967658997
 21
0.203086838126183
  0
LINE
  5
1A8
100
AcDbEntity
  8
SEMA2D
100
AcDbLine
 62
7
  6
_SOLID
370
9
 10
0.752936780452728
 20
0.324903905391693
 11
0.752936780452728
 21
0.550329089164734
  0
LINE
  5
1A9
100
AcDbEntity
  8
SEMA2D
100
AcDbLine
 62
7
  6
_SOLID
370
9
 10
0.753628849983215
 20
0.586859047412872
 11
0.753628849983215
 21
0.555391609668732
  0
LINE
  5
1AA
100
AcDbEntity
  8
SEMA2D
100
AcDbLine
 62
7
  6
_SOLID
370
9
 10
0.753316521644592
 20
0.204832419753075
 11
0.753316521644592
 21
0.203086838126183
  0
LINE
  5
1AB
100
AcDbEntity
  8
SEMA2D
100
AcDbLine
 62
7
  6
_SOLID
370
9
 10
0.748807847499847
 20
0.555391609668732
 11
0.748807847499847
 21
0.601046919822693
  0
LINE
  5
1AC
100
AcDbEntity
  8
SEMA2D
100
AcDbLine
 62
7
  6
_SOLID
370
9
 10
0.748039603233337
 20
0.603634893894196
 11
0.748039603233337
 21
0.201590925455093
  0
LINE
  5
1AD
100
AcDbEntity
  8
SEMA2D
100
AcDbLine
 62
7
  6
_SOLID
370
9
 10
0.74969071149826
 20
0.550329089164734
 11
0.74969071149826
 21
0.324903905391693
  0
LINE
  5
1AE
100
AcDbEntity
  8
SEMA2D
100
AcDbLine
 62
7
  6
_SOLID
370
9
 10
0.75089818239212
 20
0.603144824504852
 11
0.75089818239212
 21
0.601316750049591
  0
LINE
  5
1AF
100
AcDbEntity
  8
SEMA2D
100
AcDbLine
 62
7
  6
_SOLID
370
9
 10
0.750613510608673
 20
0.555391609668732
 11
0.750613510608673
 21
0.601046919822693
  0
LINE
  5
1B0
100
AcDbEntity
  8
SEMA2D
100
AcDbLine
 62
7
  6
_SOLID
370
9
 10
0.751492440700531
 20
0.323028117418289
 11
0.750981748104095
 21
0.204832494258881
  0
LINE
  5
1B1
100
AcDbEntity
  8
SEMA2D
100
AcDbLine
 62
7
  6
_SOLID
370
9
 10
0.749686777591705
 20
0.323065638542175
 11
0.74917608499527
 21
0.204870000481606
  0
LINE
  5
1B2
100
AcDbEntity
  8
SEMA2D
100
AcDbLine
 62
7
  6
_SOLID
370
9
 10
0.774342596530914
 20
0.323032200336456
 11
0.775029122829437
 21
0.204338043928146
  0
LINE
  5
1B3
100
AcDbEntity
  8
SEMA2D
100
AcDbLine
 62
7
  6
_SOLID
370
9
 10
0.765359461307526
 20
0.588698923587799
 11
0.765359461307526
 21
0.601316750049591
  0
LINE
  5
1B4
100
AcDbEntity
  8
SEMA2D
100
AcDbLine
 62
7
  6
_SOLID
370
9
 10
0.776117503643036
 20
0.323069542646408
 11
0.776804089546204
 21
0.204375386238098
  0
LINE
  5
1B5
100
AcDbEntity
  8
SEMA2D
100
AcDbLine
 62
7
  6
_SOLID
370
9
 10
0.755449712276459
 20
0.586859047412872
 11
0.755449712276459
 21
0.555391609668732
  0
LINE
  5
1B6
100
AcDbEntity
  8
SEMA2D
100
AcDbLine
 62
7
  6
_SOLID
370
9
 10
0.754757642745972
 20
0.324903905391693
 11
0.754757642745972
 21
0.550329089164734
  0
LINE
  5
1B7
100
AcDbEntity
  8
SEMA2D
100
AcDbLine
 62
7
  6
_SOLID
370
9
 10
0.755627751350403
 20
0.586632013320923
 11
0.755627751350403
 21
0.204081401228905
  0
LINE
  5
1B8
100
AcDbEntity
  8
SEMA2D
100
AcDbLine
 62
7
  6
_SOLID
370
9
 10
0.757448673248291
 20
0.588437676429748
 11
0.757448673248291
 21
0.204081401228905
  0
LINE
  5
1B9
100
AcDbEntity
  8
SEMA2D
100
AcDbLine
 62
7
  6
_SOLID
370
9
 10
0.757243871688843
 20
0.588698923587799
 11
0.757243871688843
 21
0.590504586696625
  0
LINE
  5
1BA
100
AcDbEntity
  8
SEMA2D
100
AcDbLine
 62
7
  6
_SOLID
370
9
 10
0.747578144073486
 20
0.201129421591759
 11
0.747578144073486
 21
0.604096412658691
  0
LINE
  5
1BB
100
AcDbEntity
  8
SEMA2D
100
AcDbLine
 62
7
  6
_SOLID
370
9
 10
0.837962090969086
 20
0.590399563312531
 11
0.840038597583771
 21
0.592476069927216
  0
LINE
  5
1BC
100
AcDbEntity
  8
SEMA2D
100
AcDbLine
 62
7
  6
_SOLID
370
9
 10
0.755137383937836
 20
0.204869940876961
 11
0.755627751350403
 21
0.204081401228905
  0
LINE
  5
1BD
100
AcDbEntity
  8
SEMA2D
100
AcDbLine
 62
7
  6
_SOLID
370
9
 10
0.842562139034271
 20
0.587776958942413
 11
0.841573417186737
 21
0.586788237094879
  0
LINE
  5
1BE
100
AcDbEntity
  8
SEMA2D
100
AcDbLine
 62
7
  6
_SOLID
370
9
 10
0.755065262317657
 20
0.551394879817963
 11
0.754757642745972
 21
0.550329089164734
  0
LINE
  5
1BF
100
AcDbEntity
  8
SEMA2D
100
AcDbLine
 62
7
  6
_SOLID
370
9
 10
0.753244340419769
 20
0.552993595600128
 11
0.752936780452728
 21
0.551927804946899
  0
LINE
  5
1C0
100
AcDbEntity
  8
SEMA2D
100
AcDbLine
 62
7
  6
_SOLID
370
9
 10
0.774482011795044
 20
0.594094097614288
 11
0.770813345909119
 21
0.589671611785889
  0
LINE
  5
1C1
100
AcDbEntity
  8
SEMA2D
100
AcDbLine
 62
7
  6
_SOLID
370
9
 10
0.772664070129395
 20
0.595899760723114
 11
0.768995344638824
 21
0.591477274894714
  0
LINE
  5
1C2
100
AcDbEntity
  8
SEMA2D
100
AcDbLine
 62
7
  6
_SOLID
370
9
 10
0.774988651275635
 20
0.202592179179192
 11
0.77602744102478
 21
0.201618269085884
  0
LINE
  5
1C3
100
AcDbEntity
  8
SEMA2D
100
AcDbLine
 62
7
  6
_SOLID
370
9
 10
0.753316521644592
 20
0.203086838126183
 11
0.754229724407196
 21
0.201618269085884
  0
LINE
  5
1C4
100
AcDbEntity
  8
SEMA2D
100
AcDbLine
 62
7
  6
_SOLID
370
9
 10
0.776763617992401
 20
0.204375267028809
 11
0.777193605899811
 21
0.203972145915031
  0
LINE
  5
1C5
100
AcDbEntity
  8
SEMA2D
100
AcDbLine
 62
7
  6
_SOLID
370
9
 10
0.772116541862488
 20
0.324899852275848
 11
0.776112258434296
 21
0.324899852275848
  0
LINE
  5
1C6
100
AcDbEntity
  8
SEMA2D
100
AcDbLine
 62
7
  6
_SOLID
370
9
 10
0.773886144161224
 20
0.323032200336456
 11
0.774342596530914
 21
0.323032200336456
  0
LINE
  5
1C7
100
AcDbEntity
  8
SEMA2D
100
AcDbLine
 62
7
  6
_SOLID
370
9
 10
0.74969071149826
 20
0.324903905391693
 11
0.754757642745972
 21
0.324903905391693
  0
LINE
  5
1C8
100
AcDbEntity
  8
SEMA2D
100
AcDbLine
 62
7
  6
_SOLID
370
9
 10
0.755161106586456
 20
0.204869985580444
 11
0.754760801792145
 21
0.323065638542175
  0
LINE
  5
1C9
100
AcDbEntity
  8
SEMA2D
100
AcDbLine
 62
7
  6
_SOLID
370
9
 10
0.753340184688568
 20
0.204832464456558
 11
0.752939879894257
 21
0.323028117418289
  0
LINE
  5
1CA
100
AcDbEntity
  8
SEMA2D
100
AcDbLine
 62
7
  6
_SOLID
370
9
 10
0.894264698028564
 20
0.570242464542389
 11
0.8946653008461
 21
0.570574760437012
  0
LINE
  5
1CB
100
AcDbEntity
  8
SEMA2D
100
AcDbLine
 62
7
  6
_SOLID
370
9
 10
0.892459034919739
 20
0.572060406208038
 11
0.892859637737274
 21
0.572392702102661
  0
LINE
  5
1CC
100
AcDbEntity
  8
SEMA2D
100
AcDbLine
 62
7
  6
_SOLID
370
9
 10
0.792548477649689
 20
0.588769257068634
 11
0.792646586894989
 21
0.58911007642746
  0
LINE
  5
1CD
100
AcDbEntity
  8
SEMA2D
100
AcDbLine
 62
7
  6
_SOLID
370
9
 10
0.751492440700531
 20
0.323028117418289
 11
0.752939879894257
 21
0.323028117418289
  0
LINE
  5
1CE
100
AcDbEntity
  8
SEMA2D
100
AcDbLine
 62
7
  6
_SOLID
370
9
 10
0.79439103603363
 20
0.586963593959808
 11
0.794489145278931
 21
0.587304413318634
  0
LINE
  5
1CF
100
AcDbEntity
  8
SEMA2D
100
AcDbLine
 62
7
  6
_SOLID
370
9
 10
0.837948679924011
 20
0.575944423675537
 11
0.799422085285187
 21
0.575944423675537
  0
LINE
  5
1D0
100
AcDbEntity
  8
SEMA2D
100
AcDbLine
 62
7
  6
_SOLID
370
9
 10
0.837948620319366
 20
0.574126422405243
 11
0.799422085285187
 21
0.574126422405243
  0
LINE
  5
1D1
100
AcDbEntity
  8
SEMA2D
100
AcDbLine
 62
7
  6
_SOLID
370
9
 10
0.895638048648834
 20
0.576028645038605
 11
0.845207452774048
 21
0.576028645038605
  0
LINE
  5
1D2
100
AcDbEntity
  8
SEMA2D
100
AcDbLine
 62
7
  6
_SOLID
370
9
 10
0.839767754077911
 20
0.577751219272614
 11
0.841573417186737
 21
0.577751219272614
  0
LINE
  5
1D3
100
AcDbEntity
  8
SEMA2D
100
AcDbLine
 62
7
  6
_SOLID
370
9
 10
0.84527063369751
 20
0.576930999755859
 11
0.842562139034271
 21
0.576930999755859
  0
LINE
  5
1D4
100
AcDbEntity
  8
SEMA2D
100
AcDbLine
 62
7
  6
_SOLID
370
9
 10
0.868122637271881
 20
0.594281733036041
 11
0.867756843566895
 21
0.594722628593445
  0
LINE
  5
1D5
100
AcDbEntity
  8
SEMA2D
100
AcDbLine
 62
7
  6
_SOLID
370
9
 10
0.866304695606232
 20
0.592476069927216
 11
0.865938901901245
 21
0.592916965484619
  0
LINE
  5
1D6
100
AcDbEntity
  8
SEMA2D
100
AcDbLine
 62
7
  6
_SOLID
370
9
 10
0.845179617404938
 20
0.588864743709564
 11
0.842527806758881
 21
0.588416218757629
  0
LINE
  5
1D7
100
AcDbEntity
  8
SEMA2D
100
AcDbLine
 62
7
  6
_SOLID
370
9
 10
0.892859637737274
 20
0.572392702102661
 11
0.840038597583771
 21
0.572392702102661
  0
LINE
  5
1D8
100
AcDbEntity
  8
SEMA2D
100
AcDbLine
 62
7
  6
_SOLID
370
9
 10
0.800138711929321
 20
0.572060406208038
 11
0.892459034919739
 21
0.572060406208038
  0
LINE
  5
1D9
100
AcDbEntity
  8
SEMA2D
100
AcDbLine
 62
7
  6
_SOLID
370
9
 10
0.771457016468048
 20
0.586767435073853
 11
0.776771724224091
 21
0.586767435073853
  0
LINE
  5
1DA
100
AcDbEntity
  8
SEMA2D
100
AcDbLine
 62
7
  6
_SOLID
370
9
 10
0.755627751350403
 20
0.586632013320923
 11
0.771035194396973
 21
0.586632013320923
  0
LINE
  5
1DB
100
AcDbEntity
  8
SEMA2D
100
AcDbLine
 62
7
  6
_SOLID
370
9
 10
0.839767754077911
 20
0.586788237094879
 11
0.841573417186737
 21
0.586788237094879
  0
LINE
  5
1DC
100
AcDbEntity
  8
SEMA2D
100
AcDbLine
 62
7
  6
_SOLID
370
9
 10
0.867078125476837
 20
0.587020933628082
 11
0.868952631950378
 21
0.587020933628082
  0
LINE
  5
1DD
100
AcDbEntity
  8
SEMA2D
100
AcDbLine
 62
7
  6
_SOLID
370
9
 10
0.755449712276459
 20
0.586859047412872
 11
0.753628849983215
 21
0.586859047412872
  0
LINE
  5
1DE
100
AcDbEntity
  8
SEMA2D
100
AcDbLine
 62
7
  6
_SOLID
370
9
 10
0.895511627197266
 20
0.583272397518158
 11
0.872644603252411
 21
0.583272397518158
  0
LINE
  5
1DF
100
AcDbEntity
  8
SEMA2D
100
AcDbLine
 62
7
  6
_SOLID
370
9
 10
0.893832385540009
 20
0.581454455852509
 11
0.872644603252411
 21
0.581454455852509
  0
LINE
  5
1E0
100
AcDbEntity
  8
SEMA2D
100
AcDbLine
 62
7
  6
_SOLID
370
9
 10
0.872644603252411
 20
0.583328902721405
 11
0.895719647407532
 21
0.583328902721405
  0
LINE
  5
1E1
100
AcDbEntity
  8
SEMA2D
100
AcDbLine
 62
7
  6
_SOLID
370
9
 10
0.777193605899811
 20
0.585884571075439
 11
0.790890216827393
 21
0.585884571075439
  0
LINE
  5
1E2
100
AcDbEntity
  8
SEMA2D
100
AcDbLine
 62
7
  6
_SOLID
370
9
 10
0.896181106567383
 20
0.583790421485901
 11
0.872644603252411
 21
0.583790421485901
  0
LINE
  5
1E3
100
AcDbEntity
  8
SEMA2D
100
AcDbLine
 62
7
  6
_SOLID
370
9
 10
0.841573417186737
 20
0.577751219272614
 11
0.842562139034271
 21
0.576930999755859
  0
LINE
  5
1E4
100
AcDbEntity
  8
SEMA2D
100
AcDbLine
 62
7
  6
_SOLID
370
9
 10
0.754757642745972
 20
0.550329089164734
 11
0.74969071149826
 21
0.550329089164734
  0
LINE
  5
1E5
100
AcDbEntity
  8
SEMA2D
100
AcDbLine
 62
7
  6
_SOLID
370
9
 10
0.771115839481354
 20
0.203297823667526
 11
0.769490480422974
 21
0.202688127756119
  0
LINE
  5
1E6
100
AcDbEntity
  8
SEMA2D
100
AcDbLine
 62
7
  6
_SOLID
370
9
 10
0.772116541862488
 20
0.551394879817963
 11
0.776112258434296
 21
0.551394879817963
  0
LINE
  5
1E7
100
AcDbEntity
  8
SEMA2D
100
AcDbLine
 62
7
  6
_SOLID
370
9
 10
0.753244340419769
 20
0.552993595600128
 11
0.75110399723053
 21
0.552993595600128
  0
LINE
  5
1E8
100
AcDbEntity
  8
SEMA2D
100
AcDbLine
 62
7
  6
_SOLID
370
9
 10
0.752936780452728
 20
0.551927804946899
 11
0.751496374607086
 21
0.551927804946899
  0
LINE
  5
1E9
100
AcDbEntity
  8
SEMA2D
100
AcDbLine
 62
7
  6
_SOLID
370
9
 10
0.777572512626648
 20
0.589475929737091
 11
0.77875953912735
 21
0.588593065738678
  0
LINE
  5
1EA
100
AcDbEntity
  8
SEMA2D
100
AcDbLine
 62
7
  6
_SOLID
370
9
 10
0.776770710945129
 20
0.586946487426758
 11
0.776984632015228
 21
0.586787402629852
  0
LINE
  5
1EB
100
AcDbEntity
  8
SEMA2D
100
AcDbLine
 62
7
  6
_SOLID
370
9
 10
0.895719647407532
 20
0.185438424348831
 11
0.892258405685425
 21
0.175746917724609
  0
LINE
  5
1EC
100
AcDbEntity
  8
SEMA2D
100
AcDbLine
 62
7
  6
_SOLID
370
9
 10
0.892583608627319
 20
0.175285428762436
 11
0.896181106567383
 21
0.185358479619026
  0
LINE
  5
1ED
100
AcDbEntity
  8
SEMA2D
100
AcDbLine
 62
7
  6
_SOLID
370
9
 10
0.834225952625275
 20
0.565984427928925
 11
0.80838668346405
 21
0.565984427928925
  0
LINE
  5
1EE
100
AcDbEntity
  8
SEMA2D
100
AcDbLine
 62
7
  6
_SOLID
370
9
 10
0.795551419258118
 20
0.567460536956787
 11
0.797393977642059
 21
0.567460536956787
  0
LINE
  5
1EF
100
AcDbEntity
  8
SEMA2D
100
AcDbLine
 62
7
  6
_SOLID
370
9
 10
0.800138711929321
 20
0.570242464542389
 11
0.892459034919739
 21
0.570242464542389
  0
LINE
  5
1F0
100
AcDbEntity
  8
SEMA2D
100
AcDbLine
 62
7
  6
_SOLID
370
9
 10
0.841878533363342
 20
0.567802429199219
 11
0.801880717277527
 21
0.567802429199219
  0
LINE
  5
1F1
100
AcDbEntity
  8
SEMA2D
100
AcDbLine
 62
7
  6
_SOLID
370
9
 10
0.748807847499847
 20
0.555391609668732
 11
0.755449712276459
 21
0.555391609668732
  0
LINE
  5
1F2
100
AcDbEntity
  8
SEMA2D
100
AcDbLine
 62
7
  6
_SOLID
370
9
 10
0.773891448974609
 20
0.552993595600128
 11
0.774337291717529
 21
0.552993595600128
  0
LINE
  5
1F3
100
AcDbEntity
  8
SEMA2D
100
AcDbLine
 62
7
  6
_SOLID
370
9
 10
0.776771724224091
 20
0.555391609668732
 11
0.771457016468048
 21
0.555391609668732
  0
LINE
  5
1F4
100
AcDbEntity
  8
SEMA2D
100
AcDbLine
 62
7
  6
_SOLID
370
9
 10
0.840038597583771
 20
0.572392702102661
 11
0.837948620319366
 21
0.574126422405243
  0
LINE
  5
1F5
100
AcDbEntity
  8
SEMA2D
100
AcDbLine
 62
7
  6
_SOLID
370
9
 10
0.843860983848572
 20
0.594952523708344
 11
0.839404344558716
 21
0.595899760723114
  0
LINE
  5
1F6
100
AcDbEntity
  8
SEMA2D
100
AcDbLine
 62
7
  6
_SOLID
370
9
 10
0.842555642127991
 20
0.593146860599518
 11
0.838099002838135
 21
0.594094097614288
  0
LINE
  5
1F7
100
AcDbEntity
  8
SEMA2D
100
AcDbLine
 62
7
  6
_SOLID
370
9
 10
0.747578144073486
 20
0.604096412658691
 11
0.869414150714874
 21
0.604096412658691
  0
LINE
  5
1F8
100
AcDbEntity
  8
SEMA2D
100
AcDbLine
 62
7
  6
_SOLID
370
9
 10
0.845166325569153
 20
0.602690756320953
 11
0.865938901901245
 21
0.602690756320953
  0
LINE
  5
1F9
100
AcDbEntity
  8
SEMA2D
100
AcDbLine
 62
7
  6
_SOLID
370
9
 10
0.774482011795044
 20
0.601912438869476
 11
0.838099002838135
 21
0.601912438869476
  0
LINE
  5
1FA
100
AcDbEntity
  8
SEMA2D
100
AcDbLine
 62
7
  6
_SOLID
370
9
 10
0.76510351896286
 20
0.603144824504852
 11
0.75089818239212
 21
0.603144824504852
  0
LINE
  5
1FB
100
AcDbEntity
  8
SEMA2D
100
AcDbLine
 62
7
  6
_SOLID
370
9
 10
0.75089818239212
 20
0.603144824504852
 11
0.748039603233337
 21
0.603634893894196
  0
LINE
  5
1FC
100
AcDbEntity
  8
SEMA2D
100
AcDbLine
 62
7
  6
_SOLID
370
9
 10
0.748039603233337
 20
0.603634893894196
 11
0.868952631950378
 21
0.603634893894196
  0
LINE
  5
1FD
100
AcDbEntity
  8
SEMA2D
100
AcDbLine
 62
7
  6
_SOLID
370
9
 10
0.75089818239212
 20
0.601316750049591
 11
0.765359461307526
 21
0.601316750049591
  0
LINE
  5
1FE
100
AcDbEntity
  8
SEMA2D
100
AcDbLine
 62
7
  6
_SOLID
370
9
 10
0.799095511436462
 20
0.588593900203705
 11
0.837962090969086
 21
0.588593900203705
  0
LINE
  5
1FF
100
AcDbEntity
  8
SEMA2D
100
AcDbLine
 62
7
  6
_SOLID
370
9
 10
0.77875953912735
 20
0.588593065738678
 11
0.792266726493835
 21
0.588593065738678
  0
LINE
  5
200
100
AcDbEntity
  8
SEMA2D
100
AcDbLine
 62
7
  6
_SOLID
370
9
 10
0.765359461307526
 20
0.588698923587799
 11
0.757243871688843
 21
0.588698923587799
  0
LINE
  5
201
100
AcDbEntity
  8
SEMA2D
100
AcDbLine
 62
7
  6
_SOLID
370
9
 10
0.770656406879425
 20
0.589475989341736
 11
0.777572512626648
 21
0.589475929737091
  0
LINE
  5
202
100
AcDbEntity
  8
SEMA2D
100
AcDbLine
 62
7
  6
_SOLID
370
9
 10
0.845179617404938
 20
0.588864684104919
 11
0.868896126747131
 21
0.588864743709564
  0
LINE
  5
203
100
AcDbEntity
  8
SEMA2D
100
AcDbLine
 62
7
  6
_SOLID
370
9
 10
0.845207452774048
 20
0.576028645038605
 11
0.842538356781006
 21
0.576405107975006
  0
LINE
  5
204
100
AcDbEntity
  8
SEMA2D
100
AcDbLine
 62
7
  6
_SOLID
370
9
 10
0.84527063369751
 20
0.587776958942413
 11
0.842562139034271
 21
0.587776958942413
  0
LINE
  5
205
100
AcDbEntity
  8
SEMA2D
100
AcDbLine
 62
7
  6
_SOLID
370
9
 10
0.839404344558716
 20
0.60008442401886
 11
0.843860983848572
 21
0.60071074962616
  0
LINE
  5
206
100
AcDbEntity
  8
SEMA2D
100
AcDbLine
 62
7
  6
_SOLID
370
9
 10
0.769260227680206
 20
0.588437676429748
 11
0.757448673248291
 21
0.588437676429748
  0
LINE
  5
207
100
AcDbEntity
  8
SEMA2D
100
AcDbLine
 62
7
  6
_SOLID
370
9
 10
0.838099002838135
 20
0.601912438869476
 11
0.842555642127991
 21
0.602538824081421
  0
LINE
  5
208
100
AcDbEntity
  8
SEMA2D
100
AcDbLine
 62
7
  6
_SOLID
370
9
 10
0.772664070129395
 20
0.595899760723114
 11
0.839404344558716
 21
0.595899760723114
  0
LINE
  5
209
100
AcDbEntity
  8
SEMA2D
100
AcDbLine
 62
7
  6
_SOLID
370
9
 10
0.867756843566895
 20
0.594722628593445
 11
0.845166325569153
 21
0.594722628593445
  0
LINE
  5
20A
100
AcDbEntity
  8
SEMA2D
100
AcDbLine
 62
7
  6
_SOLID
370
9
 10
0.772664070129395
 20
0.60008442401886
 11
0.839404344558716
 21
0.60008442401886
  0
LINE
  5
20B
100
AcDbEntity
  8
SEMA2D
100
AcDbLine
 62
7
  6
_SOLID
370
9
 10
0.748807847499847
 20
0.601046919822693
 11
0.750613510608673
 21
0.601046919822693
  0
LINE
  5
20C
100
AcDbEntity
  8
SEMA2D
100
AcDbLine
 62
7
  6
_SOLID
370
9
 10
0.845166325569153
 20
0.600862741470337
 11
0.867756843566895
 21
0.600862741470337
  0
LINE
  5
20D
100
AcDbEntity
  8
SEMA2D
100
AcDbLine
 62
7
  6
_SOLID
370
9
 10
0.765359461307526
 20
0.590504586696625
 11
0.757243871688843
 21
0.590504586696625
  0
LINE
  5
20E
100
AcDbEntity
  8
SEMA2D
100
AcDbLine
 62
7
  6
_SOLID
370
9
 10
0.799095511436462
 20
0.590399563312531
 11
0.837962090969086
 21
0.590399563312531
  0
LINE
  5
20F
100
AcDbEntity
  8
SEMA2D
100
AcDbLine
 62
7
  6
_SOLID
370
9
 10
0.840038597583771
 20
0.592476069927216
 11
0.866304695606232
 21
0.592476069927216
  0
LINE
  5
210
100
AcDbEntity
  8
SEMA2D
100
AcDbLine
 62
7
  6
_SOLID
370
9
 10
0.838099002838135
 20
0.594094097614288
 11
0.774482011795044
 21
0.594094097614288
  0
LINE
  5
211
100
AcDbEntity
  8
SEMA2D
100
AcDbLine
 62
7
  6
_SOLID
370
9
 10
0.865938901901245
 20
0.592916965484619
 11
0.845166325569153
 21
0.592916965484619
  0
LINE
  5
212
100
AcDbEntity
  8
SEMA2D
100
AcDbLine
 62
7
  6
_SOLID
370
9
 10
0.796090483665466
 20
0.175746917724609
 11
0.81199038028717
 21
0.177946463227272
  0
LINE
  5
213
100
AcDbEntity
  8
SEMA2D
100
AcDbLine
 62
7
  6
_SOLID
370
9
 10
0.81199038028717
 20
0.177946463227272
 11
0.80292534828186
 21
0.176692441105843
  0
ARC
  5
214
100
AcDbEntity
  8
SEMA2D
100
AcDbCircle
 62
7
  6
_SOLID
370
9
 10
25.3301620483398
 20
0.362940281629562
 40
24.4891414642334
100
AcDbArc
 50
179.520690917969
 51
180.361145019531
  0
ARC
  5
215
100
AcDbEntity
  8
SEMA2D
100
AcDbCircle
 62
7
  6
_SOLID
370
9
 10
-31.4000511169434
 20
0.13648521900177
 40
32.2371368408203
100
AcDbArc
 50
0.129902243614197
 51
0.763381063938141
  0
ARC
  5
216
100
AcDbEntity
  8
SEMA2D
100
AcDbCircle
 62
7
  6
_SOLID
370
9
 10
-145.746246337891
 20
1.06386995315552
 40
146.55549621582
100
AcDbArc
 50
359.665618896484
 51
359.803955078125
  0
ARC
  5
217
100
AcDbEntity
  8
SEMA2D
100
AcDbCircle
 62
7
  6
_SOLID
370
9
 10
-24.4358768463135
 20
0.362167626619339
 40
25.2385940551758
100
AcDbArc
 50
359.651336669922
 51
0.466830044984818
  0
LINE
  5
218
100
AcDbEntity
  8
SEMA2D
100
AcDbLine
 62
7
  6
_SOLID
370
9
 10
0.80838668346405
 20
0.562402725219727
 11
0.80838668346405
 21
0.565984427928925
  0
LINE
  5
219
100
AcDbEntity
  8
SEMA2D
100
AcDbLine
 62
7
  6
_SOLID
370
9
 10
0.841508150100708
 20
0.208579882979393
 11
0.841508150100708
 21
0.201579883694649
  0
LINE
  5
21A
100
AcDbEntity
  8
SEMA2D
100
AcDbLine
 62
7
  6
_SOLID
370
9
 10
0.837004363536835
 20
0.209573894739151
 11
0.837004363536835
 21
0.201579883694649
  0
LINE
  5
21B
100
AcDbEntity
  8
SEMA2D
100
AcDbLine
 62
7
  6
_SOLID
370
9
 10
0.802251100540161
 20
0.208579882979393
 11
0.802251100540161
 21
0.201579883694649
  0
LINE
  5
21C
100
AcDbEntity
  8
SEMA2D
100
AcDbLine
 62
7
  6
_SOLID
370
9
 10
0.806748688220978
 20
0.208545222878456
 11
0.806748688220978
 21
0.201579883694649
  0
ARC
  5
21D
100
AcDbEntity
  8
SEMA2D
100
AcDbCircle
 62
7
  6
_SOLID
370
9
 10
0.805448949337006
 20
0.796546757221222
 40
0.00092299998505041
100
AcDbArc
 50
270
 51
-3.5
  0
ARC
  5
21E
100
AcDbEntity
  8
SEMA2D
100
AcDbCircle
 62
7
  6
_SOLID
370
9
 10
0.795450925827026
 20
0.796546757221222
 40
0.00092299998505041
100
AcDbArc
 50
209.999938964844
 51
270
  0
ARC
  5
21F
100
AcDbEntity
  8
SEMA2D
100
AcDbCircle
 62
7
  6
_SOLID
370
9
 10
0.843430161476135
 20
0.798761963844299
 40
0.00175369996577501
100
AcDbArc
 50
270
 51
352
  0
ARC
  5
220
100
AcDbEntity
  8
SEMA2D
100
AcDbCircle
 62
7
  6
_SOLID
370
9
 10
0.793052911758423
 20
0.795162260532379
 40
0.00184599845670164
100
AcDbArc
 50
30.0000553131103
 51
90
  0
ARC
  5
221
100
AcDbEntity
  8
SEMA2D
100
AcDbCircle
 62
7
  6
_SOLID
370
9
 10
0.836304545402527
 20
0.796546757221222
 40
0.00092299998505041
100
AcDbArc
 50
189.999969482422
 51
270
  0
ARC
  5
222
100
AcDbEntity
  8
SEMA2D
100
AcDbCircle
 62
7
  6
_SOLID
370
9
 10
0.774482011795044
 20
0.836697280406952
 40
0.00184599997010082
100
AcDbArc
 50
90
 51
170
  0
ARC
  5
223
100
AcDbEntity
  8
SEMA2D
100
AcDbCircle
 62
7
  6
_SOLID
370
9
 10
0.75271201133728
 20
0.798854291439056
 40
0.00184599997010082
100
AcDbArc
 50
200
 51
270
  0
ARC
  5
224
100
AcDbEntity
  8
SEMA2D
100
AcDbCircle
 62
7
  6
_SOLID
370
9
 10
0.892459034919739
 20
0.831159293651581
 40
0.00184599997010082
100
AcDbArc
 50
12
 51
90
  0
ARC
  5
225
100
AcDbEntity
  8
SEMA2D
100
AcDbCircle
 62
7
  6
_SOLID
370
9
 10
0.83455491065979
 20
0.783163249492645
 40
0.00092299998505041
100
AcDbArc
 50
270
 51
345
  0
ARC
  5
226
100
AcDbEntity
  8
SEMA2D
100
AcDbCircle
 62
7
  6
_SOLID
370
9
 10
0.793974876403809
 20
0.783163249492645
 40
0.00092299998505041
100
AcDbArc
 50
195
 51
270
  0
ARC
  5
227
100
AcDbEntity
  8
SEMA2D
100
AcDbCircle
 62
7
  6
_SOLID
370
9
 10
0.876408874988556
 20
0.81316077709198
 40
0.00461499998345971
100
AcDbArc
 50
90
 51
165
  0
ARC
  5
228
100
AcDbEntity
  8
SEMA2D
100
AcDbCircle
 62
7
  6
_SOLID
370
9
 10
0.862386226654053
 20
0.815006792545319
 40
0.00461499998345971
100
AcDbArc
 50
15
 51
90
  0
ARC
  5
229
100
AcDbEntity
  8
SEMA2D
100
AcDbCircle
 62
7
  6
_SOLID
370
9
 10
0.865892708301544
 20
0.8167604804039
 40
0.00175369996577501
100
AcDbArc
 50
270
 51
270
  0
ARC
  5
22A
100
AcDbEntity
  8
SEMA2D
100
AcDbCircle
 62
7
  6
_SOLID
370
9
 10
0.797393977642059
 20
0.831159293651581
 40
0.00184599997010082
100
AcDbArc
 50
90
 51
176.5
  0
ARC
  5
22B
100
AcDbEntity
  8
SEMA2D
100
AcDbCircle
 62
7
  6
_SOLID
370
9
 10
0.849088847637177
 20
0.81316077709198
 40
0.00184599997010082
100
AcDbArc
 50
90
 51
172
  0
ARC
  5
22C
100
AcDbEntity
  8
SEMA2D
100
AcDbCircle
 62
7
  6
_SOLID
370
9
 10
0.787043154239655
 20
0.794054687023163
 40
0.00295359850861132
100
AcDbArc
 50
15.0000152587891
 51
90
  0
ARC
  5
22D
100
AcDbEntity
  8
SEMA2D
100
AcDbCircle
 62
7
  6
_SOLID
370
9
 10
0.869446098804474
 20
0.813622295856476
 40
0.00184599997010082
100
AcDbArc
 50
195
 51
270
  0
ARC
  5
22E
100
AcDbEntity
  8
SEMA2D
100
AcDbCircle
 62
7
  6
_SOLID
370
9
 10
0.804665327072144
 20
0.798854291439056
 40
0.00184599997010082
100
AcDbArc
 50
270
 51
-3.5
  0
ARC
  5
22F
100
AcDbEntity
  8
SEMA2D
100
AcDbCircle
 62
7
  6
_SOLID
370
9
 10
0.843957722187042
 20
0.796546757221222
 40
0.00092299998505041
100
AcDbArc
 50
270
 51
-8.00000190734863
  0
ARC
  5
230
100
AcDbEntity
  8
SEMA2D
100
AcDbCircle
 62
7
  6
_SOLID
370
9
 10
0.841021358966827
 20
0.798854291439056
 40
0.00184599997010082
100
AcDbArc
 50
188
 51
270
  0
ARC
  5
231
100
AcDbEntity
  8
SEMA2D
100
AcDbCircle
 62
7
  6
_SOLID
370
9
 10
0.845166325569153
 20
0.834851264953613
 40
0.00184599997010082
100
AcDbArc
 50
225.000274658203
 51
270
  0
ARC
  5
232
100
AcDbEntity
  8
SEMA2D
100
AcDbCircle
 62
7
  6
_SOLID
370
9
 10
0.891137719154358
 20
0.813622295856476
 40
0.00184599997010082
100
AcDbArc
 50
270
 51
345
  0
ARC
  5
233
100
AcDbEntity
  8
SEMA2D
100
AcDbCircle
 62
7
  6
_SOLID
370
9
 10
0.838099002838135
 20
0.836697280406952
 40
0.00184599997010082
100
AcDbArc
 50
45
 51
90
  0
ARC
  5
234
100
AcDbEntity
  8
SEMA2D
100
AcDbCircle
 62
7
  6
_SOLID
370
9
 10
0.869843661785126
 20
0.813622295856476
 40
0.00184599997010082
100
AcDbArc
 50
270
 51
345
  0
ARC
  5
235
100
AcDbEntity
  8
SEMA2D
100
AcDbCircle
 62
7
  6
_SOLID
370
9
 10
0.841486573219299
 20
0.794054687023163
 40
0.00295359850861132
100
AcDbArc
 50
147.891143798828
 51
164.999984741211
  0
ARC
  5
236
100
AcDbEntity
  8
SEMA2D
100
AcDbCircle
 62
7
  6
_SOLID
370
9
 10
0.757448673248291
 20
0.810853242874146
 40
0.00184599997010082
100
AcDbArc
 50
189.459991455078
 51
270
  0
ARC
  5
237
100
AcDbEntity
  8
SEMA2D
100
AcDbCircle
 62
7
  6
_SOLID
370
9
 10
0.790890216827393
 20
0.812514662742615
 40
0.00350739993155003
100
AcDbArc
 50
270
 51
356.5
  0
ARC
  5
238
100
AcDbEntity
  8
SEMA2D
100
AcDbCircle
 62
7
  6
_SOLID
370
9
 10
0.769260227680206
 20
0.810853242874146
 40
0.00184599997010082
100
AcDbArc
 50
270
 51
344.049987792969
  0
ARC
  5
239
100
AcDbEntity
  8
SEMA2D
100
AcDbCircle
 62
7
  6
_SOLID
370
9
 10
0.765359461307526
 20
0.816852748394012
 40
0.00369199994020164
100
AcDbArc
 50
270
 51
350
  0
ARC
  5
23A
100
AcDbEntity
  8
SEMA2D
100
AcDbCircle
 62
7
  6
_SOLID
370
9
 10
0.778968513011932
 20
0.810853242874146
 40
0.00184599997010082
100
AcDbArc
 50
195.949996948242
 51
270
  0
ARC
  5
23B
100
AcDbEntity
  8
SEMA2D
100
AcDbCircle
 62
7
  6
_SOLID
370
9
 10
0.790783226490021
 20
0.798854291439056
 40
0.00184599997010082
100
AcDbArc
 50
210
 51
270
  0
ARC
  5
23C
100
AcDbEntity
  8
SEMA2D
100
AcDbCircle
 62
7
  6
_SOLID
370
9
 10
0.768060028553009
 20
0.798854291439056
 40
0.00184599997010082
100
AcDbArc
 50
270
 51
330
  0
ARC
  5
23D
100
AcDbEntity
  8
SEMA2D
100
AcDbCircle
 62
7
  6
_SOLID
370
9
 10
0.771257400512695
 20
0.797008275985718
 40
0.00184599997010082
100
AcDbArc
 50
90
 51
150
  0
ARC
  5
23E
100
AcDbEntity
  8
SEMA2D
100
AcDbCircle
 62
7
  6
_SOLID
370
9
 10
0.787585854530334
 20
0.797008275985718
 40
0.00184599997010082
100
AcDbArc
 50
30
 51
90
  0
ARC
  5
23F
100
AcDbEntity
  8
SEMA2D
100
AcDbCircle
 62
7
  6
_SOLID
370
9
 10
0.873188078403473
 20
0.813622295856476
 40
0.00138449994847178
100
AcDbArc
 50
90
 51
152.876556396484
  0
ARC
  5
240
100
AcDbEntity
  8
SEMA2D
100
AcDbCircle
 62
7
  6
_SOLID
370
9
 10
0.886790215969086
 20
0.81316077709198
 40
0.00184599997010082
100
AcDbArc
 50
20
 51
90
  0
ARC
  5
241
100
AcDbEntity
  8
SEMA2D
100
AcDbCircle
 62
7
  6
_SOLID
370
9
 10
0.866101682186127
 20
0.813622295856476
 40
0.00138449994847178
100
AcDbArc
 50
15.0000009536743
 51
90
  0
ARC
  5
242
100
AcDbEntity
  8
SEMA2D
100
AcDbCircle
 62
7
  6
_SOLID
370
9
 10
0.883843541145325
 20
0.81316077709198
 40
0.00461499998345971
100
AcDbArc
 50
20
 51
90
  0
ARC
  5
243
100
AcDbEntity
  8
SEMA2D
100
AcDbCircle
 62
7
  6
_SOLID
370
9
 10
0.852144479751587
 20
0.815006792545319
 40
0.00461499998345971
100
AcDbArc
 50
90
 51
172
  0
ARC
  5
244
100
AcDbEntity
  8
SEMA2D
100
AcDbCircle
 62
7
  6
_SOLID
370
9
 10
0.774337291717529
 20
0.813622295856476
 40
0.00184599997010082
100
AcDbArc
 50
15.9499998092651
 51
90
  0
ARC
  5
245
100
AcDbEntity
  8
SEMA2D
100
AcDbCircle
 62
7
  6
_SOLID
370
9
 10
0.773891448974609
 20
0.813622295856476
 40
0.00184599997010082
100
AcDbArc
 50
90
 51
164.050003051758
  0
ARC
  5
246
100
AcDbEntity
  8
SEMA2D
100
AcDbCircle
 62
7
  6
_SOLID
370
9
 10
0.890486598014831
 20
0.813529968261719
 40
0.00175369996577501
100
AcDbArc
 50
200
 51
270
  0
ARC
  5
247
100
AcDbEntity
  8
SEMA2D
100
AcDbCircle
 62
7
  6
_SOLID
370
9
 10
0.751496374607086
 20
0.81546825170517
 40
0.00184599997010082
100
AcDbArc
 50
90
 51
168
  0
ARC
  5
248
100
AcDbEntity
  8
SEMA2D
100
AcDbCircle
 62
7
  6
_SOLID
370
9
 10
0.752936780452728
 20
0.81546825170517
 40
0.00184599997010082
100
AcDbArc
 50
9.45999908447266
 51
90
  0
LINE
  5
249
100
AcDbEntity
  8
SEMA2D
100
AcDbLine
 62
7
  6
_SOLID
370
9
 10
0.79439103603363
 20
0.812300562858582
 11
0.795551419258118
 21
0.831271946430206
  0
LINE
  5
24A
100
AcDbEntity
  8
SEMA2D
100
AcDbLine
 62
7
  6
_SOLID
370
9
 10
0.792548477649689
 20
0.812029421329498
 11
0.792646586894989
 21
0.813632905483246
  0
LINE
  5
24B
100
AcDbEntity
  8
SEMA2D
100
AcDbLine
 62
7
  6
_SOLID
370
9
 10
0.782838702201843
 20
0.797469794750214
 11
0.789499878883362
 21
0.809007287025452
  0
LINE
  5
24C
100
AcDbEntity
  8
SEMA2D
100
AcDbLine
 62
7
  6
_SOLID
370
9
 10
0.788734793663025
 20
0.798452138900757
 11
0.807400524616241
 21
0.830782055854797
  0
LINE
  5
24D
100
AcDbEntity
  8
SEMA2D
100
AcDbLine
 62
7
  6
_SOLID
370
9
 10
0.794745326042175
 20
0.81809264421463
 11
0.803335666656494
 21
0.832971513271332
  0
LINE
  5
24E
100
AcDbEntity
  8
SEMA2D
100
AcDbLine
 62
7
  6
_SOLID
370
9
 10
0.79257082939148
 20
0.794819116592407
 11
0.795757949352264
 21
0.782924354076386
  0
LINE
  5
24F
100
AcDbEntity
  8
SEMA2D
100
AcDbLine
 62
7
  6
_SOLID
370
9
 10
0.789896130561829
 20
0.794819116592407
 11
0.793083310127258
 21
0.782924354076386
  0
LINE
  5
250
100
AcDbEntity
  8
SEMA2D
100
AcDbLine
 62
7
  6
_SOLID
370
9
 10
0.792570769786835
 20
0.797008275985718
 11
0.792570769786835
 21
0.794819116592407
  0
LINE
  5
251
100
AcDbEntity
  8
SEMA2D
100
AcDbLine
 62
7
  6
_SOLID
370
9
 10
0.796424210071564
 20
0.797008275985718
 11
0.796424210071564
 21
0.795623779296875
  0
LINE
  5
252
100
AcDbEntity
  8
SEMA2D
100
AcDbLine
 62
7
  6
_SOLID
370
9
 10
0.795757949352264
 20
0.782924354076386
 11
0.795757949352264
 21
0.782240271568298
  0
LINE
  5
253
100
AcDbEntity
  8
SEMA2D
100
AcDbLine
 62
7
  6
_SOLID
370
9
 10
0.775815963745117
 20
0.797469794750214
 11
0.784036636352539
 21
0.797469794750214
  0
LINE
  5
254
100
AcDbEntity
  8
SEMA2D
100
AcDbLine
 62
7
  6
_SOLID
370
9
 10
0.843430161476135
 20
0.797008275985718
 11
0.75271201133728
 21
0.797008275985718
  0
LINE
  5
255
100
AcDbEntity
  8
SEMA2D
100
AcDbLine
 62
7
  6
_SOLID
370
9
 10
0.84304815530777
 20
0.796085238456726
 11
0.840546309947967
 21
0.796085238456726
  0
LINE
  5
256
100
AcDbEntity
  8
SEMA2D
100
AcDbLine
 62
7
  6
_SOLID
370
9
 10
0.793974876403809
 20
0.782240271568298
 11
0.83455491065979
 21
0.782240271568298
  0
LINE
  5
257
100
AcDbEntity
  8
SEMA2D
100
AcDbLine
 62
7
  6
_SOLID
370
9
 10
0.766585409641266
 20
0.797008275985718
 11
0.776230812072754
 21
0.813714623451233
  0
LINE
  5
258
100
AcDbEntity
  8
SEMA2D
100
AcDbLine
 62
7
  6
_SOLID
370
9
 10
0.795757949352264
 20
0.782924354076386
 11
0.832771778106689
 21
0.782924354076386
  0
LINE
  5
259
100
AcDbEntity
  8
SEMA2D
100
AcDbLine
 62
7
  6
_SOLID
370
9
 10
0.777572512626648
 20
0.81535404920578
 11
0.77875953912735
 21
0.811200559139252
  0
LINE
  5
25A
100
AcDbEntity
  8
SEMA2D
100
AcDbLine
 62
7
  6
_SOLID
370
9
 10
0.776112258434296
 20
0.814129531383514
 11
0.777193605899811
 21
0.810346007347107
  0
LINE
  5
25B
100
AcDbEntity
  8
SEMA2D
100
AcDbLine
 62
7
  6
_SOLID
370
9
 10
0.769260227680206
 20
0.810469448566437
 11
0.770656406879425
 21
0.815354466438294
  0
LINE
  5
25C
100
AcDbEntity
  8
SEMA2D
100
AcDbLine
 62
7
  6
_SOLID
370
9
 10
0.774482011795044
 20
0.837081074714661
 11
0.770813345909119
 21
0.816274881362915
  0
LINE
  5
25D
100
AcDbEntity
  8
SEMA2D
100
AcDbLine
 62
7
  6
_SOLID
370
9
 10
0.771035194396973
 20
0.810346007347107
 11
0.772116541862488
 21
0.814129531383514
  0
LINE
  5
25E
100
AcDbEntity
  8
SEMA2D
100
AcDbLine
 62
7
  6
_SOLID
370
9
 10
0.761256456375122
 20
0.797008275985718
 11
0.768184125423431
 21
0.809007287025452
  0
LINE
  5
25F
100
AcDbEntity
  8
SEMA2D
100
AcDbLine
 62
7
  6
_SOLID
370
9
 10
0.755927562713623
 20
0.797008275985718
 11
0.762855172157288
 21
0.809007287025452
  0
LINE
  5
260
100
AcDbEntity
  8
SEMA2D
100
AcDbLine
 62
7
  6
_SOLID
370
9
 10
0.804665327072144
 20
0.794819116592407
 11
0.79257082939148
 21
0.794819116592407
  0
LINE
  5
261
100
AcDbEntity
  8
SEMA2D
100
AcDbLine
 62
7
  6
_SOLID
370
9
 10
0.843957722187042
 20
0.795623779296875
 11
0.836304545402527
 21
0.795623779296875
  0
LINE
  5
262
100
AcDbEntity
  8
SEMA2D
100
AcDbLine
 62
7
  6
_SOLID
370
9
 10
0.796424210071564
 20
0.796085238456726
 11
0.804534018039703
 21
0.796085238456726
  0
LINE
  5
263
100
AcDbEntity
  8
SEMA2D
100
AcDbLine
 62
7
  6
_SOLID
370
9
 10
0.795450925827026
 20
0.795623779296875
 11
0.805448949337006
 21
0.795623779296875
  0
LINE
  5
264
100
AcDbEntity
  8
SEMA2D
100
AcDbLine
 62
7
  6
_SOLID
370
9
 10
0.784036636352539
 20
0.797469794750214
 11
0.784473180770874
 21
0.798854291439056
  0
LINE
  5
265
100
AcDbEntity
  8
SEMA2D
100
AcDbLine
 62
7
  6
_SOLID
370
9
 10
0.772980153560638
 20
0.798854291439056
 11
0.778844594955444
 21
0.80901175737381
  0
LINE
  5
266
100
AcDbEntity
  8
SEMA2D
100
AcDbLine
 62
7
  6
_SOLID
370
9
 10
0.795376718044281
 20
0.828416287899017
 11
0.798026204109192
 21
0.833005249500275
  0
LINE
  5
267
100
AcDbEntity
  8
SEMA2D
100
AcDbLine
 62
7
  6
_SOLID
370
9
 10
0.777509748935699
 20
0.797469794750214
 11
0.784170925617218
 21
0.809007287025452
  0
LINE
  5
268
100
AcDbEntity
  8
SEMA2D
100
AcDbLine
 62
7
  6
_SOLID
370
9
 10
0.765359461307526
 20
0.81316077709198
 11
0.755192697048187
 21
0.81316077709198
  0
LINE
  5
269
100
AcDbEntity
  8
SEMA2D
100
AcDbLine
 62
7
  6
_SOLID
370
9
 10
0.812000274658203
 20
0.797008275985718
 11
0.812000274658203
 21
0.79859733581543
  0
LINE
  5
26A
100
AcDbEntity
  8
SEMA2D
100
AcDbLine
 62
7
  6
_SOLID
370
9
 10
0.812793254852295
 20
0.811561465263367
 11
0.812000334262848
 21
0.79859733581543
  0
LINE
  5
26B
100
AcDbEntity
  8
SEMA2D
100
AcDbLine
 62
7
  6
_SOLID
370
9
 10
0.812254250049591
 20
0.811498999595642
 11
0.819028317928314
 21
0.823231995105743
  0
LINE
  5
26C
100
AcDbEntity
  8
SEMA2D
100
AcDbLine
 62
7
  6
_SOLID
370
9
 10
0.803888022899628
 20
0.797008275985718
 11
0.806699752807617
 21
0.801878333091736
  0
LINE
  5
26D
100
AcDbEntity
  8
SEMA2D
100
AcDbLine
 62
7
  6
_SOLID
370
9
 10
0.752936780452728
 20
0.817314267158508
 11
0.751496374607086
 21
0.817314267158508
  0
LINE
  5
26E
100
AcDbEntity
  8
SEMA2D
100
AcDbLine
 62
7
  6
_SOLID
370
9
 10
0.883843541145325
 20
0.816852748394012
 11
0.876408874988556
 21
0.816852748394012
  0
LINE
  5
26F
100
AcDbEntity
  8
SEMA2D
100
AcDbLine
 62
7
  6
_SOLID
370
9
 10
0.883843541145325
 20
0.817775785923004
 11
0.876408874988556
 21
0.817775785923004
  0
LINE
  5
270
100
AcDbEntity
  8
SEMA2D
100
AcDbLine
 62
7
  6
_SOLID
370
9
 10
0.862386226654053
 20
0.819621741771698
 11
0.852144479751587
 21
0.819621741771698
  0
LINE
  5
271
100
AcDbEntity
  8
SEMA2D
100
AcDbLine
 62
7
  6
_SOLID
370
9
 10
0.852144479751587
 20
0.818698763847351
 11
0.862386226654053
 21
0.818698763847351
  0
LINE
  5
272
100
AcDbEntity
  8
SEMA2D
100
AcDbLine
 62
7
  6
_SOLID
370
9
 10
0.873188078403473
 20
0.815006792545319
 11
0.88679027557373
 21
0.815006792545319
  0
LINE
  5
273
100
AcDbEntity
  8
SEMA2D
100
AcDbLine
 62
7
  6
_SOLID
370
9
 10
0.849088847637177
 20
0.815006792545319
 11
0.866125524044037
 21
0.815006792545319
  0
LINE
  5
274
100
AcDbEntity
  8
SEMA2D
100
AcDbLine
 62
7
  6
_SOLID
370
9
 10
0.774337291717529
 20
0.81546825170517
 11
0.773891448974609
 21
0.81546825170517
  0
LINE
  5
275
100
AcDbEntity
  8
SEMA2D
100
AcDbLine
 62
7
  6
_SOLID
370
9
 10
0.874345004558563
 20
0.815929770469666
 11
0.885907411575317
 21
0.815929770469666
  0
LINE
  5
276
100
AcDbEntity
  8
SEMA2D
100
AcDbLine
 62
7
  6
_SOLID
370
9
 10
0.849348306655884
 20
0.815929770469666
 11
0.865252912044525
 21
0.815929770469666
  0
LINE
  5
277
100
AcDbEntity
  8
SEMA2D
100
AcDbLine
 62
7
  6
_SOLID
370
9
 10
0.869843661785126
 20
0.811776280403137
 11
0.869446098804474
 21
0.811776280403137
  0
LINE
  5
278
100
AcDbEntity
  8
SEMA2D
100
AcDbLine
 62
7
  6
_SOLID
370
9
 10
0.804534018039703
 20
0.795623779296875
 11
0.804534018039703
 21
0.797008275985718
  0
LINE
  5
279
100
AcDbEntity
  8
SEMA2D
100
AcDbLine
 62
7
  6
_SOLID
370
9
 10
0.804665327072144
 20
0.795623779296875
 11
0.804665327072144
 21
0.794819116592407
  0
LINE
  5
27A
100
AcDbEntity
  8
SEMA2D
100
AcDbLine
 62
7
  6
_SOLID
370
9
 10
0.806370198726654
 20
0.796490430831909
 11
0.806401908397675
 21
0.797008275985718
  0
LINE
  5
27B
100
AcDbEntity
  8
SEMA2D
100
AcDbLine
 62
7
  6
_SOLID
370
9
 10
0.807025730609894
 20
0.807207763195038
 11
0.806507885456085
 21
0.798741579055786
  0
LINE
  5
27C
100
AcDbEntity
  8
SEMA2D
100
AcDbLine
 62
7
  6
_SOLID
370
9
 10
0.771257400512695
 20
0.798854291439056
 11
0.775180816650391
 21
0.798854291439056
  0
LINE
  5
27D
100
AcDbEntity
  8
SEMA2D
100
AcDbLine
 62
7
  6
_SOLID
370
9
 10
0.784473180770874
 20
0.798854291439056
 11
0.787585854530334
 21
0.798854291439056
  0
LINE
  5
27E
100
AcDbEntity
  8
SEMA2D
100
AcDbLine
 62
7
  6
_SOLID
370
9
 10
0.769260227680206
 20
0.810469448566437
 11
0.757448673248291
 21
0.810469448566437
  0
LINE
  5
27F
100
AcDbEntity
  8
SEMA2D
100
AcDbLine
 62
7
  6
_SOLID
370
9
 10
0.769260227680206
 20
0.809007287025452
 11
0.757448673248291
 21
0.809007287025452
  0
LINE
  5
280
100
AcDbEntity
  8
SEMA2D
100
AcDbLine
 62
7
  6
_SOLID
370
9
 10
0.77875953912735
 20
0.811200559139252
 11
0.792266726493835
 21
0.811200559139252
  0
LINE
  5
281
100
AcDbEntity
  8
SEMA2D
100
AcDbLine
 62
7
  6
_SOLID
370
9
 10
0.891137719154358
 20
0.811776280403137
 11
0.890486598014831
 21
0.811776280403137
  0
LINE
  5
282
100
AcDbEntity
  8
SEMA2D
100
AcDbLine
 62
7
  6
_SOLID
370
9
 10
0.765359461307526
 20
0.81169855594635
 11
0.757243871688843
 21
0.81169855594635
  0
LINE
  5
283
100
AcDbEntity
  8
SEMA2D
100
AcDbLine
 62
7
  6
_SOLID
370
9
 10
0.798559069633484
 20
0.797008275985718
 11
0.814469814300537
 21
0.824566423892975
  0
LINE
  5
284
100
AcDbEntity
  8
SEMA2D
100
AcDbLine
 62
7
  6
_SOLID
370
9
 10
0.79323011636734
 20
0.797008275985718
 11
0.810605764389038
 21
0.827103793621063
  0
LINE
  5
285
100
AcDbEntity
  8
SEMA2D
100
AcDbLine
 62
7
  6
_SOLID
370
9
 10
0.748731851577759
 20
0.804392278194428
 11
0.747578144073486
 21
0.804392278194428
  0
LINE
  5
286
100
AcDbEntity
  8
SEMA2D
100
AcDbLine
 62
7
  6
_SOLID
370
9
 10
0.790890216827393
 20
0.809007287025452
 11
0.778968513011932
 21
0.809007287025452
  0
LINE
  5
287
100
AcDbEntity
  8
SEMA2D
100
AcDbLine
 62
7
  6
_SOLID
370
9
 10
0.747578144073486
 20
0.80808424949646
 11
0.748039603233337
 21
0.80808424949646
  0
LINE
  5
288
100
AcDbEntity
  8
SEMA2D
100
AcDbLine
 62
7
  6
_SOLID
370
9
 10
0.74969071149826
 20
0.815852046012878
 11
0.748039603233337
 21
0.80808424949646
  0
LINE
  5
289
100
AcDbEntity
  8
SEMA2D
100
AcDbLine
 62
7
  6
_SOLID
370
9
 10
0.747578144073486
 20
0.804392278194428
 11
0.747578144073486
 21
0.80808424949646
  0
LINE
  5
28A
100
AcDbEntity
  8
SEMA2D
100
AcDbLine
 62
7
  6
_SOLID
370
9
 10
0.750977337360382
 20
0.798222899436951
 11
0.748731851577759
 21
0.804392278194428
  0
LINE
  5
28B
100
AcDbEntity
  8
SEMA2D
100
AcDbLine
 62
7
  6
_SOLID
370
9
 10
0.757448673248291
 20
0.810469448566437
 11
0.757448673248291
 21
0.809007287025452
  0
LINE
  5
28C
100
AcDbEntity
  8
SEMA2D
100
AcDbLine
 62
7
  6
_SOLID
370
9
 10
0.757243871688843
 20
0.81169855594635
 11
0.757243871688843
 21
0.81316077709198
  0
LINE
  5
28D
100
AcDbEntity
  8
SEMA2D
100
AcDbLine
 62
7
  6
_SOLID
370
9
 10
0.769260227680206
 20
0.810469448566437
 11
0.769260227680206
 21
0.809007287025452
  0
LINE
  5
28E
100
AcDbEntity
  8
SEMA2D
100
AcDbLine
 62
7
  6
_SOLID
370
9
 10
0.751122951507568
 20
0.797916531562805
 11
0.757526218891144
 21
0.809007287025452
  0
LINE
  5
28F
100
AcDbEntity
  8
SEMA2D
100
AcDbLine
 62
7
  6
_SOLID
370
9
 10
0.772664070129395
 20
0.837017834186554
 11
0.768995344638824
 21
0.816211640834808
  0
LINE
  5
290
100
AcDbEntity
  8
SEMA2D
100
AcDbLine
 62
7
  6
_SOLID
370
9
 10
0.774482011795044
 20
0.837081074714661
 11
0.774482011795044
 21
0.838543295860291
  0
LINE
  5
291
100
AcDbEntity
  8
SEMA2D
100
AcDbLine
 62
7
  6
_SOLID
370
9
 10
0.754757642745972
 20
0.815771698951721
 11
0.755627751350403
 21
0.810549855232239
  0
LINE
  5
292
100
AcDbEntity
  8
SEMA2D
100
AcDbLine
 62
7
  6
_SOLID
370
9
 10
0.749032616615295
 20
0.812755882740021
 11
0.751664400100708
 21
0.817314267158508
  0
LINE
  5
293
100
AcDbEntity
  8
SEMA2D
100
AcDbLine
 62
7
  6
_SOLID
370
9
 10
0.757243871688843
 20
0.81169855594635
 11
0.757448673248291
 21
0.810469448566437
  0
LINE
  5
294
100
AcDbEntity
  8
SEMA2D
100
AcDbLine
 62
7
  6
_SOLID
370
9
 10
0.749041557312012
 20
0.803541421890259
 11
0.755058884620666
 21
0.813963770866394
  0
LINE
  5
295
100
AcDbEntity
  8
SEMA2D
100
AcDbLine
 62
7
  6
_SOLID
370
9
 10
0.765359461307526
 20
0.81169855594635
 11
0.765359461307526
 21
0.81316077709198
  0
LINE
  5
296
100
AcDbEntity
  8
SEMA2D
100
AcDbLine
 62
7
  6
_SOLID
370
9
 10
0.770656406879425
 20
0.815354466438294
 11
0.773254036903381
 21
0.815354287624359
  0
LINE
  5
297
100
AcDbEntity
  8
SEMA2D
100
AcDbLine
 62
7
  6
_SOLID
370
9
 10
0.827734053134918
 20
0.810620784759522
 11
0.840648949146271
 21
0.832990050315857
  0
LINE
  5
298
100
AcDbEntity
  8
SEMA2D
100
AcDbLine
 62
7
  6
_SOLID
370
9
 10
0.833709120750427
 20
0.79859733581543
 11
0.831799983978271
 21
0.812181770801544
  0
LINE
  5
299
100
AcDbEntity
  8
SEMA2D
100
AcDbLine
 62
7
  6
_SOLID
370
9
 10
0.802704930305481
 20
0.833005249500275
 11
0.797393977642059
 21
0.833005249500275
  0
LINE
  5
29A
100
AcDbEntity
  8
SEMA2D
100
AcDbLine
 62
7
  6
_SOLID
370
9
 10
0.832771778106689
 20
0.782924354076386
 11
0.832771778106689
 21
0.782240271568298
  0
LINE
  5
29B
100
AcDbEntity
  8
SEMA2D
100
AcDbLine
 62
7
  6
_SOLID
370
9
 10
0.833709180355072
 20
0.797008275985718
 11
0.833709180355072
 21
0.79859733581543
  0
LINE
  5
29C
100
AcDbEntity
  8
SEMA2D
100
AcDbLine
 62
7
  6
_SOLID
370
9
 10
0.833796918392181
 20
0.811892032623291
 11
0.845986664295197
 21
0.833005249500275
  0
LINE
  5
29D
100
AcDbEntity
  8
SEMA2D
100
AcDbLine
 62
7
  6
_SOLID
370
9
 10
0.834225952625275
 20
0.831479847431183
 11
0.809533357620239
 21
0.831479847431183
  0
LINE
  5
29E
100
AcDbEntity
  8
SEMA2D
100
AcDbLine
 62
7
  6
_SOLID
370
9
 10
0.840737342834473
 20
0.833005249500275
 11
0.803020000457764
 21
0.833005249500275
  0
LINE
  5
29F
100
AcDbEntity
  8
SEMA2D
100
AcDbLine
 62
7
  6
_SOLID
370
9
 10
0.892459034919739
 20
0.833005249500275
 11
0.841054320335388
 21
0.833005249500275
  0
LINE
  5
2A0
100
AcDbEntity
  8
SEMA2D
100
AcDbLine
 62
7
  6
_SOLID
370
9
 10
0.774975001811981
 20
0.815354228019714
 11
0.777572512626648
 21
0.81535404920578
  0
LINE
  5
2A1
100
AcDbEntity
  8
SEMA2D
100
AcDbLine
 62
7
  6
_SOLID
370
9
 10
0.89502739906311
 20
0.821006238460541
 11
0.896181106567383
 21
0.821006238460541
  0
LINE
  5
2A2
100
AcDbEntity
  8
SEMA2D
100
AcDbLine
 62
7
  6
_SOLID
370
9
 10
0.822802603244781
 20
0.825159966945648
 11
0.820956647396088
 21
0.825159788131714
  0
LINE
  5
2A3
100
AcDbEntity
  8
SEMA2D
100
AcDbLine
 62
7
  6
_SOLID
370
9
 10
0.896181106567383
 20
0.824698269367218
 11
0.895719647407532
 21
0.824698269367218
  0
LINE
  5
2A4
100
AcDbEntity
  8
SEMA2D
100
AcDbLine
 62
7
  6
_SOLID
370
9
 10
0.822145819664001
 20
0.810171663761139
 11
0.83099091053009
 21
0.825491845607758
  0
LINE
  5
2A5
100
AcDbEntity
  8
SEMA2D
100
AcDbLine
 62
7
  6
_SOLID
370
9
 10
0.81698602437973
 20
0.810464680194855
 11
0.824331402778626
 21
0.823187232017517
  0
LINE
  5
2A6
100
AcDbEntity
  8
SEMA2D
100
AcDbLine
 62
7
  6
_SOLID
370
9
 10
0.865060865879059
 20
0.816646456718445
 11
0.865252912044525
 21
0.815929770469666
  0
LINE
  5
2A7
100
AcDbEntity
  8
SEMA2D
100
AcDbLine
 62
7
  6
_SOLID
370
9
 10
0.885059595108032
 20
0.817611515522003
 11
0.893679976463318
 21
0.832542479038238
  0
LINE
  5
2A8
100
AcDbEntity
  8
SEMA2D
100
AcDbLine
 62
7
  6
_SOLID
370
9
 10
0.867663025856018
 20
0.813144505023956
 11
0.866843938827515
 21
0.816201210021973
  0
LINE
  5
2A9
100
AcDbEntity
  8
SEMA2D
100
AcDbLine
 62
7
  6
_SOLID
370
9
 10
0.876408874988556
 20
0.817775785923004
 11
0.876408874988556
 21
0.816852748394012
  0
LINE
  5
2AA
100
AcDbEntity
  8
SEMA2D
100
AcDbLine
 62
7
  6
_SOLID
370
9
 10
0.874345004558563
 20
0.815929770469666
 11
0.874345004558563
 21
0.815006792545319
  0
LINE
  5
2AB
100
AcDbEntity
  8
SEMA2D
100
AcDbLine
 62
7
  6
_SOLID
370
9
 10
0.874156653881073
 20
0.817187070846558
 11
0.883289277553558
 21
0.833005249500275
  0
LINE
  5
2AC
100
AcDbEntity
  8
SEMA2D
100
AcDbLine
 62
7
  6
_SOLID
370
9
 10
0.86729234457016
 20
0.814527809619904
 11
0.877960324287415
 21
0.833005249500275
  0
LINE
  5
2AD
100
AcDbEntity
  8
SEMA2D
100
AcDbLine
 62
7
  6
_SOLID
370
9
 10
0.865252912044525
 20
0.815929770469666
 11
0.865252912044525
 21
0.815006792545319
  0
LINE
  5
2AE
100
AcDbEntity
  8
SEMA2D
100
AcDbLine
 62
7
  6
_SOLID
370
9
 10
0.879825472831726
 20
0.817775785923004
 11
0.888618230819702
 21
0.833005249500275
  0
LINE
  5
2AF
100
AcDbEntity
  8
SEMA2D
100
AcDbLine
 62
7
  6
_SOLID
370
9
 10
0.871951162815094
 20
0.814355194568634
 11
0.871626734733582
 21
0.813144505023956
  0
LINE
  5
2B0
100
AcDbEntity
  8
SEMA2D
100
AcDbLine
 62
7
  6
_SOLID
370
9
 10
0.895719647407532
 20
0.824698269367218
 11
0.894264698028564
 21
0.83154308795929
  0
LINE
  5
2B1
100
AcDbEntity
  8
SEMA2D
100
AcDbLine
 62
7
  6
_SOLID
370
9
 10
0.896181106567383
 20
0.821006238460541
 11
0.896181106567383
 21
0.824698269367218
  0
LINE
  5
2B2
100
AcDbEntity
  8
SEMA2D
100
AcDbLine
 62
7
  6
_SOLID
370
9
 10
0.883843541145325
 20
0.817775785923004
 11
0.883843541145325
 21
0.816852748394012
  0
LINE
  5
2B3
100
AcDbEntity
  8
SEMA2D
100
AcDbLine
 62
7
  6
_SOLID
370
9
 10
0.888392865657806
 20
0.814154922962189
 11
0.895386099815369
 21
0.826267540454865
  0
LINE
  5
2B4
100
AcDbEntity
  8
SEMA2D
100
AcDbLine
 62
7
  6
_SOLID
370
9
 10
0.885907411575317
 20
0.815929770469666
 11
0.885907411575317
 21
0.815006792545319
  0
LINE
  5
2B5
100
AcDbEntity
  8
SEMA2D
100
AcDbLine
 62
7
  6
_SOLID
370
9
 10
0.892920792102814
 20
0.813144505023956
 11
0.89502739906311
 21
0.821006238460541
  0
LINE
  5
2B6
100
AcDbEntity
  8
SEMA2D
100
AcDbLine
 62
7
  6
_SOLID
370
9
 10
0.888838648796082
 20
0.812930166721344
 11
0.888180196285248
 21
0.814739167690277
  0
LINE
  5
2B7
100
AcDbEntity
  8
SEMA2D
100
AcDbLine
 62
7
  6
_SOLID
370
9
 10
0.862386226654053
 20
0.818698763847351
 11
0.862386226654053
 21
0.819621741771698
  0
LINE
  5
2B8
100
AcDbEntity
  8
SEMA2D
100
AcDbLine
 62
7
  6
_SOLID
370
9
 10
0.839193284511566
 20
0.79859733581543
 11
0.837879657745361
 21
0.807944476604462
  0
LINE
  5
2B9
100
AcDbEntity
  8
SEMA2D
100
AcDbLine
 62
7
  6
_SOLID
370
9
 10
0.835395574569702
 20
0.796386480331421
 11
0.835285902023315
 21
0.797008275985718
  0
LINE
  5
2BA
100
AcDbEntity
  8
SEMA2D
100
AcDbLine
 62
7
  6
_SOLID
370
9
 10
0.840546309947967
 20
0.797008275985718
 11
0.840546309947967
 21
0.796085238456726
  0
LINE
  5
2BB
100
AcDbEntity
  8
SEMA2D
100
AcDbLine
 62
7
  6
_SOLID
370
9
 10
0.844871699810028
 20
0.796418309211731
 11
0.847574412822723
 21
0.815649032592773
  0
LINE
  5
2BC
100
AcDbEntity
  8
SEMA2D
100
AcDbLine
 62
7
  6
_SOLID
370
9
 10
0.84304815530777
 20
0.797008275985718
 11
0.84304815530777
 21
0.795623779296875
  0
LINE
  5
2BD
100
AcDbEntity
  8
SEMA2D
100
AcDbLine
 62
7
  6
_SOLID
370
9
 10
0.837540090084076
 20
0.809145331382751
 11
0.85131561756134
 21
0.833005249500275
  0
LINE
  5
2BE
100
AcDbEntity
  8
SEMA2D
100
AcDbLine
 62
7
  6
_SOLID
370
9
 10
0.832771778106689
 20
0.782924354076386
 11
0.836174607276916
 21
0.795623779296875
  0
LINE
  5
2BF
100
AcDbEntity
  8
SEMA2D
100
AcDbLine
 62
7
  6
_SOLID
370
9
 10
0.838720679283142
 20
0.801960170269012
 11
0.856644570827484
 21
0.833005249500275
  0
LINE
  5
2C0
100
AcDbEntity
  8
SEMA2D
100
AcDbLine
 62
7
  6
_SOLID
370
9
 10
0.838099002838135
 20
0.838543295860291
 11
0.774482011795044
 21
0.838543295860291
  0
LINE
  5
2C1
100
AcDbEntity
  8
SEMA2D
100
AcDbLine
 62
7
  6
_SOLID
370
9
 10
0.838099002838135
 20
0.837081074714661
 11
0.774482011795044
 21
0.837081074714661
  0
LINE
  5
2C2
100
AcDbEntity
  8
SEMA2D
100
AcDbLine
 62
7
  6
_SOLID
370
9
 10
0.849348306655884
 20
0.815929770469666
 11
0.84940242767334
 21
0.816315114498138
  0
LINE
  5
2C3
100
AcDbEntity
  8
SEMA2D
100
AcDbLine
 62
7
  6
_SOLID
370
9
 10
0.852144479751587
 20
0.818698763847351
 11
0.852144479751587
 21
0.819621741771698
  0
LINE
  5
2C4
100
AcDbEntity
  8
SEMA2D
100
AcDbLine
 62
7
  6
_SOLID
370
9
 10
0.859575510025024
 20
0.819621741771698
 11
0.867302477359772
 21
0.833005249500275
  0
LINE
  5
2C5
100
AcDbEntity
  8
SEMA2D
100
AcDbLine
 62
7
  6
_SOLID
370
9
 10
0.843860983848572
 20
0.833545923233032
 11
0.839404344558716
 21
0.838002562522888
  0
LINE
  5
2C6
100
AcDbEntity
  8
SEMA2D
100
AcDbLine
 62
7
  6
_SOLID
370
9
 10
0.86458283662796
 20
0.819064795970917
 11
0.872631371021271
 21
0.833005249500275
  0
LINE
  5
2C7
100
AcDbEntity
  8
SEMA2D
100
AcDbLine
 62
7
  6
_SOLID
370
9
 10
0.84119063615799
 20
0.797008275985718
 11
0.846165657043457
 21
0.805625319480896
  0
LINE
  5
2C8
100
AcDbEntity
  8
SEMA2D
100
AcDbLine
 62
7
  6
_SOLID
370
9
 10
0.835446417331696
 20
0.782924354076386
 11
0.838633596897125
 21
0.794819116592407
  0
LINE
  5
2C9
100
AcDbEntity
  8
SEMA2D
100
AcDbLine
 62
7
  6
_SOLID
370
9
 10
0.854246556758881
 20
0.819621741771698
 11
0.861973524093628
 21
0.833005249500275
  0
LINE
  5
2CA
100
AcDbEntity
  8
SEMA2D
100
AcDbLine
 62
7
  6
_SOLID
370
9
 10
0.849348306655884
 20
0.815929770469666
 11
0.849348306655884
 21
0.815006792545319
  0
LINE
  5
2CB
100
AcDbEntity
  8
SEMA2D
100
AcDbLine
 62
7
  6
_SOLID
370
9
 10
0.842174828052521
 20
0.833005249500275
 11
0.838099002838135
 21
0.837081074714661
  0
ARC
  5
2CC
100
AcDbEntity
  8
SEMA2D
100
AcDbCircle
 62
7
  6
_SOLID
370
9
 10
0.802661061286926
 20
0.825534105300903
 40
0.0074713034555316
100
AcDbArc
 50
42.147346496582
 51
90
  0
ARC
  5
2CD
100
AcDbEntity
  8
SEMA2D
100
AcDbCircle
 62
7
  6
_SOLID
370
9
 10
0.820983111858368
 20
0.843017637729645
 40
0.0178576968610287
100
AcDbArc
 50
224.290725708008
 51
270
  0
ARC
  5
2CE
100
AcDbEntity
  8
SEMA2D
100
AcDbCircle
 62
7
  6
_SOLID
370
9
 10
0.822738885879517
 20
0.843177676200867
 40
0.0180177893489599
100
AcDbArc
 50
270
 51
317.41796875
  0
ARC
  5
2CF
100
AcDbEntity
  8
SEMA2D
100
AcDbCircle
 62
7
  6
_SOLID
370
9
 10
0.84046459197998
 20
0.827158391475677
 40
0.00587653322145343
100
AcDbArc
 50
84.2402114868164
 51
139.357604980469
  0
ARC
  5
2D0
100
AcDbEntity
  8
SEMA2D
100
AcDbCircle
 62
7
  6
_SOLID
370
9
 10
0.813291609287262
 20
0.804904162883759
 40
0.00667593209072947
100
AcDbArc
 50
56.3997917175293
 51
159.81428527832
  0
ARC
  5
2D1
100
AcDbEntity
  8
SEMA2D
100
AcDbCircle
 62
7
  6
_SOLID
370
9
 10
0.831900060176849
 20
0.805845201015472
 40
0.00633737538009882
100
AcDbArc
 50
19.3452129364014
 51
131.099792480469
  0
ARC
  5
2D2
100
AcDbEntity
  8
SEMA2D
100
AcDbCircle
 62
7
  6
_SOLID
370
9
 10
0.821793496608734
 20
0.84954297542572
 40
0.0393729098141193
100
AcDbArc
 50
262.986633300781
 51
278.677886962891
  0
LINE
  5
2D3
100
AcDbEntity
  8
SEMA2D
100
AcDbLine
 62
7
  6
_SOLID
370
9
 10
0.775180816650391
 20
0.798854291439056
 11
0.775815963745117
 21
0.797469794750214
  0
MTEXT
  5
2D4
100
AcDbEntity
  8
SEMATEXT
100
AcDbMText
 62
7
 10
0.857404291629791
 20
0.893100798130035
 40
0.00800000037997961
 71
7
  1
{\fArial Narrow;= Deckbreite}
  7
STANDARD
 73
2
  0
MTEXT
  5
2D5
100
AcDbEntity
  8
SEMATEXT
100
AcDbMText
 62
7
 10
0.640588164329529
 20
0.312000811100006
 40
0.00800000037997961
 50
90
 71
7
  1
{\fArial Narrow;Lattweite = 350 - 362 mm}
  7
STANDARD
 73
2
  0
LINE
  5
2D6
100
AcDbEntity
  8
SEMA2D
100
AcDbLine
 62
7
  6
_SOLID
370
9
 10
0.645548701286316
 20
0.190532684326172
 11
0.645548701286316
 21
0.577121615409851
  0
LINE
  5
2D7
100
AcDbEntity
  8
SEMA2D
100
AcDbLine
 62
7
  6
_SOLID
370
9
 10
0.642104268074036
 20
0.583000838756561
 11
0.649071037769318
 21
0.570742189884186
  0
LINE
  5
2D8
100
AcDbEntity
  8
SEMA2D
100
AcDbLine
 62
7
  6
_SOLID
370
9
 10
0.639104306697846
 20
0.577200829982758
 11
0.652104258537293
 21
0.577200829982758
  0
LINE
  5
2D9
100
AcDbEntity
  8
SEMA2D
100
AcDbLine
 62
7
  6
_SOLID
370
9
 10
0.638804316520691
 20
0.190500825643539
 11
0.652604281902313
 21
0.190500825643539
  0
LINE
  5
2DA
100
AcDbEntity
  8
SEMA2D
100
AcDbLine
 62
7
  6
_SOLID
370
9
 10
0.648904263973236
 20
0.184300824999809
 11
0.642249345779419
 21
0.196390151977539
  0
LINE
  5
2DB
100
AcDbEntity
  8
SEMA2D
100
AcDbLine
 62
7
  6
_DOT
370
9
 10
0.645548701286316
 20
0.577121615409851
 11
0.594164252281189
 21
0.577121615409851
  0
LINE
  5
2DC
100
AcDbEntity
  8
SEMA2D
100
AcDbLine
 62
7
  6
_DOT
370
9
 10
0.645548701286316
 20
0.190532684326172
 11
0.595548748970032
 21
0.190532684326172
  0
ENDSEC
  0
SECTION
  2
OBJECTS
  0
DICTIONARY
  5
 13
330
0
100
AcDbDictionary
281
     1
  3
ACAD_GROUP
350
 14
 3
ACAD_MLINESTYLE
350
 16
  3
ACAD_PLOTSETTINGS
350
 17
  3
ACAD_PLOTSTYLENAME
350
 18
  0
DICTIONARY
  5
 14
330
 13
100
AcDbDictionary
281
     1
  0
DICTIONARY
  5
 16
330
 13
100
AcDbDictionary
281
     1
  0
DICTIONARY
  5
 17
102
{ACAD_REACTORS
330
 13
102
}
330
 13
100
AcDbDictionary
281
     1
  0
ACDBDICTIONARYWDFLT
  5
 18
102
{ACAD_REACTORS
330
 13
102
}
330
 13
100
AcDbDictionary
281
     1
  3
Normal
350
 19
100
AcDbDictionaryWithDefault
340
 19
  0
ACDBPLACEHOLDER
  5
 19
102
{ACAD_REACTORS
330
 18
102
}
330
 18
  0
ENDSEC
  0
EOF
