  0
SECTION
  2
HEADER
  9
$ACADVER
  1
AC1015
  9
$HANDSEED
  5
478
  9
$LIMMIN
 10
-11.9359130859375
 20
0.102191172540188
  9
$LIMMAX
 10
19.5404033660889
 20
0.886021435260773
  9
$MEASUREMENT
 70
1
  0
ENDSEC
  0
SECTION
  2
TABLES
  0
TABLE
  2
VPORT
  5
  1
100
AcDbSymbolTable
  0
ENDTAB
  0
TABLE
  2
LTYPE
  5
  2
100
AcDbSymbolTable
  0
LTYPE
  5
  3
100
AcDbSymbolTableRecord
100
AcDbLinetypeTableRecord
  2
BYBLOCK
 70
     0
  0
LTYPE
  5
  4
100
AcDbSymbolTableRecord
100
AcDbLinetypeTableRecord
  2
BYLAYER
 70
     0
  0
LTYPE
  5
20
100
AcDbSymbolTableRecord
100
AcDbLinetypeTableRecord
  2
_SOLID
  3

 70
0
 72
65
 73
2
 40
5
 49
5
 74
0
 49
0
 74
0
  0
LTYPE
  5
21
100
AcDbSymbolTableRecord
100
AcDbLinetypeTableRecord
  2
_DASH
  3

 70
0
 72
65
 73
2
 40
7
 49
5
 74
0
 49
-2
 74
0
  0
LTYPE
  5
22
100
AcDbSymbolTableRecord
100
AcDbLinetypeTableRecord
  2
_DOT
  3

 70
0
 72
65
 73
2
 40
4
 49
2
 74
0
 49
-2
 74
0
  0
LTYPE
  5
23
100
AcDbSymbolTableRecord
100
AcDbLinetypeTableRecord
  2
_DASHDOT
  3

 70
0
 72
65
 73
4
 40
11
 49
5
 74
0
 49
-2
 74
0
 49
2
 74
0
 49
-2
 74
0
  0
LTYPE
  5
24
100
AcDbSymbolTableRecord
100
AcDbLinetypeTableRecord
  2
_DASHDOTDOT
  3

 70
0
 72
65
 73
6
 40
15
 49
5
 74
0
 49
-2
 74
0
 49
2
 74
0
 49
-2
 74
0
 49
2
 74
0
 49
-2
 74
0
  0
LTYPE
  5
25
100
AcDbSymbolTableRecord
100
AcDbLinetypeTableRecord
  2
ISO128-20-02
  3

 70
0
 72
65
 73
2
 40
15
 49
12
 74
0
 49
-3
 74
0
  0
LTYPE
  5
26
100
AcDbSymbolTableRecord
100
AcDbLinetypeTableRecord
  2
ISO128-20-03
  3

 70
0
 72
65
 73
2
 40
30
 49
12
 74
0
 49
-18
 74
0
  0
LTYPE
  5
27
100
AcDbSymbolTableRecord
100
AcDbLinetypeTableRecord
  2
ISO128-20-04
  3

 70
0
 72
65
 73
4
 40
30
 49
24
 74
0
 49
-3
 74
0
 49
0
 74
0
 49
-3
 74
0
  0
LTYPE
  5
28
100
AcDbSymbolTableRecord
100
AcDbLinetypeTableRecord
  2
ISO128-20-05
  3

 70
0
 72
65
 73
6
 40
33
 49
24
 74
0
 49
-3
 74
0
 49
0
 74
0
 49
-3
 74
0
 49
0
 74
0
 49
-3
 74
0
  0
LTYPE
  5
29
100
AcDbSymbolTableRecord
100
AcDbLinetypeTableRecord
  2
ISO128-20-06
  3

 70
0
 72
65
 73
8
 40
36
 49
24
 74
0
 49
-3
 74
0
 49
0
 74
0
 49
-3
 74
0
 49
0
 74
0
 49
-3
 74
0
 49
0
 74
0
 49
-3
 74
0
  0
LTYPE
  5
2A
100
AcDbSymbolTableRecord
100
AcDbLinetypeTableRecord
  2
ISO128-20-07
  3

 70
0
 72
65
 73
2
 40
3
 49
0
 74
0
 49
-3
 74
0
  0
LTYPE
  5
2B
100
AcDbSymbolTableRecord
100
AcDbLinetypeTableRecord
  2
ISO128-20-08
  3

 70
0
 72
65
 73
4
 40
36
 49
24
 74
0
 49
-3
 74
0
 49
6
 74
0
 49
-3
 74
0
  0
LTYPE
  5
2C
100
AcDbSymbolTableRecord
100
AcDbLinetypeTableRecord
  2
ISO128-20-09
  3

 70
0
 72
65
 73
6
 40
45
 49
24
 74
0
 49
-3
 74
0
 49
6
 74
0
 49
-3
 74
0
 49
6
 74
0
 49
-3
 74
0
  0
LTYPE
  5
2D
100
AcDbSymbolTableRecord
100
AcDbLinetypeTableRecord
  2
ISO128-20-10
  3

 70
0
 72
65
 73
4
 40
18
 49
12
 74
0
 49
-3
 74
0
 49
0
 74
0
 49
-3
 74
0
  0
LTYPE
  5
2E
100
AcDbSymbolTableRecord
100
AcDbLinetypeTableRecord
  2
ISO128-20-11
  3

 70
0
 72
65
 73
6
 40
33
 49
12
 74
0
 49
-3
 74
0
 49
12
 74
0
 49
-3
 74
0
 49
0
 74
0
 49
-3
 74
0
  0
LTYPE
  5
2F
100
AcDbSymbolTableRecord
100
AcDbLinetypeTableRecord
  2
ISO128-20-12
  3

 70
0
 72
65
 73
6
 40
21
 49
12
 74
0
 49
-3
 74
0
 49
0
 74
0
 49
-3
 74
0
 49
0
 74
0
 49
-3
 74
0
  0
LTYPE
  5
30
100
AcDbSymbolTableRecord
100
AcDbLinetypeTableRecord
  2
ISO128-20-13
  3

 70
0
 72
65
 73
8
 40
36
 49
12
 74
0
 49
-3
 74
0
 49
12
 74
0
 49
-3
 74
0
 49
0
 74
0
 49
-3
 74
0
 49
0
 74
0
 49
-3
 74
0
  0
LTYPE
  5
31
100
AcDbSymbolTableRecord
100
AcDbLinetypeTableRecord
  2
ISO128-20-14
  3

 70
0
 72
65
 73
8
 40
24
 49
12
 74
0
 49
-3
 74
0
 49
0
 74
0
 49
-3
 74
0
 49
0
 74
0
 49
-3
 74
0
 49
0
 74
0
 49
-3
 74
0
  0
LTYPE
  5
32
100
AcDbSymbolTableRecord
100
AcDbLinetypeTableRecord
  2
ISO128-20-15
  3

 70
0
 72
65
 73
10
 40
39
 49
12
 74
0
 49
-3
 74
0
 49
12
 74
0
 49
-3
 74
0
 49
0
 74
0
 49
-3
 74
0
 49
0
 74
0
 49
-3
 74
0
 49
0
 74
0
 49
-3
 74
0
  0
ENDTAB
  0
TABLE
  2
LAYER
  5
 1A
330
  0
100
AcDbSymbolTable
  0
LAYER
  5
474
330
 1A
100
AcDbSymbolTableRecord
100
AcDbLayerTableRecord
  2
0
 70
0
 62
7
  6
Continuous
370
-3
390
 19
  0
LAYER
  5
475
330
 1A
100
AcDbSymbolTableRecord
100
AcDbLayerTableRecord
  2
SEMA2D
 70
0
 62
7
  6
Continuous
370
-3
390
 19
  0
LAYER
  5
476
330
 1A
100
AcDbSymbolTableRecord
100
AcDbLayerTableRecord
  2
SEMATEXT
 70
0
 62
7
  6
Continuous
370
-3
390
 19
  0
ENDTAB
  0
TABLE
  2
STYLE
  5
  5
100
AcDbSymbolTable
  0
STYLE
  5
  6
100
AcDbSymbolTableRecord
100
AcDbTextStyleTableRecord
  2
STANDARD
 70
     0
 40
0.0
 41
1.0
 50
0.0
 71
     0
 42
10.0
  3
txt
  4

  0
ENDTAB
  0
TABLE
  2
VIEW
  5
  7
100
AcDbSymbolTable
  0
ENDTAB
  0
TABLE
  2
UCS
  5
  8
100
AcDbSymbolTable
  0
ENDTAB
  0
TABLE
  2
APPID
  5
  9
100
AcDbSymbolTable
  0
APPID
  5
  A
100
AcDbSymbolTableRecord
100
AcDbRegAppTableRecord
  2
ACAD
 70
0
  0
ENDTAB
  0
TABLE
  2
DIMSTYLE
  5
  B
100
AcDbSymbolTable
 70
     1
100
AcDbDimStyleTable
 71
     0
  0
DIMSTYLE
105
 1B
330
B
100
AcDbSymbolTableRecord
100
AcDbDimStyleTableRecord
  2
STANDARD
 70
    0
340
  6
  0
ENDTAB
  0
TABLE
  2
BLOCK_RECORD
  5
  C
100
AcDbSymbolTable
  0
BLOCK_RECORD
  5
  D
100
AcDbSymbolTableRecord
100
AcDbBlockTableRecord
  2
*MODEL_SPACE
  0
BLOCK_RECORD
  5
  E
100
AcDbSymbolTableRecord
100
AcDbBlockTableRecord
  2
*PAPER_SPACE
  0
ENDTAB
  0
ENDSEC
  0
SECTION
  2
BLOCKS
  0
BLOCK
  5
  F
330
  D
100
AcDbEntity
  8
0
100
AcDbBlockBegin
  2
*MODEL_SPACE
 70
     0
  0
ENDBLK
  5
 10
100
AcDbEntity
  8
0
100
AcDbBlockEnd
  0
BLOCK
  5
 11
330
  E
100
AcDbEntity
  8
0
100
AcDbBlockBegin
  2
*PAPER_SPACE
 70
     0
  0
ENDBLK
  5
 12
100
AcDbEntity
  8
0
100
AcDbBlockEnd
  0
ENDSEC
  0
SECTION
  2
ENTITIES
  0
LINE
  5
33
100
AcDbEntity
  8
SEMA2D
100
AcDbLine
 62
7
  6
_SOLID
370
9
 10
1.46912312507629
 20
0.793037295341492
 11
1.48247075080872
 21
0.793037295341492
  0
LINE
  5
34
100
AcDbEntity
  8
SEMA2D
100
AcDbLine
 62
7
  6
_SOLID
370
9
 10
1.6800696849823
 20
0.813804745674133
 11
1.68235564231873
 21
0.813804745674133
  0
LINE
  5
35
100
AcDbEntity
  8
SEMA2D
100
AcDbLine
 62
7
  6
_SOLID
370
9
 10
1.65499091148376
 20
0.815650761127472
 11
1.65942990779877
 21
0.815650761127472
  0
LINE
  5
36
100
AcDbEntity
  8
SEMA2D
100
AcDbLine
 62
7
  6
_SOLID
370
9
 10
1.69756507873535
 20
0.820726573467255
 11
1.69659852981567
 21
0.827604115009308
  0
LINE
  5
37
100
AcDbEntity
  8
SEMA2D
100
AcDbLine
 62
7
  6
_SOLID
370
9
 10
1.69664204120636
 20
0.817035257816315
 11
1.69555699825287
 21
0.809314906597137
  0
LINE
  5
38
100
AcDbEntity
  8
SEMA2D
100
AcDbLine
 62
7
  6
_SOLID
370
9
 10
1.61664974689484
 20
0.828111290931702
 11
1.61948847770691
 21
0.828111290931702
  0
LINE
  5
39
100
AcDbEntity
  8
SEMA2D
100
AcDbLine
 62
7
  6
_SOLID
370
9
 10
1.52181780338287
 20
0.828111290931702
 11
1.52465641498566
 21
0.828111290931702
  0
LINE
  5
3A
100
AcDbEntity
  8
SEMA2D
100
AcDbLine
 62
7
  6
_SOLID
370
9
 10
1.58213818073273
 20
0.82768052816391
 11
1.61158514022827
 21
0.82768052816391
  0
LINE
  5
3B
100
AcDbEntity
  8
SEMA2D
100
AcDbLine
 62
7
  6
_SOLID
370
9
 10
1.4943288564682
 20
0.829034268856049
 11
1.69495332241058
 21
0.829034268856049
  0
LINE
  5
3C
100
AcDbEntity
  8
SEMA2D
100
AcDbLine
 62
7
  6
_SOLID
370
9
 10
1.49432277679443
 20
0.829034268856049
 11
1.46775710582733
 21
0.829034268856049
  0
LINE
  5
3D
100
AcDbEntity
  8
SEMA2D
100
AcDbLine
 62
7
  6
_SOLID
370
9
 10
1.49251818656921
 20
0.827572047710419
 11
1.46775710582733
 21
0.827572047710419
  0
LINE
  5
3E
100
AcDbEntity
  8
SEMA2D
100
AcDbLine
 62
7
  6
_SOLID
370
9
 10
1.52972114086151
 20
0.82768052816391
 11
1.55732202529907
 21
0.82768052816391
  0
LINE
  5
3F
100
AcDbEntity
  8
SEMA2D
100
AcDbLine
 62
7
  6
_SOLID
370
9
 10
1.60787057876587
 20
0.794249892234802
 11
1.61178600788116
 21
0.779637515544891
  0
LINE
  5
40
100
AcDbEntity
  8
SEMA2D
100
AcDbLine
 62
7
  6
_SOLID
370
9
 10
1.61446070671082
 20
0.778269290924072
 11
1.61446070671082
 21
0.779637515544891
  0
LINE
  5
41
100
AcDbEntity
  8
SEMA2D
100
AcDbLine
 62
7
  6
_SOLID
370
9
 10
1.61158514022827
 20
0.829034268856049
 11
1.61158514022827
 21
0.82768052816391
  0
LINE
  5
42
100
AcDbEntity
  8
SEMA2D
100
AcDbLine
 62
7
  6
_SOLID
370
9
 10
1.61087024211884
 20
0.793037295341492
 11
1.61446070671082
 21
0.779637515544891
  0
LINE
  5
43
100
AcDbEntity
  8
SEMA2D
100
AcDbLine
 62
7
  6
_SOLID
370
9
 10
1.63977527618408
 20
0.824570238590241
 11
1.64423930644989
 21
0.829034268856049
  0
LINE
  5
44
100
AcDbEntity
  8
SEMA2D
100
AcDbLine
 62
7
  6
_SOLID
370
9
 10
1.60856735706329
 20
0.793362319469452
 11
1.62595188617706
 21
0.810746848583221
  0
LINE
  5
45
100
AcDbEntity
  8
SEMA2D
100
AcDbLine
 62
7
  6
_SOLID
370
9
 10
1.60448467731476
 20
0.795806288719177
 11
1.61745405197144
 21
0.80877560377121
  0
LINE
  5
46
100
AcDbEntity
  8
SEMA2D
100
AcDbLine
 62
7
  6
_SOLID
370
9
 10
1.59795808792114
 20
0.795806288719177
 11
1.61088013648987
 21
0.808728277683258
  0
LINE
  5
47
100
AcDbEntity
  8
SEMA2D
100
AcDbLine
 62
7
  6
_SOLID
370
9
 10
1.59143149852753
 20
0.795806288719177
 11
1.60435354709625
 21
0.808728277683258
  0
LINE
  5
48
100
AcDbEntity
  8
SEMA2D
100
AcDbLine
 62
7
  6
_SOLID
370
9
 10
1.69756507873535
 20
0.817035257816315
 11
1.69664204120636
 21
0.817035257816315
  0
LINE
  5
49
100
AcDbEntity
  8
SEMA2D
100
AcDbLine
 62
7
  6
_SOLID
370
9
 10
1.55172789096832
 20
0.826726794242859
 11
1.55430912971497
 21
0.826726794242859
  0
LINE
  5
4A
100
AcDbEntity
  8
SEMA2D
100
AcDbLine
 62
7
  6
_SOLID
370
9
 10
1.51202082633972
 20
0.826496005058289
 11
1.50307321548462
 21
0.826496005058289
  0
LINE
  5
4B
100
AcDbEntity
  8
SEMA2D
100
AcDbLine
 62
7
  6
_SOLID
370
9
 10
1.6404983997345
 20
0.826496005058289
 11
1.62972319126129
 21
0.826496005058289
  0
LINE
  5
4C
100
AcDbEntity
  8
SEMA2D
100
AcDbLine
 62
7
  6
_SOLID
370
9
 10
1.58405780792236
 20
0.826726794242859
 11
1.58773243427277
 21
0.826726794242859
  0
LINE
  5
4D
100
AcDbEntity
  8
SEMA2D
100
AcDbLine
 62
7
  6
_SOLID
370
9
 10
1.68973290920258
 20
0.809261918067932
 11
1.69650065898895
 21
0.816029667854309
  0
LINE
  5
4E
100
AcDbEntity
  8
SEMA2D
100
AcDbLine
 62
7
  6
_SOLID
370
9
 10
1.64814972877502
 20
0.811596691608429
 11
1.64607560634613
 21
0.794658899307251
  0
LINE
  5
4F
100
AcDbEntity
  8
SEMA2D
100
AcDbLine
 62
7
  6
_SOLID
370
9
 10
1.6385885477066
 20
0.794405460357666
 11
1.63749051094055
 21
0.798503279685974
  0
LINE
  5
50
100
AcDbEntity
  8
SEMA2D
100
AcDbLine
 62
7
  6
_SOLID
370
9
 10
1.68716704845428
 20
0.813222646713257
 11
1.69720852375031
 21
0.823264062404633
  0
LINE
  5
51
100
AcDbEntity
  8
SEMA2D
100
AcDbLine
 62
7
  6
_SOLID
370
9
 10
1.68122255802155
 20
0.813804745674133
 11
1.69604384899139
 21
0.828626096248627
  0
LINE
  5
52
100
AcDbEntity
  8
SEMA2D
100
AcDbLine
 62
7
  6
_SOLID
370
9
 10
1.69756507873535
 20
0.820726573467255
 11
1.69756507873535
 21
0.817035257816315
  0
LINE
  5
53
100
AcDbEntity
  8
SEMA2D
100
AcDbLine
 62
7
  6
_SOLID
370
9
 10
1.67302620410919
 20
0.81054699420929
 11
1.67258358001709
 21
0.809108376502991
  0
LINE
  5
54
100
AcDbEntity
  8
SEMA2D
100
AcDbLine
 62
7
  6
_SOLID
370
9
 10
1.63895511627197
 20
0.793037295341492
 11
1.63901913166046
 21
0.792798399925232
  0
LINE
  5
55
100
AcDbEntity
  8
SEMA2D
100
AcDbLine
 62
7
  6
_SOLID
370
9
 10
1.65696215629578
 20
0.815650761127472
 11
1.67034566402435
 21
0.829034268856049
  0
LINE
  5
56
100
AcDbEntity
  8
SEMA2D
100
AcDbLine
 62
7
  6
_SOLID
370
9
 10
1.6379816532135
 20
0.796670258045197
 11
1.64748573303223
 21
0.806174278259277
  0
LINE
  5
57
100
AcDbEntity
  8
SEMA2D
100
AcDbLine
 62
7
  6
_SOLID
370
9
 10
1.62532722949982
 20
0.797069013118744
 11
1.65729248523712
 21
0.829034268856049
  0
LINE
  5
58
100
AcDbEntity
  8
SEMA2D
100
AcDbLine
 62
7
  6
_SOLID
370
9
 10
1.61759603023529
 20
0.795864343643188
 11
1.65076589584351
 21
0.829034268856049
  0
LINE
  5
59
100
AcDbEntity
  8
SEMA2D
100
AcDbLine
 62
7
  6
_SOLID
370
9
 10
1.6149570941925
 20
0.812405645847321
 11
1.6149570941925
 21
0.808728277683258
  0
LINE
  5
5A
100
AcDbEntity
  8
SEMA2D
100
AcDbLine
 62
7
  6
_SOLID
370
9
 10
1.63529706001282
 20
0.800512313842773
 11
1.66381907463074
 21
0.829034268856049
  0
LINE
  5
5B
100
AcDbEntity
  8
SEMA2D
100
AcDbLine
 62
7
  6
_SOLID
370
9
 10
1.63421022891998
 20
0.796966671943665
 11
1.63489651679993
 21
0.794405460357666
  0
LINE
  5
5C
100
AcDbEntity
  8
SEMA2D
100
AcDbLine
 62
7
  6
_SOLID
370
9
 10
1.62461090087891
 20
0.817074060440063
 11
1.61948847770691
 21
0.828111290931702
  0
LINE
  5
5D
100
AcDbEntity
  8
SEMA2D
100
AcDbLine
 62
7
  6
_SOLID
370
9
 10
1.6691746711731
 20
0.808283448219299
 11
1.6899254322052
 21
0.829034268856049
  0
LINE
  5
5E
100
AcDbEntity
  8
SEMA2D
100
AcDbLine
 62
7
  6
_SOLID
370
9
 10
1.63513267040253
 20
0.779637515544891
 11
1.63835656642914
 21
0.791669070720673
  0
LINE
  5
5F
100
AcDbEntity
  8
SEMA2D
100
AcDbLine
 62
7
  6
_SOLID
370
9
 10
1.63245809078217
 20
0.779637515544891
 11
1.63568186759949
 21
0.791669070720673
  0
LINE
  5
60
100
AcDbEntity
  8
SEMA2D
100
AcDbLine
 62
7
  6
_SOLID
370
9
 10
1.63245809078217
 20
0.778269290924072
 11
1.63245809078217
 21
0.779637515544891
  0
LINE
  5
61
100
AcDbEntity
  8
SEMA2D
100
AcDbLine
 62
7
  6
_SOLID
370
9
 10
1.61617839336395
 20
0.829034268856049
 11
1.62324070930481
 21
0.815313816070557
  0
LINE
  5
62
100
AcDbEntity
  8
SEMA2D
100
AcDbLine
 62
7
  6
_SOLID
370
9
 10
1.66753947734833
 20
0.813174843788147
 11
1.68339884281158
 21
0.829034268856049
  0
LINE
  5
63
100
AcDbEntity
  8
SEMA2D
100
AcDbLine
 62
7
  6
_SOLID
370
9
 10
1.66348779201508
 20
0.815649807453155
 11
1.67687225341797
 21
0.829034268856049
  0
LINE
  5
64
100
AcDbEntity
  8
SEMA2D
100
AcDbLine
 62
7
  6
_SOLID
370
9
 10
1.64087522029877
 20
0.793037295341492
 11
1.64657497406006
 21
0.798736989498138
  0
LINE
  5
65
100
AcDbEntity
  8
SEMA2D
100
AcDbLine
 62
7
  6
_SOLID
370
9
 10
1.45321643352509
 20
0.80818909406662
 11
1.45321643352509
 21
0.809651255607605
  0
LINE
  5
66
100
AcDbEntity
  8
SEMA2D
100
AcDbLine
 62
7
  6
_SOLID
370
9
 10
1.44359171390533
 20
0.794626355171204
 11
1.44277727603912
 21
0.800421237945557
  0
LINE
  5
67
100
AcDbEntity
  8
SEMA2D
100
AcDbLine
 62
7
  6
_SOLID
370
9
 10
1.44277119636536
 20
0.800421237945557
 11
1.44358563423157
 21
0.794626355171204
  0
LINE
  5
68
100
AcDbEntity
  8
SEMA2D
100
AcDbLine
 62
7
  6
_SOLID
370
9
 10
1.45576214790344
 20
0.805036246776581
 11
1.45576214790344
 21
0.806498467922211
  0
LINE
  5
69
100
AcDbEntity
  8
SEMA2D
100
AcDbLine
 62
7
  6
_SOLID
370
9
 10
1.44292819499969
 20
0.811754167079926
 11
1.44185423851013
 21
0.804112553596497
  0
LINE
  5
6A
100
AcDbEntity
  8
SEMA2D
100
AcDbLine
 62
7
  6
_SOLID
370
9
 10
1.44292211532593
 20
0.811754167079926
 11
1.44184815883636
 21
0.804112613201141
  0
LINE
  5
6B
100
AcDbEntity
  8
SEMA2D
100
AcDbLine
 62
7
  6
_SOLID
370
9
 10
1.44185423851013
 20
0.800421237945557
 11
1.44185423851013
 21
0.804112553596497
  0
LINE
  5
6C
100
AcDbEntity
  8
SEMA2D
100
AcDbLine
 62
7
  6
_SOLID
370
9
 10
1.44184815883636
 20
0.804112613201141
 11
1.44184815883636
 21
0.800421237945557
  0
LINE
  5
6D
100
AcDbEntity
  8
SEMA2D
100
AcDbLine
 62
7
  6
_SOLID
370
9
 10
1.57411849498749
 20
0.795806288719177
 11
1.60538232326508
 21
0.795806288719177
  0
LINE
  5
6E
100
AcDbEntity
  8
SEMA2D
100
AcDbLine
 62
7
  6
_SOLID
370
9
 10
1.53377735614777
 20
0.795806288719177
 11
1.56534171104431
 21
0.795806288719177
  0
LINE
  5
6F
100
AcDbEntity
  8
SEMA2D
100
AcDbLine
 62
7
  6
_SOLID
370
9
 10
1.56557714939117
 20
0.777346253395081
 11
1.56557714939117
 21
0.7787144780159
  0
LINE
  5
70
100
AcDbEntity
  8
SEMA2D
100
AcDbLine
 62
7
  6
_SOLID
370
9
 10
1.56557714939117
 20
0.7787144780159
 11
1.5609974861145
 21
0.795806288719177
  0
LINE
  5
71
100
AcDbEntity
  8
SEMA2D
100
AcDbLine
 62
7
  6
_SOLID
370
9
 10
1.56290256977081
 20
0.7787144780159
 11
1.55832278728485
 21
0.795806288719177
  0
LINE
  5
72
100
AcDbEntity
  8
SEMA2D
100
AcDbLine
 62
7
  6
_SOLID
370
9
 10
1.4963196516037
 20
0.793960273265839
 11
1.48444545269012
 21
0.793960273265839
  0
LINE
  5
73
100
AcDbEntity
  8
SEMA2D
100
AcDbLine
 62
7
  6
_SOLID
370
9
 10
1.63667964935303
 20
0.793037295341492
 11
1.64424335956573
 21
0.793037295341492
  0
LINE
  5
74
100
AcDbEntity
  8
SEMA2D
100
AcDbLine
 62
7
  6
_SOLID
370
9
 10
1.49681425094604
 20
0.794883251190186
 11
1.48604416847229
 21
0.794883251190186
  0
LINE
  5
75
100
AcDbEntity
  8
SEMA2D
100
AcDbLine
 62
7
  6
_SOLID
370
9
 10
1.47579431533813
 20
0.805036246776581
 11
1.48525631427765
 21
0.805036246776581
  0
LINE
  5
76
100
AcDbEntity
  8
SEMA2D
100
AcDbLine
 62
7
  6
_SOLID
370
9
 10
1.45576214790344
 20
0.805036246776581
 11
1.46190965175629
 21
0.805036246776581
  0
LINE
  5
77
100
AcDbEntity
  8
SEMA2D
100
AcDbLine
 62
7
  6
_SOLID
370
9
 10
1.44277727603912
 20
0.800421237945557
 11
1.44185423851013
 21
0.800421237945557
  0
LINE
  5
78
100
AcDbEntity
  8
SEMA2D
100
AcDbLine
 62
7
  6
_SOLID
370
9
 10
1.58156538009644
 20
0.812046527862549
 11
1.59302961826324
 21
0.823510766029358
  0
LINE
  5
79
100
AcDbEntity
  8
SEMA2D
100
AcDbLine
 62
7
  6
_SOLID
370
9
 10
1.57846283912659
 20
0.795806288719177
 11
1.57388305664062
 21
0.7787144780159
  0
LINE
  5
7A
100
AcDbEntity
  8
SEMA2D
100
AcDbLine
 62
7
  6
_SOLID
370
9
 10
1.57388305664062
 20
0.777346253395081
 11
1.57388305664062
 21
0.7787144780159
  0
LINE
  5
7B
100
AcDbEntity
  8
SEMA2D
100
AcDbLine
 62
7
  6
_SOLID
370
9
 10
1.5767035484314
 20
0.813711285591126
 11
1.58948111534119
 21
0.826488792896271
  0
LINE
  5
7C
100
AcDbEntity
  8
SEMA2D
100
AcDbLine
 62
7
  6
_SOLID
370
9
 10
1.57027041912079
 20
0.813804745674133
 11
1.58330476284027
 21
0.82683914899826
  0
LINE
  5
7D
100
AcDbEntity
  8
SEMA2D
100
AcDbLine
 62
7
  6
_SOLID
370
9
 10
1.50159204006195
 20
0.79949826002121
 11
1.51111304759979
 21
0.79949826002121
  0
LINE
  5
7E
100
AcDbEntity
  8
SEMA2D
100
AcDbLine
 62
7
  6
_SOLID
370
9
 10
1.60961198806763
 20
0.793037295341492
 11
1.61324000358582
 21
0.793037295341492
  0
LINE
  5
7F
100
AcDbEntity
  8
SEMA2D
100
AcDbLine
 62
7
  6
_SOLID
370
9
 10
1.56373190879822
 20
0.813792884349823
 11
1.57897329330444
 21
0.829034268856049
  0
LINE
  5
80
100
AcDbEntity
  8
SEMA2D
100
AcDbLine
 62
7
  6
_SOLID
370
9
 10
1.54574537277222
 20
0.795806288719177
 11
1.55223560333252
 21
0.80229651927948
  0
LINE
  5
81
100
AcDbEntity
  8
SEMA2D
100
AcDbLine
 62
7
  6
_SOLID
370
9
 10
1.5392187833786
 20
0.795806288719177
 11
1.57244670391083
 21
0.829034268856049
  0
LINE
  5
82
100
AcDbEntity
  8
SEMA2D
100
AcDbLine
 62
7
  6
_SOLID
370
9
 10
1.64386665821075
 20
0.7921142578125
 11
1.63991069793701
 21
0.7921142578125
  0
LINE
  5
83
100
AcDbEntity
  8
SEMA2D
100
AcDbLine
 62
7
  6
_SOLID
370
9
 10
1.53219187259674
 20
0.795306026935577
 11
1.56592011451721
 21
0.829034268856049
  0
LINE
  5
84
100
AcDbEntity
  8
SEMA2D
100
AcDbLine
 62
7
  6
_SOLID
370
9
 10
1.52997398376465
 20
0.79308807849884
 11
1.53150856494904
 21
0.794622659683228
  0
LINE
  5
85
100
AcDbEntity
  8
SEMA2D
100
AcDbLine
 62
7
  6
_SOLID
370
9
 10
1.57388305664062
 20
0.7787144780159
 11
1.56557714939117
 21
0.7787144780159
  0
LINE
  5
86
100
AcDbEntity
  8
SEMA2D
100
AcDbLine
 62
7
  6
_SOLID
370
9
 10
1.53046655654907
 20
0.779637515544891
 11
1.51293063163757
 21
0.779637515544891
  0
LINE
  5
87
100
AcDbEntity
  8
SEMA2D
100
AcDbLine
 62
7
  6
_SOLID
370
9
 10
1.63245809078217
 20
0.779637515544891
 11
1.61446070671082
 21
0.779637515544891
  0
LINE
  5
88
100
AcDbEntity
  8
SEMA2D
100
AcDbLine
 62
7
  6
_SOLID
370
9
 10
1.52585566043854
 20
0.793037295341492
 11
1.52954769134521
 21
0.793037295341492
  0
LINE
  5
89
100
AcDbEntity
  8
SEMA2D
100
AcDbLine
 62
7
  6
_SOLID
370
9
 10
1.4454197883606
 20
0.793037295341492
 11
1.4963196516037
 21
0.793037295341492
  0
LINE
  5
8A
100
AcDbEntity
  8
SEMA2D
100
AcDbLine
 62
7
  6
_SOLID
370
9
 10
1.48930251598358
 20
0.7921142578125
 11
1.4967805147171
 21
0.7921142578125
  0
LINE
  5
8B
100
AcDbEntity
  8
SEMA2D
100
AcDbLine
 62
7
  6
_SOLID
370
9
 10
1.57154417037964
 20
0.793037295341492
 11
1.56791615486145
 21
0.793037295341492
  0
LINE
  5
8C
100
AcDbEntity
  8
SEMA2D
100
AcDbLine
 62
7
  6
_SOLID
370
9
 10
1.67743706703186
 20
0.813804745674133
 11
1.68492662906647
 21
0.813804745674133
  0
LINE
  5
8D
100
AcDbEntity
  8
SEMA2D
100
AcDbLine
 62
7
  6
_SOLID
370
9
 10
1.5642796754837
 20
0.813804745674133
 11
1.5751805305481
 21
0.813804745674133
  0
LINE
  5
8E
100
AcDbEntity
  8
SEMA2D
100
AcDbLine
 62
7
  6
_SOLID
370
9
 10
1.67682433128357
 20
0.813762247562408
 11
1.68416118621826
 21
0.813762247562408
  0
LINE
  5
8F
100
AcDbEntity
  8
SEMA2D
100
AcDbLine
 62
7
  6
_SOLID
370
9
 10
1.44475626945496
 20
0.813343286514282
 11
1.44767439365387
 21
0.813343286514282
  0
LINE
  5
90
100
AcDbEntity
  8
SEMA2D
100
AcDbLine
 62
7
  6
_SOLID
370
9
 10
1.58665263652802
 20
0.804080545902252
 11
1.59677708148956
 21
0.814205050468445
  0
LINE
  5
91
100
AcDbEntity
  8
SEMA2D
100
AcDbLine
 62
7
  6
_SOLID
370
9
 10
1.58113741874695
 20
0.795806288719177
 11
1.57655775547028
 21
0.7787144780159
  0
LINE
  5
92
100
AcDbEntity
  8
SEMA2D
100
AcDbLine
 62
7
  6
_SOLID
370
9
 10
1.6527304649353
 20
0.815650761127472
 11
1.6634509563446
 21
0.815650761127472
  0
LINE
  5
93
100
AcDbEntity
  8
SEMA2D
100
AcDbLine
 62
7
  6
_SOLID
370
9
 10
1.58823835849762
 20
0.799139738082886
 11
1.59961199760437
 21
0.810513377189636
  0
LINE
  5
94
100
AcDbEntity
  8
SEMA2D
100
AcDbLine
 62
7
  6
_SOLID
370
9
 10
1.44973933696747
 20
0.811800718307495
 11
1.44949531555176
 21
0.811800718307495
  0
LINE
  5
95
100
AcDbEntity
  8
SEMA2D
100
AcDbLine
 62
7
  6
_SOLID
370
9
 10
1.46127283573151
 20
0.80818909406662
 11
1.45321643352509
 21
0.80818909406662
  0
LINE
  5
96
100
AcDbEntity
  8
SEMA2D
100
AcDbLine
 62
7
  6
_SOLID
370
9
 10
1.69014549255371
 20
0.807805240154266
 11
1.69382035732269
 21
0.807805240154266
  0
LINE
  5
97
100
AcDbEntity
  8
SEMA2D
100
AcDbLine
 62
7
  6
_SOLID
370
9
 10
1.66908431053162
 20
0.807805240154266
 11
1.67081916332245
 21
0.807805240154266
  0
LINE
  5
98
100
AcDbEntity
  8
SEMA2D
100
AcDbLine
 62
7
  6
_SOLID
370
9
 10
1.44998002052307
 20
0.808892548084259
 11
1.45025956630707
 21
0.808892607688904
  0
LINE
  5
99
100
AcDbEntity
  8
SEMA2D
100
AcDbLine
 62
7
  6
_SOLID
370
9
 10
1.60194480419159
 20
0.808728277683258
 11
1.61594867706299
 21
0.808728277683258
  0
LINE
  5
9A
100
AcDbEntity
  8
SEMA2D
100
AcDbLine
 62
7
  6
_SOLID
370
9
 10
1.52762293815613
 20
0.808728277683258
 11
1.53642213344574
 21
0.808728277683258
  0
LINE
  5
9B
100
AcDbEntity
  8
SEMA2D
100
AcDbLine
 62
7
  6
_SOLID
370
9
 10
1.45576214790344
 20
0.806498467922211
 11
1.46313869953156
 21
0.806498467922211
  0
LINE
  5
9C
100
AcDbEntity
  8
SEMA2D
100
AcDbLine
 62
7
  6
_SOLID
370
9
 10
1.58486807346344
 20
0.808822691440582
 11
1.59463512897491
 21
0.818589746952057
  0
LINE
  5
9D
100
AcDbEntity
  8
SEMA2D
100
AcDbLine
 62
7
  6
_SOLID
370
9
 10
1.47702419757843
 20
0.806498467922211
 11
1.48648536205292
 21
0.806498467922211
  0
LINE
  5
9E
100
AcDbEntity
  8
SEMA2D
100
AcDbLine
 62
7
  6
_SOLID
370
9
 10
1.66729998588562
 20
0.811035752296448
 11
1.64876914024353
 21
0.811035752296448
  0
LINE
  5
9F
100
AcDbEntity
  8
SEMA2D
100
AcDbLine
 62
7
  6
_SOLID
370
9
 10
1.68810176849365
 20
0.811035752296448
 11
1.6731915473938
 21
0.811035752296448
  0
LINE
  5
A0
100
AcDbEntity
  8
SEMA2D
100
AcDbLine
 62
7
  6
_SOLID
370
9
 10
1.4686291217804
 20
0.811497271060944
 11
1.46914446353912
 21
0.811497271060944
  0
LINE
  5
A1
100
AcDbEntity
  8
SEMA2D
100
AcDbLine
 62
7
  6
_SOLID
370
9
 10
1.46127283573151
 20
0.809651255607605
 11
1.45019245147705
 21
0.809651255607605
  0
LINE
  5
A2
100
AcDbEntity
  8
SEMA2D
100
AcDbLine
 62
7
  6
_SOLID
370
9
 10
1.53135812282562
 20
0.778269290924072
 11
1.51203906536102
 21
0.778269290924072
  0
LINE
  5
A3
100
AcDbEntity
  8
SEMA2D
100
AcDbLine
 62
7
  6
_SOLID
370
9
 10
1.48648536205292
 20
0.805205583572388
 11
1.48648536205292
 21
0.806498467922211
  0
LINE
  5
A4
100
AcDbEntity
  8
SEMA2D
100
AcDbLine
 62
7
  6
_SOLID
370
9
 10
1.46775710582733
 20
0.827572047710419
 11
1.4649099111557
 21
0.811246752738953
  0
LINE
  5
A5
100
AcDbEntity
  8
SEMA2D
100
AcDbLine
 62
7
  6
_SOLID
370
9
 10
1.46593856811523
 20
0.82750540971756
 11
1.4630913734436
 21
0.811180114746094
  0
LINE
  5
A6
100
AcDbEntity
  8
SEMA2D
100
AcDbLine
 62
7
  6
_SOLID
370
9
 10
1.46313869953156
 20
0.805205345153809
 11
1.46313869953156
 21
0.806498467922211
  0
LINE
  5
A7
100
AcDbEntity
  8
SEMA2D
100
AcDbLine
 62
7
  6
_SOLID
370
9
 10
1.46775710582733
 20
0.827572047710419
 11
1.46775710582733
 21
0.829034268856049
  0
LINE
  5
A8
100
AcDbEntity
  8
SEMA2D
100
AcDbLine
 62
7
  6
_SOLID
370
9
 10
1.44949531555176
 20
0.811800718307495
 11
1.44998002052307
 21
0.808892548084259
  0
LINE
  5
A9
100
AcDbEntity
  8
SEMA2D
100
AcDbLine
 62
7
  6
_SOLID
370
9
 10
1.46127283573151
 20
0.80818909406662
 11
1.46127283573151
 21
0.809651255607605
  0
LINE
  5
AA
100
AcDbEntity
  8
SEMA2D
100
AcDbLine
 62
7
  6
_SOLID
370
9
 10
1.45025956630707
 20
0.808899521827698
 11
1.44986009597778
 21
0.811321318149567
  0
LINE
  5
AB
100
AcDbEntity
  8
SEMA2D
100
AcDbLine
 62
7
  6
_SOLID
370
9
 10
1.46634709835052
 20
0.808383405208588
 11
1.46685421466827
 21
0.810158371925354
  0
LINE
  5
AC
100
AcDbEntity
  8
SEMA2D
100
AcDbLine
 62
7
  6
_SOLID
370
9
 10
1.46684801578522
 20
0.810158431529999
 11
1.46634089946747
 21
0.808383405208588
  0
LINE
  5
AD
100
AcDbEntity
  8
SEMA2D
100
AcDbLine
 62
7
  6
_SOLID
370
9
 10
1.44185423851013
 20
0.802867293357849
 11
1.44967997074127
 21
0.810692965984344
  0
LINE
  5
AE
100
AcDbEntity
  8
SEMA2D
100
AcDbLine
 62
7
  6
_SOLID
370
9
 10
1.44271779060364
 20
0.810257494449615
 11
1.44580364227295
 21
0.813343286514282
  0
LINE
  5
AF
100
AcDbEntity
  8
SEMA2D
100
AcDbLine
 62
7
  6
_SOLID
370
9
 10
1.47702419757843
 20
0.805036246776581
 11
1.47702419757843
 21
0.806498467922211
  0
LINE
  5
B0
100
AcDbEntity
  8
SEMA2D
100
AcDbLine
 62
7
  6
_SOLID
370
9
 10
1.52819514274597
 20
0.812190651893616
 11
1.52819514274597
 21
0.808728277683258
  0
LINE
  5
B1
100
AcDbEntity
  8
SEMA2D
100
AcDbLine
 62
7
  6
_SOLID
370
9
 10
1.5063910484314
 20
0.802138149738312
 11
1.51583182811737
 21
0.811578989028931
  0
LINE
  5
B2
100
AcDbEntity
  8
SEMA2D
100
AcDbLine
 62
7
  6
_SOLID
370
9
 10
1.4926096200943
 20
0.794883251190186
 11
1.51183760166168
 21
0.814111292362213
  0
LINE
  5
B3
100
AcDbEntity
  8
SEMA2D
100
AcDbLine
 62
7
  6
_SOLID
370
9
 10
1.50474667549133
 20
0.801344275474548
 11
1.50564336776733
 21
0.802642405033112
  0
LINE
  5
B4
100
AcDbEntity
  8
SEMA2D
100
AcDbLine
 62
7
  6
_SOLID
370
9
 10
1.51830065250397
 20
0.815770506858826
 11
1.52512788772583
 21
0.829034268856049
  0
LINE
  5
B5
100
AcDbEntity
  8
SEMA2D
100
AcDbLine
 62
7
  6
_SOLID
370
9
 10
1.48608303070068
 20
0.794883251190186
 11
1.50844669342041
 21
0.817246973514557
  0
LINE
  5
B6
100
AcDbEntity
  8
SEMA2D
100
AcDbLine
 62
7
  6
_SOLID
370
9
 10
1.47771036624908
 20
0.793037295341492
 11
1.50564813613892
 21
0.820975005626679
  0
LINE
  5
B7
100
AcDbEntity
  8
SEMA2D
100
AcDbLine
 62
7
  6
_SOLID
370
9
 10
1.50473928451538
 20
0.801346004009247
 11
1.50563776493073
 21
0.802646219730377
  0
LINE
  5
B8
100
AcDbEntity
  8
SEMA2D
100
AcDbLine
 62
7
  6
_SOLID
370
9
 10
1.54598259925842
 20
0.822149872779846
 11
1.55043089389801
 21
0.826598227024078
  0
LINE
  5
B9
100
AcDbEntity
  8
SEMA2D
100
AcDbLine
 62
7
  6
_SOLID
370
9
 10
1.52033126354218
 20
0.796498537063599
 11
1.53256094455719
 21
0.808728277683258
  0
LINE
  5
BA
100
AcDbEntity
  8
SEMA2D
100
AcDbLine
 62
7
  6
_SOLID
370
9
 10
1.53747367858887
 20
0.795806288719177
 11
1.53314125537872
 21
0.779637515544891
  0
LINE
  5
BB
100
AcDbEntity
  8
SEMA2D
100
AcDbLine
 62
7
  6
_SOLID
370
9
 10
1.63334965705872
 20
0.778269290924072
 11
1.61356914043427
 21
0.778269290924072
  0
LINE
  5
BC
100
AcDbEntity
  8
SEMA2D
100
AcDbLine
 62
7
  6
_SOLID
370
9
 10
1.57477462291718
 20
0.777346253395081
 11
1.56468558311462
 21
0.777346253395081
  0
LINE
  5
BD
100
AcDbEntity
  8
SEMA2D
100
AcDbLine
 62
7
  6
_SOLID
370
9
 10
1.52428066730499
 20
0.7939213514328
 11
1.5593935251236
 21
0.829034268856049
  0
LINE
  5
BE
100
AcDbEntity
  8
SEMA2D
100
AcDbLine
 62
7
  6
_SOLID
370
9
 10
1.51055133342743
 20
0.799771785736084
 11
1.52050697803497
 21
0.809727489948273
  0
LINE
  5
BF
100
AcDbEntity
  8
SEMA2D
100
AcDbLine
 62
7
  6
_SOLID
370
9
 10
1.53046655654907
 20
0.778269290924072
 11
1.53046655654907
 21
0.779637515544891
  0
LINE
  5
C0
100
AcDbEntity
  8
SEMA2D
100
AcDbLine
 62
7
  6
_SOLID
370
9
 10
1.52972114086151
 20
0.829034268856049
 11
1.52972114086151
 21
0.82768052816391
  0
LINE
  5
C1
100
AcDbEntity
  8
SEMA2D
100
AcDbLine
 62
7
  6
_SOLID
370
9
 10
1.53479897975922
 20
0.795806288719177
 11
1.53046655654907
 21
0.779637515544891
  0
LINE
  5
C2
100
AcDbEntity
  8
SEMA2D
100
AcDbLine
 62
7
  6
_SOLID
370
9
 10
1.5151686668396
 20
0.797862529754639
 11
1.52608346939087
 21
0.808777391910553
  0
LINE
  5
C3
100
AcDbEntity
  8
SEMA2D
100
AcDbLine
 62
7
  6
_SOLID
370
9
 10
1.44510531425476
 20
0.793065190315247
 11
1.45707643032074
 21
0.805036246776581
  0
LINE
  5
C4
100
AcDbEntity
  8
SEMA2D
100
AcDbLine
 62
7
  6
_SOLID
370
9
 10
1.44316637516022
 20
0.797652840614319
 11
1.45160150527954
 21
0.806087970733643
  0
LINE
  5
C5
100
AcDbEntity
  8
SEMA2D
100
AcDbLine
 62
7
  6
_SOLID
370
9
 10
1.46589624881744
 20
0.807329535484314
 11
1.46989488601685
 21
0.811328113079071
  0
LINE
  5
C6
100
AcDbEntity
  8
SEMA2D
100
AcDbLine
 62
7
  6
_SOLID
370
9
 10
1.45160400867462
 20
0.793037295341492
 11
1.46423017978668
 21
0.805663406848908
  0
LINE
  5
C7
100
AcDbEntity
  8
SEMA2D
100
AcDbLine
 62
7
  6
_SOLID
370
9
 10
1.4963196516037
 20
0.793037295341492
 11
1.4963196516037
 21
0.793960273265839
  0
LINE
  5
C8
100
AcDbEntity
  8
SEMA2D
100
AcDbLine
 62
7
  6
_SOLID
370
9
 10
1.49127507209778
 20
0.793037295341492
 11
1.49127507209778
 21
0.794883251190186
  0
LINE
  5
C9
100
AcDbEntity
  8
SEMA2D
100
AcDbLine
 62
7
  6
_SOLID
370
9
 10
1.49153506755829
 20
0.816358506679535
 11
1.48974692821503
 21
0.808613121509552
  0
LINE
  5
CA
100
AcDbEntity
  8
SEMA2D
100
AcDbLine
 62
7
  6
_SOLID
370
9
 10
1.4917505979538
 20
0.81772780418396
 11
1.49248826503754
 21
0.827329695224762
  0
LINE
  5
CB
100
AcDbEntity
  8
SEMA2D
100
AcDbLine
 62
7
  6
_SOLID
370
9
 10
1.51025605201721
 20
0.779637515544891
 11
1.50493431091309
 21
0.79949826002121
  0
LINE
  5
CC
100
AcDbEntity
  8
SEMA2D
100
AcDbLine
 62
7
  6
_SOLID
370
9
 10
1.49065148830414
 20
0.812505006790161
 11
1.5034875869751
 21
0.825341105461121
  0
LINE
  5
CD
100
AcDbEntity
  8
SEMA2D
100
AcDbLine
 62
7
  6
_SOLID
370
9
 10
1.47118377685547
 20
0.793037295341492
 11
1.4831827878952
 21
0.805036246776581
  0
LINE
  5
CE
100
AcDbEntity
  8
SEMA2D
100
AcDbLine
 62
7
  6
_SOLID
370
9
 10
1.52181780338287
 20
0.828111290931702
 11
1.51691162586212
 21
0.817539989948273
  0
LINE
  5
CF
100
AcDbEntity
  8
SEMA2D
100
AcDbLine
 62
7
  6
_SOLID
370
9
 10
1.51293063163757
 20
0.778269290924072
 11
1.51293063163757
 21
0.779637515544891
  0
LINE
  5
D0
100
AcDbEntity
  8
SEMA2D
100
AcDbLine
 62
7
  6
_SOLID
370
9
 10
1.51293063163757
 20
0.779637515544891
 11
1.50760900974274
 21
0.79949826002121
  0
LINE
  5
D1
100
AcDbEntity
  8
SEMA2D
100
AcDbLine
 62
7
  6
_SOLID
370
9
 10
1.50473976135254
 20
0.801345884799957
 11
1.50473976135254
 21
0.79949826002121
  0
LINE
  5
D2
100
AcDbEntity
  8
SEMA2D
100
AcDbLine
 62
7
  6
_SOLID
370
9
 10
1.49249613285065
 20
0.827402830123901
 11
1.49411475658417
 21
0.829021394252777
  0
LINE
  5
D3
100
AcDbEntity
  8
SEMA2D
100
AcDbLine
 62
7
  6
_SOLID
370
9
 10
1.45813059806824
 20
0.793037295341492
 11
1.47204983234406
 21
0.806956470012665
  0
LINE
  5
D4
100
AcDbEntity
  8
SEMA2D
100
AcDbLine
 62
7
  6
_SOLID
370
9
 10
1.49195063114166
 20
0.820330679416657
 11
1.50052583217621
 21
0.828905880451202
  0
LINE
  5
D5
100
AcDbEntity
  8
SEMA2D
100
AcDbLine
 62
7
  6
_SOLID
370
9
 10
1.46465718746185
 20
0.793037295341492
 11
1.47665619850159
 21
0.805036246776581
  0
LINE
  5
D6
100
AcDbEntity
  8
SEMA2D
100
AcDbLine
 62
7
  6
_SOLID
370
9
 10
1.49767208099365
 20
0.792798399925232
 11
1.49978673458099
 21
0.800690352916718
  0
ARC
  5
D7
100
AcDbEntity
  8
SEMA2D
100
AcDbCircle
 62
7
  6
_SOLID
370
9
 10
1.63667964935303
 20
0.794883251190186
 40
0.00184599997010082
100
AcDbArc
 50
195
 51
270
  0
ARC
  5
D8
100
AcDbEntity
  8
SEMA2D
100
AcDbCircle
 62
7
  6
_SOLID
370
9
 10
1.69014549255371
 20
0.809558987617493
 40
0.00175369996577501
100
AcDbArc
 50
197.263336181641
 51
270
  0
ARC
  5
D9
100
AcDbEntity
  8
SEMA2D
100
AcDbCircle
 62
7
  6
_SOLID
370
9
 10
1.61356914043427
 20
0.780115246772766
 40
0.00184599997010082
100
AcDbArc
 50
195
 51
270
  0
ARC
  5
DA
100
AcDbEntity
  8
SEMA2D
100
AcDbCircle
 62
7
  6
_SOLID
370
9
 10
1.63334965705872
 20
0.780115246772766
 40
0.00184599997010082
100
AcDbArc
 50
270
 51
345
  0
ARC
  5
DB
100
AcDbEntity
  8
SEMA2D
100
AcDbCircle
 62
7
  6
_SOLID
370
9
 10
1.4963196516037
 20
0.794883251190186
 40
0.00184599997010082
100
AcDbArc
 50
270
 51
345
  0
ARC
  5
DC
100
AcDbEntity
  8
SEMA2D
100
AcDbCircle
 62
7
  6
_SOLID
370
9
 10
1.56791615486145
 20
0.794883251190186
 40
0.00184599997010082
100
AcDbArc
 50
203.578186035156
 51
270
  0
ARC
  5
DD
100
AcDbEntity
  8
SEMA2D
100
AcDbCircle
 62
7
  6
_SOLID
370
9
 10
1.57154417037964
 20
0.794883251190186
 40
0.00184599997010082
100
AcDbArc
 50
270
 51
336.421905517578
  0
ARC
  5
DE
100
AcDbEntity
  8
SEMA2D
100
AcDbCircle
 62
7
  6
_SOLID
370
9
 10
1.63991069793701
 20
0.793037295341492
 40
0.00092299998505041
100
AcDbArc
 50
195
 51
270
  0
ARC
  5
DF
100
AcDbEntity
  8
SEMA2D
100
AcDbCircle
 62
7
  6
_SOLID
370
9
 10
1.48930251598358
 20
0.793037295341492
 40
0.00092299998505041
100
AcDbArc
 50
210
 51
270
  0
ARC
  5
E0
100
AcDbEntity
  8
SEMA2D
100
AcDbCircle
 62
7
  6
_SOLID
370
9
 10
1.4967805147171
 20
0.793037295341492
 40
0.00092299998505041
100
AcDbArc
 50
270
 51
345
  0
ARC
  5
E1
100
AcDbEntity
  8
SEMA2D
100
AcDbCircle
 62
7
  6
_SOLID
370
9
 10
1.50159204006195
 20
0.796729266643524
 40
0.00276899966411293
100
AcDbArc
 50
90
 51
165.000015258789
  0
ARC
  5
E2
100
AcDbEntity
  8
SEMA2D
100
AcDbCircle
 62
7
  6
_SOLID
370
9
 10
1.48770380020142
 20
0.7921142578125
 40
0.000922998820897192
100
AcDbArc
 50
30.000114440918
 51
90
  0
ARC
  5
E3
100
AcDbEntity
  8
SEMA2D
100
AcDbCircle
 62
7
  6
_SOLID
370
9
 10
1.57477462291718
 20
0.779192268848419
 40
0.00184599997010082
100
AcDbArc
 50
270
 51
345
  0
ARC
  5
E4
100
AcDbEntity
  8
SEMA2D
100
AcDbCircle
 62
7
  6
_SOLID
370
9
 10
1.56468558311462
 20
0.779192268848419
 40
0.00184599997010082
100
AcDbArc
 50
195
 51
270
  0
ARC
  5
E5
100
AcDbEntity
  8
SEMA2D
100
AcDbCircle
 62
7
  6
_SOLID
370
9
 10
1.53135812282562
 20
0.780115246772766
 40
0.00184599997010082
100
AcDbArc
 50
270
 51
345
  0
ARC
  5
E6
100
AcDbEntity
  8
SEMA2D
100
AcDbCircle
 62
7
  6
_SOLID
370
9
 10
1.51203906536102
 20
0.780115246772766
 40
0.00184599997010082
100
AcDbArc
 50
195
 51
270
  0
ARC
  5
E7
100
AcDbEntity
  8
SEMA2D
100
AcDbCircle
 62
7
  6
_SOLID
370
9
 10
1.64013969898224
 20
0.791191279888153
 40
0.00184599915519357
100
AcDbArc
 50
125.89429473877
 51
164.999984741211
  0
ARC
  5
E8
100
AcDbEntity
  8
SEMA2D
100
AcDbCircle
 62
7
  6
_SOLID
370
9
 10
1.56368637084961
 20
0.793037295341492
 40
0.00276899989694357
100
AcDbArc
 50
23.5781784057617
 51
90
  0
ARC
  5
E9
100
AcDbEntity
  8
SEMA2D
100
AcDbCircle
 62
7
  6
_SOLID
370
9
 10
1.52077949047089
 20
0.792669415473938
 40
0.00369199994020164
100
AcDbArc
 50
23.5629577636719
 51
80.7245101928711
  0
ARC
  5
EA
100
AcDbEntity
  8
SEMA2D
100
AcDbCircle
 62
7
  6
_SOLID
370
9
 10
1.52762293815613
 20
0.83457225561142
 40
0.0387660004198551
100
AcDbArc
 50
235.13655090332
 51
260.724517822266
  0
ARC
  5
EB
100
AcDbEntity
  8
SEMA2D
100
AcDbCircle
 62
7
  6
_SOLID
370
9
 10
1.50335299968719
 20
0.799734771251678
 40
0.00369199994020164
100
AcDbArc
 50
55.1365585327148
 51
165
  0
ARC
  5
EC
100
AcDbEntity
  8
SEMA2D
100
AcDbCircle
 62
7
  6
_SOLID
370
9
 10
1.53377735614777
 20
0.793037295341492
 40
0.00276899989694357
100
AcDbArc
 50
90
 51
156.421813964844
  0
ARC
  5
ED
100
AcDbEntity
  8
SEMA2D
100
AcDbCircle
 62
7
  6
_SOLID
370
9
 10
1.52954769134521
 20
0.794883251190186
 40
0.00184599997010082
100
AcDbArc
 50
270
 51
336.421813964844
  0
ARC
  5
EE
100
AcDbEntity
  8
SEMA2D
100
AcDbCircle
 62
7
  6
_SOLID
370
9
 10
1.52585566043854
 20
0.794883251190186
 40
0.00184599997010082
100
AcDbArc
 50
203.562957763672
 51
270
  0
ARC
  5
EF
100
AcDbEntity
  8
SEMA2D
100
AcDbCircle
 62
7
  6
_SOLID
370
9
 10
1.48254156112671
 20
0.818434774875641
 40
0.00922999996691942
100
AcDbArc
 50
347
 51
355.60693359375
  0
ARC
  5
F0
100
AcDbEntity
  8
SEMA2D
100
AcDbCircle
 62
7
  6
_SOLID
370
9
 10
1.46862304210663
 20
0.809651255607605
 40
0.00184599997010082
100
AcDbArc
 50
162.912872314453
 51
164.054611206055
  0
ARC
  5
F1
100
AcDbEntity
  8
SEMA2D
100
AcDbCircle
 62
7
  6
_SOLID
370
9
 10
1.49432277679443
 20
0.82718825340271
 40
0.00184599997010082
100
AcDbArc
 50
174.143768310547
 51
175.60693359375
  0
ARC
  5
F2
100
AcDbEntity
  8
SEMA2D
100
AcDbCircle
 62
7
  6
_SOLID
370
9
 10
1.49681425094604
 20
0.796729266643524
 40
0.00184599997010082
100
AcDbArc
 50
270
 51
345
  0
ARC
  5
F3
100
AcDbEntity
  8
SEMA2D
100
AcDbCircle
 62
7
  6
_SOLID
370
9
 10
1.48604416847229
 20
0.793037295341492
 40
0.00184599997010082
100
AcDbArc
 50
90
 51
150
  0
ARC
  5
F4
100
AcDbEntity
  8
SEMA2D
100
AcDbCircle
 62
7
  6
_SOLID
370
9
 10
1.48284685611725
 20
0.794883251190186
 40
0.00184599997010082
100
AcDbArc
 50
270
 51
330
  0
ARC
  5
F5
100
AcDbEntity
  8
SEMA2D
100
AcDbCircle
 62
7
  6
_SOLID
370
9
 10
1.52762293815613
 20
0.83457225561142
 40
0.0258440002799034
100
AcDbArc
 50
198.2099609375
 51
270
  0
ARC
  5
F6
100
AcDbEntity
  8
SEMA2D
100
AcDbCircle
 62
7
  6
_SOLID
370
9
 10
1.64037156105042
 20
0.794883251190186
 40
0.00184599997010082
100
AcDbArc
 50
195
 51
270
  0
ARC
  5
F7
100
AcDbEntity
  8
SEMA2D
100
AcDbCircle
 62
7
  6
_SOLID
370
9
 10
1.63481593132019
 20
0.797786593437195
 40
0.00276899989694357
100
AcDbArc
 50
14.9999990463257
 51
117.667762756348
  0
ARC
  5
F8
100
AcDbEntity
  8
SEMA2D
100
AcDbCircle
 62
7
  6
_SOLID
370
9
 10
1.57577383518219
 20
0.793037295341492
 40
0.00276899989694357
100
AcDbArc
 50
90
 51
156.421813964844
  0
ARC
  5
F9
100
AcDbEntity
  8
SEMA2D
100
AcDbCircle
 62
7
  6
_SOLID
370
9
 10
1.46775710582733
 20
0.82718825340271
 40
0.00184599997010082
100
AcDbArc
 50
90
 51
170.106704711914
  0
ARC
  5
FA
100
AcDbEntity
  8
SEMA2D
100
AcDbCircle
 62
7
  6
_SOLID
370
9
 10
1.49956607818604
 20
0.825342237949371
 40
0.00369199994020164
100
AcDbArc
 50
18.2099571228027
 51
90
  0
ARC
  5
FB
100
AcDbEntity
  8
SEMA2D
100
AcDbCircle
 62
7
  6
_SOLID
370
9
 10
1.60961198806763
 20
0.794883251190186
 40
0.00184599997010082
100
AcDbArc
 50
203.578186035156
 51
270
  0
ARC
  5
FC
100
AcDbEntity
  8
SEMA2D
100
AcDbCircle
 62
7
  6
_SOLID
370
9
 10
1.60538232326508
 20
0.793037295341492
 40
0.00276899989694357
100
AcDbArc
 50
23.5781784057617
 51
90
  0
ARC
  5
FD
100
AcDbEntity
  8
SEMA2D
100
AcDbCircle
 62
7
  6
_SOLID
370
9
 10
1.46127283573151
 20
0.811497271060944
 40
0.00184599997010082
100
AcDbArc
 50
270
 51
350.106719970703
  0
ARC
  5
FE
100
AcDbEntity
  8
SEMA2D
100
AcDbCircle
 62
7
  6
_SOLID
370
9
 10
1.61552929878235
 20
0.83457225561142
 40
0.0387660004198551
100
AcDbArc
 50
272.705169677734
 51
297.667755126953
  0
ARC
  5
FF
100
AcDbEntity
  8
SEMA2D
100
AcDbCircle
 62
7
  6
_SOLID
370
9
 10
1.61748969554901
 20
0.793083548545837
 40
0.00276899989694357
100
AcDbArc
 50
90
 51
157.047332763672
  0
ARC
  5
100
100
AcDbEntity
  8
SEMA2D
100
AcDbCircle
 62
7
  6
_SOLID
370
9
 10
1.61324000358582
 20
0.794883251190186
 40
0.00184599997010082
100
AcDbArc
 50
270
 51
337.047332763672
  0
ARC
  5
101
100
AcDbEntity
  8
SEMA2D
100
AcDbCircle
 62
7
  6
_SOLID
370
9
 10
1.45494794845581
 20
0.80972695350647
 40
0.00476082880049944
100
AcDbArc
 50
190.009033203125
 51
279.847229003906
  0
ARC
  5
102
100
AcDbEntity
  8
SEMA2D
100
AcDbCircle
 62
7
  6
_SOLID
370
9
 10
1.44466769695282
 20
0.81159234046936
 40
0.00175314967054874
100
AcDbArc
 50
90
 51
174.703659057617
  0
ARC
  5
103
100
AcDbEntity
  8
SEMA2D
100
AcDbCircle
 62
7
  6
_SOLID
370
9
 10
1.44770848751068
 20
0.811537384986877
 40
0.00180619186721742
100
AcDbArc
 50
8.38290023803711
 51
90
  0
ARC
  5
104
100
AcDbEntity
  8
SEMA2D
100
AcDbCircle
 62
7
  6
_SOLID
370
9
 10
1.44538688659668
 20
0.794845342636108
 40
0.00180840527173132
100
AcDbArc
 50
186.956253051758
 51
270
  0
ARC
  5
105
100
AcDbEntity
  8
SEMA2D
100
AcDbCircle
 62
7
  6
_SOLID
370
9
 10
1.4619060754776
 20
0.809655904769897
 40
0.00461964216083288
100
AcDbArc
 50
270
 51
344.011199951172
  0
ARC
  5
106
100
AcDbEntity
  8
SEMA2D
100
AcDbCircle
 62
7
  6
_SOLID
370
9
 10
1.46914291381836
 20
0.80974155664444
 40
0.00175573374144733
100
AcDbArc
 50
15.9944190979004
 51
90
  0
ARC
  5
107
100
AcDbEntity
  8
SEMA2D
100
AcDbCircle
 62
7
  6
_SOLID
370
9
 10
1.46844935417175
 20
0.809887290000916
 40
0.00162001198623329
100
AcDbArc
 50
83.6254119873047
 51
169.097793579102
  0
ARC
  5
108
100
AcDbEntity
  8
SEMA2D
100
AcDbCircle
 62
7
  6
_SOLID
370
9
 10
1.47578954696655
 20
0.80963796377182
 40
0.00460169790312648
100
AcDbArc
 50
195.817123413086
 51
270
  0
LINE
  5
109
100
AcDbEntity
  8
SEMA2D
100
AcDbLine
 62
7
  6
_SOLID
370
9
 10
1.47083067893982
 20
0.810225307941437
 11
1.47137451171875
 21
0.808340668678284
  0
ARC
  5
10A
100
AcDbEntity
  8
SEMA2D
100
AcDbCircle
 62
7
  6
_SOLID
370
9
 10
1.48524475097656
 20
0.809665739536285
 40
0.00462948763743043
100
AcDbArc
 50
270
 51
346.857513427734
  0
ARC
  5
10B
100
AcDbEntity
  8
SEMA2D
100
AcDbCircle
 62
7
  6
_SOLID
370
9
 10
1.49425172805786
 20
0.827255547046661
 40
0.00177116773556918
100
AcDbArc
 50
90
 51
177.601837158203
  0
ARC
  5
10C
100
AcDbEntity
  8
SEMA2D
100
AcDbCircle
 62
7
  6
_SOLID
370
9
 10
1.53889954090118
 20
0.809142291545868
 40
0.0149904564023018
100
AcDbArc
 50
297.172698974609
 51
351.643371582031
  0
ARC
  5
10D
100
AcDbEntity
  8
SEMA2D
100
AcDbCircle
 62
7
  6
_SOLID
370
9
 10
1.56425595283508
 20
0.802287817001343
 40
0.0115169836208224
100
AcDbArc
 50
90
 51
156.04638671875
  0
ARC
  5
10E
100
AcDbEntity
  8
SEMA2D
100
AcDbCircle
 62
7
  6
_SOLID
370
9
 10
1.57562017440796
 20
0.802929043769836
 40
0.0108845829963684
100
AcDbArc
 50
21.7570190429687
 51
92.3147201538086
  0
ARC
  5
10F
100
AcDbEntity
  8
SEMA2D
100
AcDbCircle
 62
7
  6
_SOLID
370
9
 10
1.60002446174622
 20
0.80723363161087
 40
0.0142976911738515
100
AcDbArc
 50
181.081817626953
 51
233.057968139648
  0
ARC
  5
110
100
AcDbEntity
  8
SEMA2D
100
AcDbCircle
 62
7
  6
_SOLID
370
9
 10
1.6095415353775
 20
0.821072578430176
 40
0.0144945560023189
100
AcDbArc
 50
208.281066894531
 51
238.391586303711
  0
ARC
  5
111
100
AcDbEntity
  8
SEMA2D
100
AcDbCircle
 62
7
  6
_SOLID
370
9
 10
1.5849860906601
 20
0.835527718067169
 40
0.00884979218244553
100
AcDbArc
 50
227.201034545898
 51
263.978546142578
  0
ARC
  5
112
100
AcDbEntity
  8
SEMA2D
100
AcDbCircle
 62
7
  6
_SOLID
370
9
 10
1.58783292770386
 20
0.820921778678894
 40
0.00580584397539496
100
AcDbArc
 50
26.4825420379639
 51
90
  0
LINE
  5
113
100
AcDbEntity
  8
SEMA2D
100
AcDbLine
 62
7
  6
_SOLID
370
9
 10
1.59302961826324
 20
0.823510766029358
 11
1.59677708148956
 21
0.814205050468445
  0
LINE
  5
114
100
AcDbEntity
  8
SEMA2D
100
AcDbLine
 62
7
  6
_SOLID
370
9
 10
1.55430912971497
 20
0.826726794242859
 11
1.55063450336456
 21
0.826726794242859
  0
ARC
  5
115
100
AcDbEntity
  8
SEMA2D
100
AcDbCircle
 62
7
  6
_SOLID
370
9
 10
1.52882540225983
 20
0.821072578430176
 40
0.0144945560023189
100
AcDbArc
 50
301.6083984375
 51
331.718933105469
  0
ARC
  5
116
100
AcDbEntity
  8
SEMA2D
100
AcDbCircle
 62
7
  6
_SOLID
370
9
 10
1.55338072776794
 20
0.835527718067169
 40
0.00884979218244553
100
AcDbArc
 50
276.021453857422
 51
312.798980712891
  0
ARC
  5
117
100
AcDbEntity
  8
SEMA2D
100
AcDbCircle
 62
7
  6
_SOLID
370
9
 10
1.55053389072418
 20
0.820921778678894
 40
0.00580584397539496
100
AcDbArc
 50
90
 51
153.517456054687
  0
LINE
  5
118
100
AcDbEntity
  8
SEMA2D
100
AcDbLine
 62
7
  6
_SOLID
370
9
 10
1.54533731937408
 20
0.823510766029358
 11
1.54158973693848
 21
0.814205050468445
  0
ARC
  5
119
100
AcDbEntity
  8
SEMA2D
100
AcDbCircle
 62
7
  6
_SOLID
370
9
 10
1.63153672218323
 20
0.796245753765106
 40
0.00276900012977421
100
AcDbArc
 50
27.3573703765869
 51
112.583839416504
  0
ARC
  5
11A
100
AcDbEntity
  8
SEMA2D
100
AcDbCircle
 62
7
  6
_SOLID
370
9
 10
1.65294814109802
 20
0.810789823532104
 40
0.00486583029851317
100
AcDbArc
 50
92.5640411376953
 51
170.454895019531
  0
ARC
  5
11B
100
AcDbEntity
  8
SEMA2D
100
AcDbCircle
 62
7
  6
_SOLID
370
9
 10
1.67086720466614
 20
0.809586226940155
 40
0.00178161181975156
100
AcDbArc
 50
270
 51
344.442199707031
  0
ARC
  5
11C
100
AcDbEntity
  8
SEMA2D
100
AcDbCircle
 62
7
  6
_SOLID
370
9
 10
1.67730176448822
 20
0.809373080730438
 40
0.00443373899906874
100
AcDbArc
 50
90
 51
164.647308349609
  0
ARC
  5
11D
100
AcDbEntity
  8
SEMA2D
100
AcDbCircle
 62
7
  6
_SOLID
370
9
 10
1.68434059619904
 20
0.809927821159363
 40
0.0039209621027112
100
AcDbArc
 50
357.083557128906
 51
81.4055404663086
  0
ARC
  5
11E
100
AcDbEntity
  8
SEMA2D
100
AcDbCircle
 62
7
  6
_SOLID
370
9
 10
1.69350230693817
 20
0.809924900531769
 40
0.00214335415512323
100
AcDbArc
 50
278.534637451172
 51
343.465362548828
  0
LINE
  5
11F
100
AcDbEntity
  8
SEMA2D
100
AcDbLine
 62
7
  6
_SOLID
370
9
 10
1.68825650215149
 20
0.8097283244133
 11
1.6884708404541
 21
0.809038519859314
  0
ARC
  5
120
100
AcDbEntity
  8
SEMA2D
100
AcDbCircle
 62
7
  6
_SOLID
370
9
 10
1.694953083992
 20
0.827372670173645
 40
0.00166160066146404
100
AcDbArc
 50
8.00601673126221
 51
90
  0
ARC
  5
121
100
AcDbEntity
  8
SEMA2D
100
AcDbCircle
 62
7
  6
_SOLID
370
9
 10
1.66359603404999
 20
0.812131404876709
 40
0.00352004682645202
100
AcDbArc
 50
-0.63009512424469
 51
90
  0
ARC
  5
122
100
AcDbEntity
  8
SEMA2D
100
AcDbCircle
 62
7
  6
_SOLID
370
9
 10
1.66962552070618
 20
0.810077846050262
 40
0.00233609578572214
100
AcDbArc
 50
174.542449951172
 51
256.605682373047
  0
LINE
  5
123
100
AcDbEntity
  8
SEMA2D
100
AcDbLine
 62
7
  6
_SOLID
370
9
 10
1.66711592674255
 20
0.81209272146225
 11
1.66729998588562
 21
0.81029999256134
  0
ARC
  5
124
100
AcDbEntity
  8
SEMA2D
100
AcDbCircle
 62
7
  6
_SOLID
370
9
 10
1.64419913291931
 20
0.825342237949371
 40
0.00369199994020164
100
AcDbArc
 50
90
 51
161.7900390625
  0
ARC
  5
125
100
AcDbEntity
  8
SEMA2D
100
AcDbCircle
 62
7
  6
_SOLID
370
9
 10
1.61614239215851
 20
0.83457225561142
 40
0.0258440002799034
100
AcDbArc
 50
270
 51
341.7900390625
  0
ARC
  5
126
100
AcDbEntity
  8
SEMA2D
100
AcDbCircle
 62
7
  6
_SOLID
370
9
 10
1.64383721351624
 20
0.795342206954956
 40
0.00234047579579055
100
AcDbArc
 50
279.994262695313
 51
343.024688720703
  0
ARC
  5
127
100
AcDbEntity
  8
SEMA2D
100
AcDbCircle
 62
7
  6
_SOLID
370
9
 10
1.64372706413269
 20
0.793279051780701
 40
0.00117309298366308
100
AcDbArc
 50
270
 51
1.02444434165955
  0
ARC
  5
128
100
AcDbEntity
  8
SEMA2D
100
AcDbCircle
 62
7
  6
_SOLID
370
9
 10
1.50864517688751
 20
0.825516164302826
 40
0.00351494201458991
100
AcDbArc
 50
16.1866149902344
 51
87.5509033203125
  0
ARC
  5
129
100
AcDbEntity
  8
SEMA2D
100
AcDbCircle
 62
7
  6
_SOLID
370
9
 10
1.54907655715942
 20
0.840977907180786
 40
0.0397851504385471
100
AcDbArc
 50
201.346221923828
 51
219.285308837891
  0
ARC
  5
12A
100
AcDbEntity
  8
SEMA2D
100
AcDbCircle
 62
7
  6
_SOLID
370
9
 10
1.5276392698288
 20
0.826117873191833
 40
0.0139383161440492
100
AcDbArc
 50
227.834442138672
 51
272.285736083984
  0
ARC
  5
12B
100
AcDbEntity
  8
SEMA2D
100
AcDbCircle
 62
7
  6
_SOLID
370
9
 10
1.61488282680511
 20
0.82542872428894
 40
0.0130232833325863
100
AcDbArc
 50
270
 51
309.856170654297
  0
ARC
  5
12C
100
AcDbEntity
  8
SEMA2D
100
AcDbCircle
 62
7
  6
_SOLID
370
9
 10
1.59719693660736
 20
0.838733613491058
 40
0.0349379479885101
100
AcDbArc
 50
318.166931152344
 51
339.496368408203
  0
ARC
  5
12D
100
AcDbEntity
  8
SEMA2D
100
AcDbCircle
 62
7
  6
_SOLID
370
9
 10
1.63344645500183
 20
0.825318396091461
 40
0.00371633376926184
100
AcDbArc
 50
93.3784561157227
 51
161.526260375977
  0
LINE
  5
12E
100
AcDbEntity
  8
SEMA2D
100
AcDbLine
 62
7
  6
_SOLID
370
9
 10
1.24650931358337
 20
0.323062866926193
 11
1.26245248317719
 21
0.339006066322327
  0
LINE
  5
12F
100
AcDbEntity
  8
SEMA2D
100
AcDbLine
 62
7
  6
_SOLID
370
9
 10
1.24639415740967
 20
0.329474300146103
 11
1.26032376289368
 21
0.343403875827789
  0
LINE
  5
130
100
AcDbEntity
  8
SEMA2D
100
AcDbLine
 62
7
  6
_SOLID
370
9
 10
1.24619567394257
 20
0.335802465677261
 11
1.25935781002045
 21
0.348964482545853
  0
LINE
  5
131
100
AcDbEntity
  8
SEMA2D
100
AcDbLine
 62
7
  6
_SOLID
370
9
 10
1.253990650177
 20
0.310964375734329
 11
1.27400600910187
 21
0.330979704856873
  0
LINE
  5
132
100
AcDbEntity
  8
SEMA2D
100
AcDbLine
 62
7
  6
_SOLID
370
9
 10
1.25044369697571
 20
0.313944041728973
 11
1.27002000808716
 21
0.333520323038101
  0
LINE
  5
133
100
AcDbEntity
  8
SEMA2D
100
AcDbLine
 62
7
  6
_SOLID
370
9
 10
1.247642993927
 20
0.317669957876205
 11
1.26599311828613
 21
0.336020052433014
  0
LINE
  5
134
100
AcDbEntity
  8
SEMA2D
100
AcDbLine
 62
7
  6
_SOLID
370
9
 10
1.29424917697906
 20
0.182462960481644
 11
1.29424917697906
 21
0.179454579949379
  0
LINE
  5
135
100
AcDbEntity
  8
SEMA2D
100
AcDbLine
 62
7
  6
_SOLID
370
9
 10
1.28562164306641
 20
0.222742915153503
 11
1.28562164306641
 21
0.223601937294006
  0
LINE
  5
136
100
AcDbEntity
  8
SEMA2D
100
AcDbLine
 62
7
  6
_SOLID
370
9
 10
1.26494705677032
 20
0.416765511035919
 11
1.26615726947784
 21
0.414783120155334
  0
LINE
  5
137
100
AcDbEntity
  8
SEMA2D
100
AcDbLine
 62
7
  6
_SOLID
370
9
 10
1.26494705677032
 20
0.336663335561752
 11
1.26615726947784
 21
0.338645726442337
  0
LINE
  5
138
100
AcDbEntity
  8
SEMA2D
100
AcDbLine
 62
7
  6
_SOLID
370
9
 10
1.29577469825745
 20
0.179508179426193
 11
1.29577469825745
 21
0.182477548718452
  0
LINE
  5
139
100
AcDbEntity
  8
SEMA2D
100
AcDbLine
 62
7
  6
_SOLID
370
9
 10
1.29577469825745
 20
0.585783123970032
 11
1.29577469825745
 21
0.581416666507721
  0
LINE
  5
13A
100
AcDbEntity
  8
SEMA2D
100
AcDbLine
 62
7
  6
_SOLID
370
9
 10
1.26436328887939
 20
0.262597680091858
 11
1.28008365631104
 21
0.278318047523499
  0
LINE
  5
13B
100
AcDbEntity
  8
SEMA2D
100
AcDbLine
 62
7
  6
_SOLID
370
9
 10
1.26439261436462
 20
0.269153654575348
 11
1.28008365631104
 21
0.284844636917114
  0
LINE
  5
13C
100
AcDbEntity
  8
SEMA2D
100
AcDbLine
 62
7
  6
_SOLID
370
9
 10
1.26439261436462
 20
0.275680243968964
 11
1.28008365631104
 21
0.29137122631073
  0
LINE
  5
13D
100
AcDbEntity
  8
SEMA2D
100
AcDbLine
 62
7
  6
_SOLID
370
9
 10
1.24593269824982
 20
0.224587261676788
 11
1.28008365631104
 21
0.258738249540329
  0
LINE
  5
13E
100
AcDbEntity
  8
SEMA2D
100
AcDbLine
 62
7
  6
_SOLID
370
9
 10
1.25877165794373
 20
0.243952855467796
 11
1.28008365631104
 21
0.265264868736267
  0
LINE
  5
13F
100
AcDbEntity
  8
SEMA2D
100
AcDbLine
 62
7
  6
_SOLID
370
9
 10
1.26368927955627
 20
0.2553970515728
 11
1.28008365631104
 21
0.271791458129883
  0
LINE
  5
140
100
AcDbEntity
  8
SEMA2D
100
AcDbLine
 62
7
  6
_SOLID
370
9
 10
1.26051092147827
 20
0.297904908657074
 11
1.28008365631104
 21
0.317477613687515
  0
LINE
  5
141
100
AcDbEntity
  8
SEMA2D
100
AcDbLine
 62
7
  6
_SOLID
370
9
 10
1.25903069972992
 20
0.302951246500015
 11
1.28008365631104
 21
0.324004203081131
  0
LINE
  5
142
100
AcDbEntity
  8
SEMA2D
100
AcDbLine
 62
7
  6
_SOLID
370
9
 10
1.25736474990845
 20
0.307811945676804
 11
1.27795279026031
 21
0.328399956226349
  0
LINE
  5
143
100
AcDbEntity
  8
SEMA2D
100
AcDbLine
 62
7
  6
_SOLID
370
9
 10
1.26439261436462
 20
0.282206833362579
 11
1.28008365631104
 21
0.297897845506668
  0
LINE
  5
144
100
AcDbEntity
  8
SEMA2D
100
AcDbLine
 62
7
  6
_SOLID
370
9
 10
1.26419842243195
 20
0.288539230823517
 11
1.28008365631104
 21
0.304424434900284
  0
LINE
  5
145
100
AcDbEntity
  8
SEMA2D
100
AcDbLine
 62
7
  6
_SOLID
370
9
 10
1.26327347755432
 20
0.294140845537186
 11
1.28008365631104
 21
0.3109510242939
  0
LINE
  5
146
100
AcDbEntity
  8
SEMA2D
100
AcDbLine
 62
7
  6
_SOLID
370
9
 10
1.24411773681641
 20
0.340251117944717
 11
1.25931620597839
 21
0.355449467897415
  0
LINE
  5
147
100
AcDbEntity
  8
SEMA2D
100
AcDbLine
 62
7
  6
_SOLID
370
9
 10
1.28008365631104
 20
0.591403961181641
 11
1.28008365631104
 21
0.600530982017517
  0
LINE
  5
148
100
AcDbEntity
  8
SEMA2D
100
AcDbLine
 62
7
  6
_DASH
370
9
 10
1.28008365631104
 20
0.218426033854485
 11
1.28008365631104
 21
0.221259012818336
  0
LINE
  5
149
100
AcDbEntity
  8
SEMA2D
100
AcDbLine
 62
7
  6
_DASH
370
9
 10
1.28008365631104
 20
0.176099419593811
 11
1.28008365631104
 21
0.18951490521431
  0
LINE
  5
14A
100
AcDbEntity
  8
SEMA2D
100
AcDbLine
 62
7
  6
_SOLID
370
9
 10
1.28008365631104
 20
0.325995564460754
 11
1.28008365631104
 21
0.213259011507034
  0
LINE
  5
14B
100
AcDbEntity
  8
SEMA2D
100
AcDbLine
 62
7
  6
_SOLID
370
9
 10
1.28008365631104
 20
0.575795829296112
 11
1.28008365631104
 21
0.575291812419891
  0
LINE
  5
14C
100
AcDbEntity
  8
SEMA2D
100
AcDbLine
 62
7
  6
_SOLID
370
9
 10
1.27897608280182
 20
0.425361603498459
 11
1.27897608280182
 21
0.327776253223419
  0
LINE
  5
14D
100
AcDbEntity
  8
SEMA2D
100
AcDbLine
 62
7
  6
_SOLID
370
9
 10
1.28008365631104
 20
0.323923885822296
 11
1.28008365631104
 21
0.559061050415039
  0
LINE
  5
14E
100
AcDbEntity
  8
SEMA2D
100
AcDbLine
 62
7
  6
_SOLID
370
9
 10
1.28008365631104
 20
0.18951490521431
 11
1.28008365631104
 21
0.218426033854485
  0
LINE
  5
14F
100
AcDbEntity
  8
SEMA2D
100
AcDbLine
 62
7
  6
_SOLID
370
9
 10
1.28008365631104
 20
0.176099419593811
 11
1.28008365631104
 21
0.175176426768303
  0
LINE
  5
150
100
AcDbEntity
  8
SEMA2D
100
AcDbLine
 62
7
  6
_SOLID
370
9
 10
1.28437805175781
 20
0.17904070019722
 11
1.28437805175781
 21
0.178067281842232
  0
LINE
  5
151
100
AcDbEntity
  8
SEMA2D
100
AcDbLine
 62
7
  6
_SOLID
370
9
 10
1.28425347805023
 20
0.222742915153503
 11
1.28425347805023
 21
0.223601937294006
  0
LINE
  5
152
100
AcDbEntity
  8
SEMA2D
100
AcDbLine
 62
7
  6
_SOLID
370
9
 10
1.24408662319183
 20
0.346746563911438
 11
1.25931620597839
 21
0.361976087093353
  0
LINE
  5
153
100
AcDbEntity
  8
SEMA2D
100
AcDbLine
 62
7
  6
_SOLID
370
9
 10
1.24408662319183
 20
0.353273183107376
 11
1.25931620597839
 21
0.368502676486969
  0
LINE
  5
154
100
AcDbEntity
  8
SEMA2D
100
AcDbLine
 62
7
  6
_SOLID
370
9
 10
1.28032255172729
 20
0.561622977256775
 11
1.28032255172729
 21
0.572729825973511
  0
LINE
  5
155
100
AcDbEntity
  8
SEMA2D
100
AcDbLine
 62
7
  6
_SOLID
370
9
 10
1.28285264968872
 20
0.177692115306854
 11
1.28285264968872
 21
0.17904070019722
  0
LINE
  5
156
100
AcDbEntity
  8
SEMA2D
100
AcDbLine
 62
7
  6
_SOLID
370
9
 10
1.28145182132721
 20
0.224352613091469
 11
1.28145182132721
 21
0.221992239356041
  0
LINE
  5
157
100
AcDbEntity
  8
SEMA2D
100
AcDbLine
 62
7
  6
_SOLID
370
9
 10
1.28100669384003
 20
0.560588777065277
 11
1.28100669384003
 21
0.573764085769653
  0
LINE
  5
158
100
AcDbEntity
  8
SEMA2D
100
AcDbLine
 62
7
  6
_SOLID
370
9
 10
1.24567568302155
 20
0.603152275085449
 11
1.25239360332489
 21
0.604096412658691
  0
LINE
  5
159
100
AcDbEntity
  8
SEMA2D
100
AcDbLine
 62
7
  6
_SOLID
370
9
 10
1.28032255172729
 20
0.572729825973511
 11
1.27871537208557
 21
0.572955727577209
  0
LINE
  5
15A
100
AcDbEntity
  8
SEMA2D
100
AcDbLine
 62
7
  6
_SOLID
370
9
 10
1.28032255172729
 20
0.572729825973511
 11
1.28100669384003
 21
0.572729825973511
  0
LINE
  5
15B
100
AcDbEntity
  8
SEMA2D
100
AcDbLine
 62
7
  6
_SOLID
370
9
 10
1.28008365631104
 20
0.598196029663086
 11
1.27871537208557
 21
0.598196029663086
  0
LINE
  5
15C
100
AcDbEntity
  8
SEMA2D
100
AcDbLine
 62
7
  6
_SOLID
370
9
 10
1.2505476474762
 20
0.590514123439789
 11
1.25200986862183
 21
0.590514123439789
  0
LINE
  5
15D
100
AcDbEntity
  8
SEMA2D
100
AcDbLine
 62
7
  6
_SOLID
370
9
 10
1.25885462760925
 20
0.589370012283325
 11
1.25739240646362
 21
0.589370012283325
  0
LINE
  5
15E
100
AcDbEntity
  8
SEMA2D
100
AcDbLine
 62
7
  6
_SOLID
370
9
 10
1.27960586547852
 20
0.575667798519135
 11
1.29440641403198
 21
0.579633593559265
  0
LINE
  5
15F
100
AcDbEntity
  8
SEMA2D
100
AcDbLine
 62
7
  6
_SOLID
370
9
 10
1.25748646259308
 20
0.56821209192276
 11
1.246377825737
 21
0.565235555171967
  0
LINE
  5
160
100
AcDbEntity
  8
SEMA2D
100
AcDbLine
 62
7
  6
_SOLID
370
9
 10
1.28032255172729
 20
0.561622977256775
 11
1.28100669384003
 21
0.561622977256775
  0
LINE
  5
161
100
AcDbEntity
  8
SEMA2D
100
AcDbLine
 62
7
  6
_SOLID
370
9
 10
1.25885462760925
 20
0.57270759344101
 11
1.25739240646362
 21
0.57270759344101
  0
LINE
  5
162
100
AcDbEntity
  8
SEMA2D
100
AcDbLine
 62
7
  6
_SOLID
370
9
 10
1.2505476474762
 20
0.571265339851379
 11
1.25200986862183
 21
0.571265339851379
  0
LINE
  5
163
100
AcDbEntity
  8
SEMA2D
100
AcDbLine
 62
7
  6
_SOLID
370
9
 10
1.25739240646362
 20
0.57270759344101
 11
1.25200986862183
 21
0.571265339851379
  0
LINE
  5
164
100
AcDbEntity
  8
SEMA2D
100
AcDbLine
 62
7
  6
_SOLID
370
9
 10
1.24554884433746
 20
0.596401631832123
 11
1.25739240646362
 21
0.593884170055389
  0
LINE
  5
165
100
AcDbEntity
  8
SEMA2D
100
AcDbLine
 62
7
  6
_SOLID
370
9
 10
1.25739240646362
 20
0.589370012283325
 11
1.25200986862183
 21
0.590514123439789
  0
LINE
  5
166
100
AcDbEntity
  8
SEMA2D
100
AcDbLine
 62
7
  6
_SOLID
370
9
 10
1.27828180789948
 20
0.6022669672966
 11
1.27269959449768
 21
0.603173434734344
  0
LINE
  5
167
100
AcDbEntity
  8
SEMA2D
100
AcDbLine
 62
7
  6
_SOLID
370
9
 10
1.29440641403198
 20
0.587566196918488
 11
1.27314484119415
 21
0.593263208866119
  0
LINE
  5
168
100
AcDbEntity
  8
SEMA2D
100
AcDbLine
 62
7
  6
_SOLID
370
9
 10
1.27828180789948
 20
0.600318670272827
 11
1.25608563423157
 21
0.603173434734344
  0
LINE
  5
169
100
AcDbEntity
  8
SEMA2D
100
AcDbLine
 62
7
  6
_SOLID
370
9
 10
1.25239360332489
 20
0.604096412658691
 11
1.27269959449768
 21
0.604096412658691
  0
LINE
  5
16A
100
AcDbEntity
  8
SEMA2D
100
AcDbLine
 62
7
  6
_SOLID
370
9
 10
1.25608563423157
 20
0.603173434734344
 11
1.27269959449768
 21
0.603173434734344
  0
LINE
  5
16B
100
AcDbEntity
  8
SEMA2D
100
AcDbLine
 62
7
  6
_SOLID
370
9
 10
1.27849459648132
 20
0.602358996868134
 11
1.27269959449768
 21
0.603173434734344
  0
LINE
  5
16C
100
AcDbEntity
  8
SEMA2D
100
AcDbLine
 62
7
  6
_SOLID
370
9
 10
1.25608563423157
 20
0.603173434734344
 11
1.27849459648132
 21
0.600024044513702
  0
LINE
  5
16D
100
AcDbEntity
  8
SEMA2D
100
AcDbLine
 62
7
  6
_SOLID
370
9
 10
1.27314484119415
 20
0.598978936672211
 11
1.27871537208557
 21
0.598196029663086
  0
LINE
  5
16E
100
AcDbEntity
  8
SEMA2D
100
AcDbLine
 62
7
  6
_SOLID
370
9
 10
1.25977766513824
 20
0.553818047046661
 11
1.26319825649261
 21
0.553818047046661
  0
LINE
  5
16F
100
AcDbEntity
  8
SEMA2D
100
AcDbLine
 62
7
  6
_SOLID
370
9
 10
1.25008451938629
 20
0.183052912354469
 11
1.26131236553192
 21
0.194280818104744
  0
LINE
  5
170
100
AcDbEntity
  8
SEMA2D
100
AcDbLine
 62
7
  6
_SOLID
370
9
 10
1.27433466911316
 20
0.213829770684242
 11
1.27731466293335
 21
0.216809689998627
  0
LINE
  5
171
100
AcDbEntity
  8
SEMA2D
100
AcDbLine
 62
7
  6
_SOLID
370
9
 10
1.24677193164825
 20
0.186266928911209
 11
1.25933504104614
 21
0.19883006811142
  0
LINE
  5
172
100
AcDbEntity
  8
SEMA2D
100
AcDbLine
 62
7
  6
_SOLID
370
9
 10
1.25977766513824
 20
0.519765853881836
 11
1.26319825649261
 21
0.519765853881836
  0
LINE
  5
173
100
AcDbEntity
  8
SEMA2D
100
AcDbLine
 62
7
  6
_SOLID
370
9
 10
1.2722544670105
 20
0.51733922958374
 11
1.27362263202667
 21
0.51733922958374
  0
LINE
  5
174
100
AcDbEntity
  8
SEMA2D
100
AcDbLine
 62
7
  6
_SOLID
370
9
 10
1.24565255641937
 20
0.21125403046608
 11
1.28008365631104
 21
0.245685070753098
  0
LINE
  5
175
100
AcDbEntity
  8
SEMA2D
100
AcDbLine
 62
7
  6
_SOLID
370
9
 10
1.24593269824982
 20
0.218060672283173
 11
1.28008365631104
 21
0.252211660146713
  0
LINE
  5
176
100
AcDbEntity
  8
SEMA2D
100
AcDbLine
 62
7
  6
_SOLID
370
9
 10
1.24462330341339
 20
0.190644979476929
 11
1.28008365631104
 21
0.226105287671089
  0
LINE
  5
177
100
AcDbEntity
  8
SEMA2D
100
AcDbLine
 62
7
  6
_SOLID
370
9
 10
1.24408662319183
 20
0.196634873747826
 11
1.28008365631104
 21
0.232631877064705
  0
LINE
  5
178
100
AcDbEntity
  8
SEMA2D
100
AcDbLine
 62
7
  6
_SOLID
370
9
 10
1.24408662319183
 20
0.203161478042603
 11
1.28008365631104
 21
0.239158466458321
  0
LINE
  5
179
100
AcDbEntity
  8
SEMA2D
100
AcDbLine
 62
7
  6
_SOLID
370
9
 10
1.27516865730286
 20
0.175504118204117
 11
1.28217804431915
 21
0.182513475418091
  0
LINE
  5
17A
100
AcDbEntity
  8
SEMA2D
100
AcDbLine
 62
7
  6
_SOLID
370
9
 10
1.27002131938934
 20
0.176883354783058
 11
1.28039658069611
 21
0.187258675694466
  0
LINE
  5
17B
100
AcDbEntity
  8
SEMA2D
100
AcDbLine
 62
7
  6
_SOLID
370
9
 10
1.27686941623688
 20
0.524288892745972
 11
1.27823770046234
 21
0.524288892745972
  0
LINE
  5
17C
100
AcDbEntity
  8
SEMA2D
100
AcDbLine
 62
7
  6
_SOLID
370
9
 10
1.28032255172729
 20
0.561622977256775
 11
1.27871537208557
 21
0.561397135257721
  0
LINE
  5
17D
100
AcDbEntity
  8
SEMA2D
100
AcDbLine
 62
7
  6
_SOLID
370
9
 10
1.27686941623688
 20
0.561939001083374
 11
1.26319825649261
 21
0.558275818824768
  0
LINE
  5
17E
100
AcDbEntity
  8
SEMA2D
100
AcDbLine
 62
7
  6
_SOLID
370
9
 10
1.26319825649261
 20
0.553818047046661
 11
1.2704085111618
 21
0.555750072002411
  0
LINE
  5
17F
100
AcDbEntity
  8
SEMA2D
100
AcDbLine
 62
7
  6
_SOLID
370
9
 10
1.2722544670105
 20
0.51733922958374
 11
1.26319825649261
 21
0.519765853881836
  0
LINE
  5
180
100
AcDbEntity
  8
SEMA2D
100
AcDbLine
 62
7
  6
_SOLID
370
9
 10
1.26319825649261
 20
0.515308082103729
 11
1.27871537208557
 21
0.511150240898132
  0
LINE
  5
181
100
AcDbEntity
  8
SEMA2D
100
AcDbLine
 62
7
  6
_SOLID
370
9
 10
1.27871537208557
 20
0.521091520786285
 11
1.28008365631104
 21
0.521091520786285
  0
LINE
  5
182
100
AcDbEntity
  8
SEMA2D
100
AcDbLine
 62
7
  6
_SOLID
370
9
 10
1.26487398147583
 20
0.178262591362
 11
1.27584540843964
 21
0.189234063029289
  0
LINE
  5
183
100
AcDbEntity
  8
SEMA2D
100
AcDbLine
 62
7
  6
_SOLID
370
9
 10
1.25972652435303
 20
0.17964181303978
 11
1.27069807052612
 21
0.190613284707069
  0
LINE
  5
184
100
AcDbEntity
  8
SEMA2D
100
AcDbLine
 62
7
  6
_SOLID
370
9
 10
1.25457918643951
 20
0.181021049618721
 11
1.26555073261261
 21
0.191992521286011
  0
ARC
  5
185
100
AcDbEntity
  8
SEMA2D
100
AcDbCircle
 62
7
  6
_SOLID
370
9
 10
1.28377568721771
 20
0.222742915153503
 40
0.00184599997010082
100
AcDbArc
 50
285
 51
0
  0
ARC
  5
186
100
AcDbEntity
  8
SEMA2D
100
AcDbCircle
 62
7
  6
_SOLID
370
9
 10
1.28192961215973
 20
0.227918818593025
 40
0.00184599997010082
100
AcDbArc
 50
180.000091552734
 51
255
  0
ARC
  5
187
100
AcDbEntity
  8
SEMA2D
100
AcDbCircle
 62
7
  6
_SOLID
370
9
 10
1.29392862319946
 20
0.182477548718452
 40
0.00184599997010082
100
AcDbArc
 50
0
 51
75
  0
ARC
  5
188
100
AcDbEntity
  8
SEMA2D
100
AcDbCircle
 62
7
  6
_SOLID
370
9
 10
1.27823770046234
 20
0.427433282136917
 40
0.00184599915519357
100
AcDbArc
 50
303.769561767578
 51
-8.69058858370408E-5
  0
ARC
  5
189
100
AcDbEntity
  8
SEMA2D
100
AcDbCircle
 62
7
  6
_SOLID
370
9
 10
1.27823770046234
 20
0.325995564460754
 40
0.00184599915519357
100
AcDbArc
 50
8.69058858370408E-5
 51
56.2304382324219
  0
ARC
  5
18A
100
AcDbEntity
  8
SEMA2D
100
AcDbCircle
 62
7
  6
_SOLID
370
9
 10
1.27823770046234
 20
0.221259012818336
 40
0.00184599997010082
100
AcDbArc
 50
285
 51
0
  0
ARC
  5
18B
100
AcDbEntity
  8
SEMA2D
100
AcDbCircle
 62
7
  6
_SOLID
370
9
 10
1.27868866920471
 20
0.186561107635498
 40
0.00184599997010082
100
AcDbArc
 50
20.5560455322266
 51
75
  0
ARC
  5
18C
100
AcDbEntity
  8
SEMA2D
100
AcDbCircle
 62
7
  6
_SOLID
370
9
 10
1.27362263202667
 20
0.17904070019722
 40
0.00922999996691942
100
AcDbArc
 50
0
 51
20.5560455322266
  0
ARC
  5
18D
100
AcDbEntity
  8
SEMA2D
100
AcDbCircle
 62
7
  6
_SOLID
370
9
 10
1.27916061878204
 20
0.217684090137482
 40
0.00184599997010082
100
AcDbArc
 50
105
 51
180
  0
ARC
  5
18E
100
AcDbEntity
  8
SEMA2D
100
AcDbCircle
 62
7
  6
_SOLID
370
9
 10
1.28008365631104
 20
0.524288892745972
 40
0.00184599997010082
100
AcDbArc
 50
180
 51
240
  0
ARC
  5
18F
100
AcDbEntity
  8
SEMA2D
100
AcDbCircle
 62
7
  6
_SOLID
370
9
 10
1.27823770046234
 20
0.521091520786285
 40
0.00184599997010082
100
AcDbArc
 50
0
 51
60
  0
ARC
  5
190
100
AcDbEntity
  8
SEMA2D
100
AcDbCircle
 62
7
  6
_SOLID
370
9
 10
1.28192961215973
 20
0.18951490521431
 40
0.00184599997010082
100
AcDbArc
 50
180
 51
255
  0
ARC
  5
191
100
AcDbEntity
  8
SEMA2D
100
AcDbCircle
 62
7
  6
_SOLID
370
9
 10
1.28377568721771
 20
0.223601937294006
 40
0.00184599997010082
100
AcDbArc
 50
0
 51
75
  0
ARC
  5
192
100
AcDbEntity
  8
SEMA2D
100
AcDbCircle
 62
7
  6
_SOLID
370
9
 10
1.27916061878204
 20
0.190256863832474
 40
0.00184599997010082
100
AcDbArc
 50
180
 51
255.000106811523
  0
ARC
  5
193
100
AcDbEntity
  8
SEMA2D
100
AcDbCircle
 62
7
  6
_SOLID
370
9
 10
1.28100669384003
 20
0.558990061283112
 40
0.000922998879104853
100
AcDbArc
 50
120.000099182129
 51
175.597930908203
  0
ARC
  5
194
100
AcDbEntity
  8
SEMA2D
100
AcDbCircle
 62
7
  6
_SOLID
370
9
 10
1.28100669384003
 20
0.575362741947174
 40
0.000922998820897192
100
AcDbArc
 50
184.402267456055
 51
239.999893188477
  0
ARC
  5
195
100
AcDbEntity
  8
SEMA2D
100
AcDbCircle
 62
7
  6
_SOLID
370
9
 10
1.28008365631104
 20
0.573764085769653
 40
0.00092299998505041
100
AcDbArc
 50
0
 51
60
  0
ARC
  5
196
100
AcDbEntity
  8
SEMA2D
100
AcDbCircle
 62
7
  6
_SOLID
370
9
 10
1.24593269824982
 20
0.598207294940948
 40
0.00184599997010082
100
AcDbArc
 50
180
 51
258
  0
ARC
  5
197
100
AcDbEntity
  8
SEMA2D
100
AcDbCircle
 62
7
  6
_SOLID
370
9
 10
1.24593269824982
 20
0.601324260234833
 40
0.00184599997010082
100
AcDbArc
 50
98
 51
180
  0
ARC
  5
198
100
AcDbEntity
  8
SEMA2D
100
AcDbCircle
 62
7
  6
_SOLID
370
9
 10
1.2487016916275
 20
0.567769289016724
 40
0.00184599997010082
100
AcDbArc
 50
285
 51
0
  0
ARC
  5
199
100
AcDbEntity
  8
SEMA2D
100
AcDbCircle
 62
7
  6
_SOLID
370
9
 10
1.27823770046234
 20
0.598196029663086
 40
0.00184599997010082
100
AcDbArc
 50
0
 51
82
  0
ARC
  5
19A
100
AcDbEntity
  8
SEMA2D
100
AcDbCircle
 62
7
  6
_SOLID
370
9
 10
1.26993060112
 20
0.599363505840302
 40
0.00184599997010082
100
AcDbArc
 50
0
 51
82
  0
ARC
  5
19B
100
AcDbEntity
  8
SEMA2D
100
AcDbCircle
 62
7
  6
_SOLID
370
9
 10
1.28192961215973
 20
0.218426033854485
 40
0.00184599997010082
100
AcDbArc
 50
105.000007629395
 51
180
  0
ARC
  5
19C
100
AcDbEntity
  8
SEMA2D
100
AcDbCircle
 62
7
  6
_SOLID
370
9
 10
1.28008365631104
 20
0.560588777065277
 40
0.00092299998505041
100
AcDbArc
 50
300
 51
0
  0
ARC
  5
19D
100
AcDbEntity
  8
SEMA2D
100
AcDbCircle
 62
7
  6
_SOLID
370
9
 10
1.27823770046234
 20
0.600530982017517
 40
0.00184599997010082
100
AcDbArc
 50
0
 51
82
  0
ARC
  5
19E
100
AcDbEntity
  8
SEMA2D
100
AcDbCircle
 62
7
  6
_SOLID
370
9
 10
1.2487016916275
 20
0.226039871573448
 40
0.00276899989694357
100
AcDbArc
 50
163.059204101562
 51
180
  0
ARC
  5
19F
100
AcDbEntity
  8
SEMA2D
100
AcDbCircle
 62
7
  6
_SOLID
370
9
 10
1.26439261436462
 20
0.519765853881836
 40
0.00461499998345971
100
AcDbArc
 50
180
 51
255
  0
ARC
  5
1A0
100
AcDbEntity
  8
SEMA2D
100
AcDbCircle
 62
7
  6
_SOLID
370
9
 10
1.26439261436462
 20
0.553818047046661
 40
0.00461499998345971
100
AcDbArc
 50
105
 51
180
  0
ARC
  5
1A1
100
AcDbEntity
  8
SEMA2D
100
AcDbCircle
 62
7
  6
_SOLID
370
9
 10
1.2487016916275
 20
0.59384423494339
 40
0.00184599997010082
100
AcDbArc
 50
0
 51
78
  0
ARC
  5
1A2
100
AcDbEntity
  8
SEMA2D
100
AcDbCircle
 62
7
  6
_SOLID
370
9
 10
1.27546858787537
 20
0.216695740818977
 40
0.00184599997010082
100
AcDbArc
 50
301.775543212891
 51
0
  0
ARC
  5
1A3
100
AcDbEntity
  8
SEMA2D
100
AcDbCircle
 62
7
  6
_SOLID
370
9
 10
1.26670014858246
 20
0.200711935758591
 40
0.00738399988040328
100
AcDbArc
 50
119.967277526855
 51
180
  0
ARC
  5
1A4
100
AcDbEntity
  8
SEMA2D
100
AcDbCircle
 62
7
  6
_SOLID
370
9
 10
1.26670014858246
 20
0.199329003691673
 40
0.00738399988040328
100
AcDbArc
 50
180
 51
255
  0
ARC
  5
1A5
100
AcDbEntity
  8
SEMA2D
100
AcDbCircle
 62
7
  6
_SOLID
370
9
 10
1.27362263202667
 20
0.59504634141922
 40
0.00184599997010082
100
AcDbArc
 50
180
 51
255
  0
ARC
  5
1A6
100
AcDbEntity
  8
SEMA2D
100
AcDbCircle
 62
7
  6
_SOLID
370
9
 10
1.28008365631104
 20
0.573884665966034
 40
0.00184599997010082
100
AcDbArc
 50
105
 51
180
  0
ARC
  5
1A7
100
AcDbEntity
  8
SEMA2D
100
AcDbCircle
 62
7
  6
_SOLID
370
9
 10
1.27823770046234
 20
0.509367167949677
 40
0.00184599997010082
100
AcDbArc
 50
0
 51
75
  0
ARC
  5
1A8
100
AcDbEntity
  8
SEMA2D
100
AcDbCircle
 62
7
  6
_SOLID
370
9
 10
1.27639162540436
 20
0.563722133636475
 40
0.00184599997010082
100
AcDbArc
 50
285
 51
0
  0
ARC
  5
1A9
100
AcDbEntity
  8
SEMA2D
100
AcDbCircle
 62
7
  6
_SOLID
370
9
 10
1.29392862319946
 20
0.585783123970032
 40
0.00184599997010082
100
AcDbArc
 50
0
 51
75
  0
ARC
  5
1AA
100
AcDbEntity
  8
SEMA2D
100
AcDbCircle
 62
7
  6
_SOLID
370
9
 10
1.29392862319946
 20
0.581416666507721
 40
0.00184599997010082
100
AcDbArc
 50
285
 51
0
  0
ARC
  5
1AB
100
AcDbEntity
  8
SEMA2D
100
AcDbCircle
 62
7
  6
_SOLID
370
9
 10
1.24593269824982
 20
0.206950157880783
 40
0.00184599997010082
100
AcDbArc
 50
142.675994873047
 51
180
  0
ARC
  5
1AC
100
AcDbEntity
  8
SEMA2D
100
AcDbCircle
 62
7
  6
_SOLID
370
9
 10
1.24500966072083
 20
0.519492864608765
 40
0.00184599997010082
100
AcDbArc
 50
285
 51
0
  0
ARC
  5
1AD
100
AcDbEntity
  8
SEMA2D
100
AcDbCircle
 62
7
  6
_SOLID
370
9
 10
1.24593269824982
 20
0.515917956829071
 40
0.00184599997010082
100
AcDbArc
 50
105
 51
180
  0
ARC
  5
1AE
100
AcDbEntity
  8
SEMA2D
100
AcDbCircle
 62
7
  6
_SOLID
370
9
 10
1.24593269824982
 20
0.512288987636566
 40
0.00184599997010082
100
AcDbArc
 50
180
 51
254.533996582031
  0
ARC
  5
1AF
100
AcDbEntity
  8
SEMA2D
100
AcDbCircle
 62
7
  6
_SOLID
370
9
 10
1.28146815299988
 20
0.177692115306854
 40
0.00138449994847178
100
AcDbArc
 50
278
 51
0
  0
ARC
  5
1B0
100
AcDbEntity
  8
SEMA2D
100
AcDbCircle
 62
7
  6
_SOLID
370
9
 10
1.2943902015686
 20
0.179508179426193
 40
0.00138449994847178
100
AcDbArc
 50
278.000030517578
 51
4.13837324231281E-6
  0
ARC
  5
1B1
100
AcDbEntity
  8
SEMA2D
100
AcDbCircle
 62
7
  6
_SOLID
370
9
 10
1.25793159008026
 20
0.194456160068512
 40
0.0138450004160404
100
AcDbArc
 50
180
 51
255
  0
ARC
  5
1B2
100
AcDbEntity
  8
SEMA2D
100
AcDbCircle
 62
7
  6
_SOLID
370
9
 10
1.25700867176056
 20
0.592078506946564
 40
0.00184599997010082
100
AcDbArc
 50
0
 51
78
  0
ARC
  5
1B3
100
AcDbEntity
  8
SEMA2D
100
AcDbCircle
 62
7
  6
_SOLID
370
9
 10
1.25700867176056
 20
0.569995164871216
 40
0.00184599997010082
100
AcDbArc
 50
285
 51
0
  0
ARC
  5
1B4
100
AcDbEntity
  8
SEMA2D
100
AcDbCircle
 62
7
  6
_SOLID
370
9
 10
1.23854863643646
 20
0.485601633787155
 40
0.0258440002799034
100
AcDbArc
 50
0
 51
74.5339889526367
  0
ARC
  5
1B5
100
AcDbEntity
  8
SEMA2D
100
AcDbCircle
 62
7
  6
_SOLID
370
9
 10
1.24500966072083
 20
0.556627035140991
 40
0.00184599997010082
100
AcDbArc
 50
0
 51
60
  0
ARC
  5
1B6
100
AcDbEntity
  8
SEMA2D
100
AcDbCircle
 62
7
  6
_SOLID
370
9
 10
1.24685561656952
 20
0.559824407100678
 40
0.00184599997010082
100
AcDbArc
 50
180
 51
240
  0
ARC
  5
1B7
100
AcDbEntity
  8
SEMA2D
100
AcDbCircle
 62
7
  6
_SOLID
370
9
 10
1.24685561656952
 20
0.563452422618866
 40
0.00184599997010082
100
AcDbArc
 50
105
 51
180
  0
LINE
  5
1B8
100
AcDbEntity
  8
SEMA2D
100
AcDbLine
 62
7
  6
_SOLID
370
9
 10
1.27871537208557
 20
0.523050129413605
 11
1.27871537208557
 21
0.561397135257721
  0
LINE
  5
1B9
100
AcDbEntity
  8
SEMA2D
100
AcDbLine
 62
7
  6
_SOLID
370
9
 10
1.26299226284027
 20
0.458529978990555
 11
1.28008365631104
 21
0.475621312856674
  0
LINE
  5
1BA
100
AcDbEntity
  8
SEMA2D
100
AcDbLine
 62
7
  6
_SOLID
370
9
 10
1.282710313797
 20
0.18549644947052
 11
1.28367292881012
 21
0.182929754257202
  0
LINE
  5
1BB
100
AcDbEntity
  8
SEMA2D
100
AcDbLine
 62
7
  6
_SOLID
370
9
 10
1.28226494789124
 20
0.182281568646431
 11
1.28041708469391
 21
0.187209278345108
  0
LINE
  5
1BC
100
AcDbEntity
  8
SEMA2D
100
AcDbLine
 62
7
  6
_SOLID
370
9
 10
1.24641668796539
 20
0.428901135921478
 11
1.28008365631104
 21
0.462568134069443
  0
LINE
  5
1BD
100
AcDbEntity
  8
SEMA2D
100
AcDbLine
 62
7
  6
_SOLID
370
9
 10
1.25809788703918
 20
0.447108924388886
 11
1.28008365631104
 21
0.469094723463058
  0
LINE
  5
1BE
100
AcDbEntity
  8
SEMA2D
100
AcDbLine
 62
7
  6
_SOLID
370
9
 10
1.2643848657608
 20
0.486028969287872
 11
1.28008365631104
 21
0.501727700233459
  0
LINE
  5
1BF
100
AcDbEntity
  8
SEMA2D
100
AcDbLine
 62
7
  6
_SOLID
370
9
 10
1.26363372802734
 20
0.491804331541061
 11
1.28008365631104
 21
0.508254289627075
  0
LINE
  5
1C0
100
AcDbEntity
  8
SEMA2D
100
AcDbLine
 62
7
  6
_SOLID
370
9
 10
1.26192307472229
 20
0.496620357036591
 11
1.27693116664886
 21
0.511628389358521
  0
LINE
  5
1C1
100
AcDbEntity
  8
SEMA2D
100
AcDbLine
 62
7
  6
_SOLID
370
9
 10
1.26429378986359
 20
0.466358035802841
 11
1.28008365631104
 21
0.48214790225029
  0
LINE
  5
1C2
100
AcDbEntity
  8
SEMA2D
100
AcDbLine
 62
7
  6
_SOLID
370
9
 10
1.26439261436462
 20
0.472983509302139
 11
1.28008365631104
 21
0.488674521446228
  0
LINE
  5
1C3
100
AcDbEntity
  8
SEMA2D
100
AcDbLine
 62
7
  6
_SOLID
370
9
 10
1.26439261436462
 20
0.479510098695755
 11
1.28008365631104
 21
0.495201110839844
  0
LINE
  5
1C4
100
AcDbEntity
  8
SEMA2D
100
AcDbLine
 62
7
  6
_SOLID
370
9
 10
1.24408662319183
 20
0.194488167762756
 11
1.24408662319183
 21
0.515917956829071
  0
LINE
  5
1C5
100
AcDbEntity
  8
SEMA2D
100
AcDbLine
 62
7
  6
_SOLID
370
9
 10
1.24408662319183
 20
0.601324260234833
 11
1.24408662319183
 21
0.598207294940948
  0
LINE
  5
1C6
100
AcDbEntity
  8
SEMA2D
100
AcDbLine
 62
7
  6
_SOLID
370
9
 10
1.24639415740967
 20
0.427865862846375
 11
1.24639415740967
 21
0.420029193162918
  0
LINE
  5
1C7
100
AcDbEntity
  8
SEMA2D
100
AcDbLine
 62
7
  6
_SOLID
370
9
 10
1.24593269824982
 20
0.226039871573448
 11
1.24593269824982
 21
0.214475199580193
  0
LINE
  5
1C8
100
AcDbEntity
  8
SEMA2D
100
AcDbLine
 62
7
  6
_SOLID
370
9
 10
1.24500966072083
 20
0.563452422618866
 11
1.24500966072083
 21
0.559824407100678
  0
LINE
  5
1C9
100
AcDbEntity
  8
SEMA2D
100
AcDbLine
 62
7
  6
_SOLID
370
9
 10
1.24408662319183
 20
0.406991332769394
 11
1.28008365631104
 21
0.442988336086273
  0
LINE
  5
1CA
100
AcDbEntity
  8
SEMA2D
100
AcDbLine
 62
7
  6
_SOLID
370
9
 10
1.24422633647919
 20
0.413657575845718
 11
1.28008365631104
 21
0.449514925479889
  0
LINE
  5
1CB
100
AcDbEntity
  8
SEMA2D
100
AcDbLine
 62
7
  6
_SOLID
370
9
 10
1.24639415740967
 20
0.42235204577446
 11
1.28008365631104
 21
0.456041544675827
  0
LINE
  5
1CC
100
AcDbEntity
  8
SEMA2D
100
AcDbLine
 62
7
  6
_SOLID
370
9
 10
1.25950121879578
 20
0.500725090503693
 11
1.27178370952606
 21
0.513007581233978
  0
LINE
  5
1CD
100
AcDbEntity
  8
SEMA2D
100
AcDbLine
 62
7
  6
_SOLID
370
9
 10
1.25885462760925
 20
0.571871042251587
 11
1.27874600887299
 21
0.59176242351532
  0
LINE
  5
1CE
100
AcDbEntity
  8
SEMA2D
100
AcDbLine
 62
7
  6
_SOLID
370
9
 10
1.24552726745605
 20
0.558543682098389
 11
1.25435721874237
 21
0.56737357378006
  0
LINE
  5
1CF
100
AcDbEntity
  8
SEMA2D
100
AcDbLine
 62
7
  6
_SOLID
370
9
 10
1.25885462760925
 20
0.578397631645203
 11
1.27359867095947
 21
0.593141615390778
  0
LINE
  5
1D0
100
AcDbEntity
  8
SEMA2D
100
AcDbLine
 62
7
  6
_SOLID
370
9
 10
1.24685561656952
 20
0.540292263031006
 11
1.25977766513824
 21
0.553214251995087
  0
LINE
  5
1D1
100
AcDbEntity
  8
SEMA2D
100
AcDbLine
 62
7
  6
_SOLID
370
9
 10
1.24685561656952
 20
0.546818852424622
 11
1.28904068470001
 21
0.589003920555115
  0
LINE
  5
1D2
100
AcDbEntity
  8
SEMA2D
100
AcDbLine
 62
7
  6
_SOLID
370
9
 10
1.24685561656952
 20
0.553345441818237
 11
1.2838933467865
 21
0.590383172035217
  0
LINE
  5
1D3
100
AcDbEntity
  8
SEMA2D
100
AcDbLine
 62
7
  6
_SOLID
370
9
 10
1.25885462760925
 20
0.591450810432434
 11
1.26879155635834
 21
0.601387739181519
  0
LINE
  5
1D4
100
AcDbEntity
  8
SEMA2D
100
AcDbLine
 62
7
  6
_SOLID
370
9
 10
1.25522267818451
 20
0.594345390796661
 11
1.26306915283203
 21
0.602191925048828
  0
LINE
  5
1D5
100
AcDbEntity
  8
SEMA2D
100
AcDbLine
 62
7
  6
_SOLID
370
9
 10
1.28562164306641
 20
0.223601937294006
 11
1.28425347805023
 21
0.223601937294006
  0
LINE
  5
1D6
100
AcDbEntity
  8
SEMA2D
100
AcDbLine
 62
7
  6
_SOLID
370
9
 10
1.28008365631104
 20
0.226502329111099
 11
1.28425347805023
 21
0.225385040044785
  0
LINE
  5
1D7
100
AcDbEntity
  8
SEMA2D
100
AcDbLine
 62
7
  6
_SOLID
370
9
 10
1.28145182132721
 20
0.224352613091469
 11
1.28425347805023
 21
0.223601937294006
  0
LINE
  5
1D8
100
AcDbEntity
  8
SEMA2D
100
AcDbLine
 62
7
  6
_SOLID
370
9
 10
1.25885462760925
 20
0.584924221038818
 11
1.27177667617798
 21
0.597846210002899
  0
LINE
  5
1D9
100
AcDbEntity
  8
SEMA2D
100
AcDbLine
 62
7
  6
_SOLID
370
9
 10
1.24860203266144
 20
0.509405672550201
 11
1.25977766513824
 21
0.520581305027008
  0
LINE
  5
1DA
100
AcDbEntity
  8
SEMA2D
100
AcDbLine
 62
7
  6
_SOLID
370
9
 10
1.24423503875732
 20
0.511565327644348
 11
1.25977766513824
 21
0.527107894420624
  0
LINE
  5
1DB
100
AcDbEntity
  8
SEMA2D
100
AcDbLine
 62
7
  6
_SOLID
370
9
 10
1.24685561656952
 20
0.520712494850159
 11
1.25977766513824
 21
0.533634483814239
  0
LINE
  5
1DC
100
AcDbEntity
  8
SEMA2D
100
AcDbLine
 62
7
  6
_SOLID
370
9
 10
1.26301181316376
 20
0.207108780741692
 11
1.26478898525238
 21
0.204026475548744
  0
LINE
  5
1DD
100
AcDbEntity
  8
SEMA2D
100
AcDbLine
 62
7
  6
_SOLID
370
9
 10
1.25646877288818
 20
0.504219174385071
 11
1.26663637161255
 21
0.514386832714081
  0
LINE
  5
1DE
100
AcDbEntity
  8
SEMA2D
100
AcDbLine
 62
7
  6
_SOLID
370
9
 10
1.25284838676453
 20
0.507125377655029
 11
1.26172506809235
 21
0.516002058982849
  0
LINE
  5
1DF
100
AcDbEntity
  8
SEMA2D
100
AcDbLine
 62
7
  6
_SOLID
370
9
 10
1.24685561656952
 20
0.53376567363739
 11
1.25977766513824
 21
0.546687662601471
  0
LINE
  5
1E0
100
AcDbEntity
  8
SEMA2D
100
AcDbLine
 62
7
  6
_SOLID
370
9
 10
1.28319215774536
 20
0.576628684997559
 11
1.29418814182281
 21
0.587624728679657
  0
LINE
  5
1E1
100
AcDbEntity
  8
SEMA2D
100
AcDbLine
 62
7
  6
_SOLID
370
9
 10
1.26543986797333
 20
0.55887645483017
 11
1.27823770046234
 21
0.571674227714539
  0
LINE
  5
1E2
100
AcDbEntity
  8
SEMA2D
100
AcDbLine
 62
7
  6
_SOLID
370
9
 10
1.24685561656952
 20
0.527239084243774
 11
1.25977766513824
 21
0.540161073207855
  0
LINE
  5
1E3
100
AcDbEntity
  8
SEMA2D
100
AcDbLine
 62
7
  6
_SOLID
370
9
 10
1.29210758209229
 20
0.579017639160156
 11
1.29577469825745
 21
0.582684636116028
  0
LINE
  5
1E4
100
AcDbEntity
  8
SEMA2D
100
AcDbLine
 62
7
  6
_SOLID
370
9
 10
1.27435529232025
 20
0.561265349388123
 11
1.27823770046234
 21
0.565147638320923
  0
LINE
  5
1E5
100
AcDbEntity
  8
SEMA2D
100
AcDbLine
 62
7
  6
_SOLID
370
9
 10
1.27314484119415
 20
0.593263208866119
 11
1.27314484119415
 21
0.598978936672211
  0
LINE
  5
1E6
100
AcDbEntity
  8
SEMA2D
100
AcDbLine
 62
7
  6
_SOLID
370
9
 10
1.27269959449768
 20
0.603173434734344
 11
1.27269959449768
 21
0.604096412658691
  0
LINE
  5
1E7
100
AcDbEntity
  8
SEMA2D
100
AcDbLine
 62
7
  6
_SOLID
370
9
 10
1.2722544670105
 20
0.51733922958374
 11
1.2722544670105
 21
0.557966351509094
  0
LINE
  5
1E8
100
AcDbEntity
  8
SEMA2D
100
AcDbLine
 62
7
  6
_SOLID
370
9
 10
1.27594637870789
 20
0.420822083950043
 11
1.27594637870789
 21
0.367409825325012
  0
LINE
  5
1E9
100
AcDbEntity
  8
SEMA2D
100
AcDbLine
 62
7
  6
_SOLID
370
9
 10
1.27567493915558
 20
0.561618983745575
 11
1.27567493915558
 21
0.511964976787567
  0
LINE
  5
1EA
100
AcDbEntity
  8
SEMA2D
100
AcDbLine
 62
7
  6
_SOLID
370
9
 10
1.27362263202667
 20
0.512514889240265
 11
1.27362263202667
 21
0.561069011688232
  0
LINE
  5
1EB
100
AcDbEntity
  8
SEMA2D
100
AcDbLine
 62
7
  6
_SOLID
370
9
 10
1.24408662319183
 20
0.374358355998993
 11
1.25931620597839
 21
0.389587849378586
  0
LINE
  5
1EC
100
AcDbEntity
  8
SEMA2D
100
AcDbLine
 62
7
  6
_SOLID
370
9
 10
1.24408662319183
 20
0.380884945392609
 11
1.25931620597839
 21
0.396114468574524
  0
LINE
  5
1ED
100
AcDbEntity
  8
SEMA2D
100
AcDbLine
 62
7
  6
_SOLID
370
9
 10
1.26615726947784
 20
0.36747732758522
 11
1.26615726947784
 21
0.338645726442337
  0
LINE
  5
1EE
100
AcDbEntity
  8
SEMA2D
100
AcDbLine
 62
7
  6
_SOLID
370
9
 10
1.27177667617798
 20
0.599363505840302
 11
1.27177667617798
 21
0.59504634141922
  0
LINE
  5
1EF
100
AcDbEntity
  8
SEMA2D
100
AcDbLine
 62
7
  6
_SOLID
370
9
 10
1.24408662319183
 20
0.359799772500992
 11
1.25931620597839
 21
0.375029265880585
  0
LINE
  5
1F0
100
AcDbEntity
  8
SEMA2D
100
AcDbLine
 62
7
  6
_SOLID
370
9
 10
1.27871537208557
 20
0.598196029663086
 11
1.27871537208557
 21
0.591770589351654
  0
LINE
  5
1F1
100
AcDbEntity
  8
SEMA2D
100
AcDbLine
 62
7
  6
_SOLID
370
9
 10
1.27868282794952
 20
0.215009436011314
 11
1.27868282794952
 21
0.19293150305748
  0
LINE
  5
1F2
100
AcDbEntity
  8
SEMA2D
100
AcDbLine
 62
7
  6
_SOLID
370
9
 10
1.27828180789948
 20
0.600318670272827
 11
1.27828180789948
 21
0.6022669672966
  0
LINE
  5
1F3
100
AcDbEntity
  8
SEMA2D
100
AcDbLine
 62
7
  6
_SOLID
370
9
 10
1.27871537208557
 20
0.511150240898132
 11
1.27871537208557
 21
0.52109158039093
  0
LINE
  5
1F4
100
AcDbEntity
  8
SEMA2D
100
AcDbLine
 62
7
  6
_SOLID
370
9
 10
1.27871537208557
 20
0.192922785878181
 11
1.27871537208557
 21
0.215018153190613
  0
LINE
  5
1F5
100
AcDbEntity
  8
SEMA2D
100
AcDbLine
 62
7
  6
_SOLID
370
9
 10
1.27871537208557
 20
0.575123190879822
 11
1.27871537208557
 21
0.572955727577209
  0
LINE
  5
1F6
100
AcDbEntity
  8
SEMA2D
100
AcDbLine
 62
7
  6
_SOLID
370
9
 10
1.27686941623688
 20
0.524288892745972
 11
1.27686941623688
 21
0.561939001083374
  0
LINE
  5
1F7
100
AcDbEntity
  8
SEMA2D
100
AcDbLine
 62
7
  6
_SOLID
370
9
 10
1.27594637870789
 20
0.195953905582428
 11
1.27594637870789
 21
0.210457995533943
  0
LINE
  5
1F8
100
AcDbEntity
  8
SEMA2D
100
AcDbLine
 62
7
  6
_SOLID
370
9
 10
1.27594637870789
 20
0.367409825325012
 11
1.27594637870789
 21
0.329646378755569
  0
LINE
  5
1F9
100
AcDbEntity
  8
SEMA2D
100
AcDbLine
 62
7
  6
_SOLID
370
9
 10
1.27823770046234
 20
0.524288892745972
 11
1.27823770046234
 21
0.573884665966034
  0
LINE
  5
1FA
100
AcDbEntity
  8
SEMA2D
100
AcDbLine
 62
7
  6
_SOLID
370
9
 10
1.27731466293335
 20
0.190256863832474
 11
1.27731466293335
 21
0.217684090137482
  0
LINE
  5
1FB
100
AcDbEntity
  8
SEMA2D
100
AcDbLine
 62
7
  6
_SOLID
370
9
 10
1.27731466293335
 20
0.42354616522789
 11
1.27731466293335
 21
0.328773528337479
  0
LINE
  5
1FC
100
AcDbEntity
  8
SEMA2D
100
AcDbLine
 62
7
  6
_SOLID
370
9
 10
1.26615726947784
 20
0.414783120155334
 11
1.26615726947784
 21
0.367342293262482
  0
LINE
  5
1FD
100
AcDbEntity
  8
SEMA2D
100
AcDbLine
 62
7
  6
_SOLID
370
9
 10
1.24408662319183
 20
0.400464743375778
 11
1.28008365631104
 21
0.436461746692657
  0
LINE
  5
1FE
100
AcDbEntity
  8
SEMA2D
100
AcDbLine
 62
7
  6
_SOLID
370
9
 10
1.25608563423157
 20
0.604096412658691
 11
1.25608563423157
 21
0.603173434734344
  0
LINE
  5
1FF
100
AcDbEntity
  8
SEMA2D
100
AcDbLine
 62
7
  6
_SOLID
370
9
 10
1.25200986862183
 20
0.571265339851379
 11
1.25200986862183
 21
0.590514123439789
  0
LINE
  5
200
100
AcDbEntity
  8
SEMA2D
100
AcDbLine
 62
7
  6
_SOLID
370
9
 10
1.24408662319183
 20
0.387411564588547
 11
1.25931620597839
 21
0.40264105796814
  0
LINE
  5
201
100
AcDbEntity
  8
SEMA2D
100
AcDbLine
 62
7
  6
_SOLID
370
9
 10
1.27037978172302
 20
0.420231252908707
 11
1.28008365631104
 21
0.429935157299042
  0
LINE
  5
202
100
AcDbEntity
  8
SEMA2D
100
AcDbLine
 62
7
  6
_SOLID
370
9
 10
1.24408662319183
 20
0.393938153982162
 11
1.26039373874664
 21
0.410245180130005
  0
LINE
  5
203
100
AcDbEntity
  8
SEMA2D
100
AcDbLine
 62
7
  6
_SOLID
370
9
 10
1.24662494659424
 20
0.322019845247269
 11
1.24662494659424
 21
0.227381110191345
  0
LINE
  5
204
100
AcDbEntity
  8
SEMA2D
100
AcDbLine
 62
7
  6
_SOLID
370
9
 10
1.24662494659424
 20
0.507927060127258
 11
1.24662494659424
 21
0.431409001350403
  0
LINE
  5
205
100
AcDbEntity
  8
SEMA2D
100
AcDbLine
 62
7
  6
_SOLID
370
9
 10
1.24639415740967
 20
0.333399653434753
 11
1.24639415740967
 21
0.323062866926193
  0
LINE
  5
206
100
AcDbEntity
  8
SEMA2D
100
AcDbLine
 62
7
  6
_SOLID
370
9
 10
1.2505476474762
 20
0.567769289016724
 11
1.2505476474762
 21
0.59384423494339
  0
LINE
  5
207
100
AcDbEntity
  8
SEMA2D
100
AcDbLine
 62
7
  6
_SOLID
370
9
 10
1.24685561656952
 20
0.556627035140991
 11
1.24685561656952
 21
0.519492864608765
  0
LINE
  5
208
100
AcDbEntity
  8
SEMA2D
100
AcDbLine
 62
7
  6
_SOLID
370
9
 10
1.24682307243347
 20
0.510080814361572
 11
1.24682307243347
 21
0.507927060127258
  0
LINE
  5
209
100
AcDbEntity
  8
SEMA2D
100
AcDbLine
 62
7
  6
_SOLID
370
9
 10
1.26319825649261
 20
0.553818047046661
 11
1.26319825649261
 21
0.519765853881836
  0
LINE
  5
20A
100
AcDbEntity
  8
SEMA2D
100
AcDbLine
 62
7
  6
_SOLID
370
9
 10
1.25977766513824
 20
0.553818047046661
 11
1.25977766513824
 21
0.519765853881836
  0
LINE
  5
20B
100
AcDbEntity
  8
SEMA2D
100
AcDbLine
 62
7
  6
_SOLID
370
9
 10
1.25931620597839
 20
0.200711935758591
 11
1.25931620597839
 21
0.199329003691673
  0
LINE
  5
20C
100
AcDbEntity
  8
SEMA2D
100
AcDbLine
 62
7
  6
_SOLID
370
9
 10
1.26478898525238
 20
0.19884280860424
 11
1.26478898525238
 21
0.204026475548744
  0
LINE
  5
20D
100
AcDbEntity
  8
SEMA2D
100
AcDbLine
 62
7
  6
_SOLID
370
9
 10
1.26439261436462
 20
0.282977193593979
 11
1.26439261436462
 21
0.264897644519806
  0
LINE
  5
20E
100
AcDbEntity
  8
SEMA2D
100
AcDbLine
 62
7
  6
_SOLID
370
9
 10
1.26439261436462
 20
0.485601633787155
 11
1.26439261436462
 21
0.470451653003693
  0
LINE
  5
20F
100
AcDbEntity
  8
SEMA2D
100
AcDbLine
 62
7
  6
_SOLID
370
9
 10
1.25931620597839
 20
0.403094679117203
 11
1.25931620597839
 21
0.348964482545853
  0
LINE
  5
210
100
AcDbEntity
  8
SEMA2D
100
AcDbLine
 62
7
  6
_SOLID
370
9
 10
1.25885462760925
 20
0.592078506946564
 11
1.25885462760925
 21
0.569995164871216
  0
LINE
  5
211
100
AcDbEntity
  8
SEMA2D
100
AcDbLine
 62
7
  6
_SOLID
370
9
 10
1.25739240646362
 20
0.57270759344101
 11
1.25739240646362
 21
0.589370012283325
  0
LINE
  5
212
100
AcDbEntity
  8
SEMA2D
100
AcDbLine
 62
7
  6
_SOLID
370
9
 10
1.28425347805023
 20
0.222742915153503
 11
1.28562164306641
 21
0.222742915153503
  0
LINE
  5
213
100
AcDbEntity
  8
SEMA2D
100
AcDbLine
 62
7
  6
_SOLID
370
9
 10
1.28145182132721
 20
0.187731802463531
 11
1.29440641403198
 21
0.184260651469231
  0
LINE
  5
214
100
AcDbEntity
  8
SEMA2D
100
AcDbLine
 62
7
  6
_SOLID
370
9
 10
1.27916634082794
 20
0.188344195485115
 11
1.26478898525238
 21
0.192196607589722
  0
LINE
  5
215
100
AcDbEntity
  8
SEMA2D
100
AcDbLine
 62
7
  6
_SOLID
370
9
 10
1.27731466293335
 20
0.19293150305748
 11
1.27868282794952
 21
0.19293150305748
  0
LINE
  5
216
100
AcDbEntity
  8
SEMA2D
100
AcDbLine
 62
7
  6
_SOLID
370
9
 10
1.27871537208557
 20
0.192922785878181
 11
1.28008365631104
 21
0.192922785878181
  0
LINE
  5
217
100
AcDbEntity
  8
SEMA2D
100
AcDbLine
 62
7
  6
_SOLID
370
9
 10
1.24984014034271
 20
0.595489501953125
 11
1.25734674930573
 21
0.602996170520782
  0
LINE
  5
218
100
AcDbEntity
  8
SEMA2D
100
AcDbLine
 62
7
  6
_SOLID
370
9
 10
1.24467790126801
 20
0.596853792667389
 11
1.25184309482574
 21
0.604019045829773
  0
LINE
  5
219
100
AcDbEntity
  8
SEMA2D
100
AcDbLine
 62
7
  6
_SOLID
370
9
 10
1.28145182132721
 20
0.221992239356041
 11
1.28425347805023
 21
0.222742915153503
  0
LINE
  5
21A
100
AcDbEntity
  8
SEMA2D
100
AcDbLine
 62
7
  6
_SOLID
370
9
 10
1.27868282794952
 20
0.219467177987099
 11
1.28425347805023
 21
0.220959812402725
  0
LINE
  5
21B
100
AcDbEntity
  8
SEMA2D
100
AcDbLine
 62
7
  6
_SOLID
370
9
 10
1.27677094936371
 20
0.215388685464859
 11
1.27731466293335
 21
0.215534374117851
  0
LINE
  5
21C
100
AcDbEntity
  8
SEMA2D
100
AcDbLine
 62
7
  6
_SOLID
370
9
 10
1.27871537208557
 20
0.215018153190613
 11
1.28008365631104
 21
0.215018153190613
  0
LINE
  5
21D
100
AcDbEntity
  8
SEMA2D
100
AcDbLine
 62
7
  6
_SOLID
370
9
 10
1.27731466293335
 20
0.215009436011314
 11
1.27868282794952
 21
0.215009436011314
  0
LINE
  5
21E
100
AcDbEntity
  8
SEMA2D
100
AcDbLine
 62
7
  6
_SOLID
370
9
 10
1.25434827804565
 20
0.181082919239998
 11
1.27639162540436
 21
0.175176426768303
  0
LINE
  5
21F
100
AcDbEntity
  8
SEMA2D
100
AcDbLine
 62
7
  6
_SOLID
370
9
 10
1.28285264968872
 20
0.17904070019722
 11
1.28437805175781
 21
0.17904070019722
  0
LINE
  5
220
100
AcDbEntity
  8
SEMA2D
100
AcDbLine
 62
7
  6
_SOLID
370
9
 10
1.26900768280029
 20
0.175176426768303
 11
1.28008365631104
 21
0.175176426768303
  0
LINE
  5
221
100
AcDbEntity
  8
SEMA2D
100
AcDbLine
 62
7
  6
_SOLID
370
9
 10
1.29424917697906
 20
0.179454579949379
 11
1.28437805175781
 21
0.178067281842232
  0
LINE
  5
222
100
AcDbEntity
  8
SEMA2D
100
AcDbLine
 62
7
  6
_SOLID
370
9
 10
1.29424917697906
 20
0.182462960481644
 11
1.29577469825745
 21
0.182462960481644
  0
LINE
  5
223
100
AcDbEntity
  8
SEMA2D
100
AcDbLine
 62
7
  6
_SOLID
370
9
 10
1.29458284378052
 20
0.17813715338707
 11
1.28008365631104
 21
0.176099419593811
  0
ARC
  5
224
100
AcDbEntity
  8
SEMA2D
100
AcDbCircle
 62
7
  6
_SOLID
370
9
 10
1.23108112812042
 20
0.102191172540188
 40
0.0822512730956078
100
AcDbArc
 50
62.5414886474609
 51
73.5678482055664
  0
LINE
  5
225
100
AcDbEntity
  8
SEMA2D
100
AcDbLine
 62
7
  6
_SOLID
370
9
 10
1.26478898525238
 20
0.19884280860424
 11
1.27594637870789
 21
0.195953905582428
  0
LINE
  5
226
100
AcDbEntity
  8
SEMA2D
100
AcDbLine
 62
7
  6
_SOLID
370
9
 10
1.26478898525238
 20
0.204026475548744
 11
1.27594637870789
 21
0.210457995533943
  0
LINE
  5
227
100
AcDbEntity
  8
SEMA2D
100
AcDbLine
 62
7
  6
_SOLID
370
9
 10
1.26301181316376
 20
0.207108780741692
 11
1.27644073963165
 21
0.215126425027847
  0
LINE
  5
228
100
AcDbEntity
  8
SEMA2D
100
AcDbLine
 62
7
  6
_SOLID
370
9
 10
1.2792637348175
 20
0.327530086040497
 11
1.26494705677032
 21
0.336663335561752
  0
LINE
  5
229
100
AcDbEntity
  8
SEMA2D
100
AcDbLine
 62
7
  6
_SOLID
370
9
 10
1.27765607833862
 20
0.424341320991516
 11
1.27935671806335
 21
0.425652623176575
  0
LINE
  5
22A
100
AcDbEntity
  8
SEMA2D
100
AcDbLine
 62
7
  6
_SOLID
370
9
 10
1.2792637348175
 20
0.425898760557175
 11
1.26494705677032
 21
0.416765511035919
  0
ARC
  5
22B
100
AcDbEntity
  8
SEMA2D
100
AcDbCircle
 62
7
  6
_SOLID
370
9
 10
1.2336403131485
 20
0.213921085000038
 40
0.0123048657551408
100
AcDbArc
 50
331.604400634766
 51
2.58102655410767
  0
ARC
  5
22C
100
AcDbEntity
  8
SEMA2D
100
AcDbCircle
 62
7
  6
_SOLID
370
9
 10
1.20719218254089
 20
0.269022017717361
 40
0.0573489665985107
100
AcDbArc
 50
312.657684326172
 51
355.875885009766
  0
ARC
  5
22D
100
AcDbEntity
  8
SEMA2D
100
AcDbCircle
 62
7
  6
_SOLID
370
9
 10
1.24672567844391
 20
0.28635174036026
 40
0.0179863981902599
100
AcDbArc
 50
349.186309814453
 51
39.9656753540039
  0
ARC
  5
22E
100
AcDbEntity
  8
SEMA2D
100
AcDbCircle
 62
7
  6
_SOLID
370
9
 10
1.24204611778259
 20
0.29749408364296
 40
0.0184694454073906
100
AcDbArc
 50
1.27457451820374
 51
62.9559288024902
  0
ARC
  5
22F
100
AcDbEntity
  8
SEMA2D
100
AcDbCircle
 62
7
  6
_SOLID
370
9
 10
1.25822758674622
 20
0.322710573673248
 40
0.0117235379293561
100
AcDbArc
 50
178.277954101562
 51
228.397827148438
  0
ARC
  5
230
100
AcDbEntity
  8
SEMA2D
100
AcDbCircle
 62
7
  6
_SOLID
370
9
 10
1.27341079711914
 20
0.347929418087006
 40
0.0140910679474473
100
AcDbArc
 50
175.787445068359
 51
233.084167480469
  0
ARC
  5
231
100
AcDbEntity
  8
SEMA2D
100
AcDbCircle
 62
7
  6
_SOLID
370
9
 10
1.23600268363953
 20
0.333751082420349
 40
0.0103973532095551
100
AcDbArc
 50
358.063018798828
 51
38.694278717041
  0
ARC
  5
232
100
AcDbEntity
  8
SEMA2D
100
AcDbCircle
 62
7
  6
_SOLID
370
9
 10
1.27592658996582
 20
0.404248028993607
 40
0.0166503991931677
100
AcDbArc
 50
131.255035400391
 51
183.972061157227
  0
ARC
  5
233
100
AcDbEntity
  8
SEMA2D
100
AcDbCircle
 62
7
  6
_SOLID
370
9
 10
1.26666820049286
 20
0.409576594829559
 40
0.0228099767118692
100
AcDbArc
 50
152.725952148438
 51
169.693634033203
  0
ARC
  5
234
100
AcDbEntity
  8
SEMA2D
100
AcDbCircle
 62
7
  6
_SOLID
370
9
 10
1.22183859348297
 20
0.469407021999359
 40
0.0425668433308601
100
AcDbArc
 50
328.409973144531
 51
1.4062180519104
  0
ARC
  5
235
100
AcDbEntity
  8
SEMA2D
100
AcDbCircle
 62
7
  6
_SOLID
370
9
 10
1.27501201629639
 20
0.422706633806229
 40
0.0296911280602217
100
AcDbArc
 50
124.727439880371
 51
162.956558227539
  0
ARC
  5
236
100
AcDbEntity
  8
SEMA2D
100
AcDbCircle
 62
7
  6
_SOLID
370
9
 10
1.27547252178192
 20
0.427751183509827
 40
0.0290785618126392
100
AcDbArc
 50
172.773590087891
 51
179.774017333984
  0
LINE
  5
237
100
AcDbEntity
  8
SEMA2D
100
AcDbLine
 62
7
  6
_SOLID
370
9
 10
1.4861147403717
 20
0.879021406173706
 11
1.69756507873535
 21
0.879021406173706
  0
LINE
  5
238
100
AcDbEntity
  8
SEMA2D
100
AcDbLine
 62
7
  6
_SOLID
370
9
 10
1.4861147403717
 20
0.879021406173706
 11
1.4861147403717
 21
0.886021435260773
  0
LINE
  5
239
100
AcDbEntity
  8
SEMA2D
100
AcDbLine
 62
7
  6
_SOLID
370
9
 10
1.4861147403717
 20
0.879021406173706
 11
1.4861147403717
 21
0.872021436691284
  0
LINE
  5
23A
100
AcDbEntity
  8
SEMA2D
100
AcDbLine
 62
7
  6
_SOLID
370
9
 10
1.4861147403717
 20
0.879021406173706
 11
1.49217689037323
 21
0.882521390914917
  0
LINE
  5
23B
100
AcDbEntity
  8
SEMA2D
100
AcDbLine
 62
7
  6
_SOLID
370
9
 10
1.4861147403717
 20
0.879021406173706
 11
1.48005259037018
 21
0.875521421432495
  0
LINE
  5
23C
100
AcDbEntity
  8
SEMA2D
100
AcDbLine
 62
7
  6
_DOT
370
9
 10
1.4861147403717
 20
0.829021394252777
 11
1.4861147403717
 21
0.879021406173706
  0
LINE
  5
23D
100
AcDbEntity
  8
SEMA2D
100
AcDbLine
 62
7
  6
_DOT
370
9
 10
1.4861147403717
 20
0.879021406173706
 11
1.4861147403717
 21
0.829021394252777
  0
MTEXT
  5
23E
100
AcDbEntity
  8
SEMATEXT
100
AcDbMText
 62
7
 10
1.58458566665649
 20
0.883954346179962
 40
0.00800000037997961
 71
7
  1
{\fArial Narrow;211}
  7
STANDARD
 73
2
  0
LINE
  5
23F
100
AcDbEntity
  8
SEMA2D
100
AcDbLine
 62
7
  6
_SOLID
370
9
 10
1.69756507873535
 20
0.879021406173706
 11
1.69756507873535
 21
0.886021435260773
  0
LINE
  5
240
100
AcDbEntity
  8
SEMA2D
100
AcDbLine
 62
7
  6
_SOLID
370
9
 10
1.69756507873535
 20
0.879021406173706
 11
1.69756507873535
 21
0.872021436691284
  0
LINE
  5
241
100
AcDbEntity
  8
SEMA2D
100
AcDbLine
 62
7
  6
_SOLID
370
9
 10
1.69756507873535
 20
0.879021406173706
 11
1.70362722873688
 21
0.882521390914917
  0
LINE
  5
242
100
AcDbEntity
  8
SEMA2D
100
AcDbLine
 62
7
  6
_SOLID
370
9
 10
1.69756507873535
 20
0.879021406173706
 11
1.69150292873383
 21
0.875521421432495
  0
LINE
  5
243
100
AcDbEntity
  8
SEMA2D
100
AcDbLine
 62
7
  6
_DOT
370
9
 10
1.69756507873535
 20
0.829021394252777
 11
1.69756507873535
 21
0.879021406173706
  0
LINE
  5
244
100
AcDbEntity
  8
SEMA2D
100
AcDbLine
 62
7
  6
_DOT
370
9
 10
1.69756507873535
 20
0.829021394252777
 11
1.69756507873535
 21
0.829021394252777
  0
MTEXT
  5
245
100
AcDbEntity
  8
SEMATEXT
100
AcDbMText
 62
7
 10
1.6067042350769
 20
0.883500814437866
 40
0.00800000037997961
 71
7
  1
{\fArial Narrow;= Deckbreite}
  7
STANDARD
 73
2
  0
MTEXT
  5
246
100
AcDbEntity
  8
SEMATEXT
100
AcDbMText
 62
7
 10
1.32513928413391
 20
0.310002356767654
 40
0.00800000037997961
 50
90
 71
7
  1
{\fArial Narrow;Lattweite = 350 - 362 mm}
  7
STANDARD
 73
2
  0
LINE
  5
247
100
AcDbEntity
  8
SEMA2D
100
AcDbLine
 62
7
  6
_SOLID
370
9
 10
1.33009994029999
 20
0.188534215092659
 11
1.33009994029999
 21
0.575123190879822
  0
LINE
  5
248
100
AcDbEntity
  8
SEMA2D
100
AcDbLine
 62
7
  6
_SOLID
370
9
 10
1.32665550708771
 20
0.581002354621887
 11
1.33362221717834
 21
0.568743705749512
  0
LINE
  5
249
100
AcDbEntity
  8
SEMA2D
100
AcDbLine
 62
7
  6
_SOLID
370
9
 10
1.32365548610687
 20
0.575202345848084
 11
1.33665549755096
 21
0.575202345848084
  0
LINE
  5
24A
100
AcDbEntity
  8
SEMA2D
100
AcDbLine
 62
7
  6
_SOLID
370
9
 10
1.32335543632507
 20
0.188502356410027
 11
1.33715546131134
 21
0.188502356410027
  0
LINE
  5
24B
100
AcDbEntity
  8
SEMA2D
100
AcDbLine
 62
7
  6
_SOLID
370
9
 10
1.33345544338226
 20
0.182302355766296
 11
1.32680058479309
 21
0.194391697645187
  0
LINE
  5
24C
100
AcDbEntity
  8
SEMA2D
100
AcDbLine
 62
7
  6
_DOT
370
9
 10
1.33009994029999
 20
0.575123190879822
 11
1.27871537208557
 21
0.575123190879822
  0
LINE
  5
24D
100
AcDbEntity
  8
SEMA2D
100
AcDbLine
 62
7
  6
_DOT
370
9
 10
1.33009994029999
 20
0.188534215092659
 11
1.28009986877441
 21
0.188534215092659
  0
LINE
  5
24E
100
AcDbEntity
  8
SEMA2D
100
AcDbLine
 62
7
  6
_SOLID
370
9
 10
1.24408364295959
 20
0.65409642457962
 11
1.29508364200592
 21
0.65409642457962
  0
LINE
  5
24F
100
AcDbEntity
  8
SEMA2D
100
AcDbLine
 62
7
  6
_SOLID
370
9
 10
1.24408364295959
 20
0.65409642457962
 11
1.24408364295959
 21
0.661096394062042
  0
LINE
  5
250
100
AcDbEntity
  8
SEMA2D
100
AcDbLine
 62
7
  6
_SOLID
370
9
 10
1.24408364295959
 20
0.65409642457962
 11
1.24408364295959
 21
0.647096395492554
  0
LINE
  5
251
100
AcDbEntity
  8
SEMA2D
100
AcDbLine
 62
7
  6
_SOLID
370
9
 10
1.24408364295959
 20
0.65409642457962
 11
1.25014579296112
 21
0.657596409320831
  0
LINE
  5
252
100
AcDbEntity
  8
SEMA2D
100
AcDbLine
 62
7
  6
_SOLID
370
9
 10
1.24408364295959
 20
0.65409642457962
 11
1.23802149295807
 21
0.650596439838409
  0
LINE
  5
253
100
AcDbEntity
  8
SEMA2D
100
AcDbLine
 62
7
  6
_DOT
370
9
 10
1.24408364295959
 20
0.604096412658691
 11
1.24408364295959
 21
0.65409642457962
  0
LINE
  5
254
100
AcDbEntity
  8
SEMA2D
100
AcDbLine
 62
7
  6
_DOT
370
9
 10
1.24408364295959
 20
0.65409642457962
 11
1.24408364295959
 21
0.604096412658691
  0
MTEXT
  5
255
100
AcDbEntity
  8
SEMATEXT
100
AcDbMText
 62
7
 10
1.25724744796753
 20
0.659029364585876
 40
0.00800000037997961
 71
7
  1
{\fArial Narrow;36}
  7
STANDARD
 73
2
  0
LINE
  5
256
100
AcDbEntity
  8
SEMA2D
100
AcDbLine
 62
7
  6
_SOLID
370
9
 10
1.28008365631104
 20
0.65409642457962
 11
1.28008365631104
 21
0.661096394062042
  0
LINE
  5
257
100
AcDbEntity
  8
SEMA2D
100
AcDbLine
 62
7
  6
_SOLID
370
9
 10
1.28008365631104
 20
0.65409642457962
 11
1.28008365631104
 21
0.647096395492554
  0
LINE
  5
258
100
AcDbEntity
  8
SEMA2D
100
AcDbLine
 62
7
  6
_SOLID
370
9
 10
1.28008365631104
 20
0.65409642457962
 11
1.28614580631256
 21
0.657596409320831
  0
LINE
  5
259
100
AcDbEntity
  8
SEMA2D
100
AcDbLine
 62
7
  6
_SOLID
370
9
 10
1.28008365631104
 20
0.65409642457962
 11
1.27402150630951
 21
0.650596439838409
  0
LINE
  5
25A
100
AcDbEntity
  8
SEMA2D
100
AcDbLine
 62
7
  6
_DOT
370
9
 10
1.28008365631104
 20
0.604096412658691
 11
1.28008365631104
 21
0.65409642457962
  0
LINE
  5
25B
100
AcDbEntity
  8
SEMA2D
100
AcDbLine
 62
7
  6
_DOT
370
9
 10
1.28008365631104
 20
0.604096412658691
 11
1.28008365631104
 21
0.604096412658691
  0
MTEXT
  5
25C
100
AcDbEntity
  8
SEMATEXT
100
AcDbMText
 62
7
 10
1.28274750709534
 20
0.659029364585876
 40
0.00800000037997961
 71
7
  1
{\fArial Narrow;15}
  7
STANDARD
 73
2
  0
LINE
  5
25D
100
AcDbEntity
  8
SEMA2D
100
AcDbLine
 62
7
  6
_SOLID
370
9
 10
1.29508364200592
 20
0.65409642457962
 11
1.29508364200592
 21
0.661096394062042
  0
LINE
  5
25E
100
AcDbEntity
  8
SEMA2D
100
AcDbLine
 62
7
  6
_SOLID
370
9
 10
1.29508364200592
 20
0.65409642457962
 11
1.29508364200592
 21
0.647096395492554
  0
LINE
  5
25F
100
AcDbEntity
  8
SEMA2D
100
AcDbLine
 62
7
  6
_SOLID
370
9
 10
1.29508364200592
 20
0.65409642457962
 11
1.30114579200745
 21
0.657596409320831
  0
LINE
  5
260
100
AcDbEntity
  8
SEMA2D
100
AcDbLine
 62
7
  6
_SOLID
370
9
 10
1.29508364200592
 20
0.65409642457962
 11
1.28902149200439
 21
0.650596439838409
  0
LINE
  5
261
100
AcDbEntity
  8
SEMA2D
100
AcDbLine
 62
7
  6
_DOT
370
9
 10
1.29508364200592
 20
0.604096412658691
 11
1.29508364200592
 21
0.65409642457962
  0
LINE
  5
262
100
AcDbEntity
  8
SEMA2D
100
AcDbLine
 62
7
  6
_DOT
370
9
 10
1.29508364200592
 20
0.604096412658691
 11
1.29508364200592
 21
0.604096412658691
  0
LINE
  5
263
100
AcDbEntity
  8
SEMA2D
100
AcDbLine
 62
7
  6
_SOLID
370
9
 10
1.24408662319183
 20
0.125176429748535
 11
1.29508662223816
 21
0.125176429748535
  0
LINE
  5
264
100
AcDbEntity
  8
SEMA2D
100
AcDbLine
 62
7
  6
_SOLID
370
9
 10
1.24408662319183
 20
0.125176429748535
 11
1.24408662319183
 21
0.132176429033279
  0
LINE
  5
265
100
AcDbEntity
  8
SEMA2D
100
AcDbLine
 62
7
  6
_SOLID
370
9
 10
1.24408662319183
 20
0.125176429748535
 11
1.24408662319183
 21
0.11817642301321
  0
LINE
  5
266
100
AcDbEntity
  8
SEMA2D
100
AcDbLine
 62
7
  6
_SOLID
370
9
 10
1.24408662319183
 20
0.125176429748535
 11
1.25014877319336
 21
0.128676429390907
  0
LINE
  5
267
100
AcDbEntity
  8
SEMA2D
100
AcDbLine
 62
7
  6
_SOLID
370
9
 10
1.24408662319183
 20
0.125176429748535
 11
1.23802447319031
 21
0.121676422655582
  0
LINE
  5
268
100
AcDbEntity
  8
SEMA2D
100
AcDbLine
 62
7
  6
_DOT
370
9
 10
1.24408662319183
 20
0.175176426768303
 11
1.24408662319183
 21
0.125176429748535
  0
LINE
  5
269
100
AcDbEntity
  8
SEMA2D
100
AcDbLine
 62
7
  6
_DOT
370
9
 10
1.24408662319183
 20
0.175176426768303
 11
1.24408662319183
 21
0.175176426768303
  0
MTEXT
  5
26A
100
AcDbEntity
  8
SEMATEXT
100
AcDbMText
 62
7
 10
1.26475048065186
 20
0.130109339952469
 40
0.00800000037997961
 71
7
  1
{\fArial Narrow;51}
  7
STANDARD
 73
2
  0
LINE
  5
26B
100
AcDbEntity
  8
SEMA2D
100
AcDbLine
 62
7
  6
_SOLID
370
9
 10
1.29508662223816
 20
0.125176429748535
 11
1.29508662223816
 21
0.132176429033279
  0
LINE
  5
26C
100
AcDbEntity
  8
SEMA2D
100
AcDbLine
 62
7
  6
_SOLID
370
9
 10
1.29508662223816
 20
0.125176429748535
 11
1.29508662223816
 21
0.11817642301321
  0
LINE
  5
26D
100
AcDbEntity
  8
SEMA2D
100
AcDbLine
 62
7
  6
_SOLID
370
9
 10
1.29508662223816
 20
0.125176429748535
 11
1.30114877223969
 21
0.128676429390907
  0
LINE
  5
26E
100
AcDbEntity
  8
SEMA2D
100
AcDbLine
 62
7
  6
_SOLID
370
9
 10
1.29508662223816
 20
0.125176429748535
 11
1.28902447223663
 21
0.121676422655582
  0
LINE
  5
26F
100
AcDbEntity
  8
SEMA2D
100
AcDbLine
 62
7
  6
_DOT
370
9
 10
1.29508662223816
 20
0.175176426768303
 11
1.29508662223816
 21
0.125176429748535
  0
LINE
  5
270
100
AcDbEntity
  8
SEMA2D
100
AcDbLine
 62
7
  6
_DOT
370
9
 10
1.29508662223816
 20
0.175176426768303
 11
1.29508662223816
 21
0.175176426768303
  0
LINE
  5
271
100
AcDbEntity
  8
SEMA2D
100
AcDbLine
 62
7
  6
_SOLID
370
9
 10
1.74606037139893
 20
0.175176426768303
 11
1.74606037139893
 21
0.604096412658691
  0
LINE
  5
272
100
AcDbEntity
  8
SEMA2D
100
AcDbLine
 62
7
  6
_SOLID
370
9
 10
1.74606037139893
 20
0.175176426768303
 11
1.73906028270721
 21
0.175176426768303
  0
LINE
  5
273
100
AcDbEntity
  8
SEMA2D
100
AcDbLine
 62
7
  6
_SOLID
370
9
 10
1.74606037139893
 20
0.175176426768303
 11
1.75306034088135
 21
0.175176426768303
  0
LINE
  5
274
100
AcDbEntity
  8
SEMA2D
100
AcDbLine
 62
7
  6
_SOLID
370
9
 10
1.74606037139893
 20
0.175176426768303
 11
1.74256038665771
 21
0.181238606572151
  0
LINE
  5
275
100
AcDbEntity
  8
SEMA2D
100
AcDbLine
 62
7
  6
_SOLID
370
9
 10
1.74606037139893
 20
0.175176426768303
 11
1.74956035614014
 21
0.169114246964455
  0
LINE
  5
276
100
AcDbEntity
  8
SEMA2D
100
AcDbLine
 62
7
  6
_DOT
370
9
 10
1.69606029987335
 20
0.175176426768303
 11
1.74606037139893
 21
0.175176426768303
  0
LINE
  5
277
100
AcDbEntity
  8
SEMA2D
100
AcDbLine
 62
7
  6
_DOT
370
9
 10
1.69606029987335
 20
0.175176426768303
 11
1.69606029987335
 21
0.175176426768303
  0
MTEXT
  5
278
100
AcDbEntity
  8
SEMATEXT
100
AcDbMText
 62
7
 10
1.74112737178802
 20
0.381173074245453
 40
0.00800000037997961
 50
90
 71
7
  1
{\fArial Narrow;429}
  7
STANDARD
 73
2
  0
LINE
  5
279
100
AcDbEntity
  8
SEMA2D
100
AcDbLine
 62
7
  6
_SOLID
370
9
 10
1.74606037139893
 20
0.604096412658691
 11
1.73906028270721
 21
0.604096412658691
  0
LINE
  5
27A
100
AcDbEntity
  8
SEMA2D
100
AcDbLine
 62
7
  6
_SOLID
370
9
 10
1.74606037139893
 20
0.604096412658691
 11
1.75306034088135
 21
0.604096412658691
  0
LINE
  5
27B
100
AcDbEntity
  8
SEMA2D
100
AcDbLine
 62
7
  6
_SOLID
370
9
 10
1.74606037139893
 20
0.604096412658691
 11
1.74256038665771
 21
0.610158622264862
  0
LINE
  5
27C
100
AcDbEntity
  8
SEMA2D
100
AcDbLine
 62
7
  6
_SOLID
370
9
 10
1.74606037139893
 20
0.604096412658691
 11
1.74956035614014
 21
0.598034262657166
  0
LINE
  5
27D
100
AcDbEntity
  8
SEMA2D
100
AcDbLine
 62
7
  6
_DOT
370
9
 10
1.69606029987335
 20
0.604096412658691
 11
1.74606037139893
 21
0.604096412658691
  0
LINE
  5
27E
100
AcDbEntity
  8
SEMA2D
100
AcDbLine
 62
7
  6
_DOT
370
9
 10
1.69606029987335
 20
0.604096412658691
 11
1.69606029987335
 21
0.604096412658691
  0
LINE
  5
27F
100
AcDbEntity
  8
SEMA2D
100
AcDbLine
 62
7
  6
_SOLID
370
9
 10
1.44327902793884
 20
0.65409642457962
 11
1.69618117809296
 21
0.65409642457962
  0
LINE
  5
280
100
AcDbEntity
  8
SEMA2D
100
AcDbLine
 62
7
  6
_SOLID
370
9
 10
1.44327902793884
 20
0.65409642457962
 11
1.44327902793884
 21
0.661096453666687
  0
LINE
  5
281
100
AcDbEntity
  8
SEMA2D
100
AcDbLine
 62
7
  6
_SOLID
370
9
 10
1.44327902793884
 20
0.65409642457962
 11
1.44327902793884
 21
0.647096395492554
  0
LINE
  5
282
100
AcDbEntity
  8
SEMA2D
100
AcDbLine
 62
7
  6
_SOLID
370
9
 10
1.44327902793884
 20
0.65409642457962
 11
1.44934129714966
 21
0.657596409320831
  0
LINE
  5
283
100
AcDbEntity
  8
SEMA2D
100
AcDbLine
 62
7
  6
_SOLID
370
9
 10
1.44327902793884
 20
0.65409642457962
 11
1.43721687793732
 21
0.650596439838409
  0
LINE
  5
284
100
AcDbEntity
  8
SEMA2D
100
AcDbLine
 62
7
  6
_DOT
370
9
 10
1.44327902793884
 20
0.604096412658691
 11
1.44327902793884
 21
0.65409642457962
  0
LINE
  5
285
100
AcDbEntity
  8
SEMA2D
100
AcDbLine
 62
7
  6
_DOT
370
9
 10
1.44327902793884
 20
0.604096412658691
 11
1.44327902793884
 21
0.604096412658691
  0
MTEXT
  5
286
100
AcDbEntity
  8
SEMATEXT
100
AcDbMText
 62
7
 10
1.56247580051422
 20
0.659029364585876
 40
0.00800000037997961
 71
7
  1
{\fArial Narrow;253}
  7
STANDARD
 73
2
  0
LINE
  5
287
100
AcDbEntity
  8
SEMA2D
100
AcDbLine
 62
7
  6
_SOLID
370
9
 10
1.69618117809296
 20
0.65409642457962
 11
1.69618117809296
 21
0.661096453666687
  0
LINE
  5
288
100
AcDbEntity
  8
SEMA2D
100
AcDbLine
 62
7
  6
_SOLID
370
9
 10
1.69618117809296
 20
0.65409642457962
 11
1.69618117809296
 21
0.647096395492554
  0
LINE
  5
289
100
AcDbEntity
  8
SEMA2D
100
AcDbLine
 62
7
  6
_SOLID
370
9
 10
1.69618117809296
 20
0.65409642457962
 11
1.70224332809448
 21
0.657596409320831
  0
LINE
  5
28A
100
AcDbEntity
  8
SEMA2D
100
AcDbLine
 62
7
  6
_SOLID
370
9
 10
1.69618117809296
 20
0.65409642457962
 11
1.69011902809143
 21
0.650596439838409
  0
LINE
  5
28B
100
AcDbEntity
  8
SEMA2D
100
AcDbLine
 62
7
  6
_DOT
370
9
 10
1.69618117809296
 20
0.604096412658691
 11
1.69618117809296
 21
0.65409642457962
  0
LINE
  5
28C
100
AcDbEntity
  8
SEMA2D
100
AcDbLine
 62
7
  6
_DOT
370
9
 10
1.69618117809296
 20
0.604096412658691
 11
1.69618117809296
 21
0.604096412658691
  0
LINE
  5
28D
100
AcDbEntity
  8
SEMA2D
100
AcDbLine
 62
7
  6
_SOLID
370
9
 10
1.49477958679199
 20
0.567769289016724
 11
1.49478375911713
 21
0.568120718002319
  0
LINE
  5
28E
100
AcDbEntity
  8
SEMA2D
100
AcDbLine
 62
7
  6
_SOLID
370
9
 10
1.49478375911713
 20
0.568120718002319
 11
1.49478793144226
 21
0.56847208738327
  0
LINE
  5
28F
100
AcDbEntity
  8
SEMA2D
100
AcDbLine
 62
7
  6
_SOLID
370
9
 10
1.49478793144226
 20
0.56847208738327
 11
1.49479210376739
 21
0.568823456764221
  0
LINE
  5
290
100
AcDbEntity
  8
SEMA2D
100
AcDbLine
 62
7
  6
_SOLID
370
9
 10
1.48667287826538
 20
0.201562464237213
 11
1.48655760288239
 21
0.209592804312706
  0
LINE
  5
291
100
AcDbEntity
  8
SEMA2D
100
AcDbLine
 62
7
  6
_SOLID
370
9
 10
1.45471000671387
 20
0.236081272363663
 11
1.45044302940369
 21
0.237822741270065
  0
LINE
  5
292
100
AcDbEntity
  8
SEMA2D
100
AcDbLine
 62
7
  6
_SOLID
370
9
 10
1.69531607627869
 20
0.194433584809303
 11
1.69367098808289
 21
0.194456160068512
  0
LINE
  5
293
100
AcDbEntity
  8
SEMA2D
100
AcDbLine
 62
7
  6
_SOLID
370
9
 10
1.50157880783081
 20
0.57270759344101
 11
1.50043475627899
 21
0.571265339851379
  0
LINE
  5
294
100
AcDbEntity
  8
SEMA2D
100
AcDbLine
 62
7
  6
_SOLID
370
9
 10
1.53719997406006
 20
0.183689549565315
 11
1.53806364536285
 21
0.18303744494915
  0
LINE
  5
295
100
AcDbEntity
  8
SEMA2D
100
AcDbLine
 62
7
  6
_SOLID
370
9
 10
1.4848141670227
 20
0.201020419597626
 11
1.44327914714813
 21
0.201020419597626
  0
LINE
  5
296
100
AcDbEntity
  8
SEMA2D
100
AcDbLine
 62
7
  6
_SOLID
370
9
 10
1.50606298446655
 20
0.56821209192276
 11
1.50429725646973
 21
0.565986216068268
  0
LINE
  5
297
100
AcDbEntity
  8
SEMA2D
100
AcDbLine
 62
7
  6
_SOLID
370
9
 10
1.55183148384094
 20
0.190764158964157
 11
1.54958248138428
 21
0.192211836576462
  0
LINE
  5
298
100
AcDbEntity
  8
SEMA2D
100
AcDbLine
 62
7
  6
_SOLID
370
9
 10
1.55806684494019
 20
0.190157756209373
 11
1.55709433555603
 21
0.190764158964157
  0
LINE
  5
299
100
AcDbEntity
  8
SEMA2D
100
AcDbLine
 62
7
  6
_SOLID
370
9
 10
1.45558726787567
 20
0.228475302457809
 11
1.45103549957275
 21
0.228418484330177
  0
LINE
  5
29A
100
AcDbEntity
  8
SEMA2D
100
AcDbLine
 62
7
  6
_SOLID
370
9
 10
1.46740436553955
 20
0.228268042206764
 11
1.46296727657318
 21
0.228212624788284
  0
LINE
  5
29B
100
AcDbEntity
  8
SEMA2D
100
AcDbLine
 62
7
  6
_SOLID
370
9
 10
1.49549639225006
 20
0.522213339805603
 11
1.49697399139404
 21
0.523162722587585
  0
LINE
  5
29C
100
AcDbEntity
  8
SEMA2D
100
AcDbLine
 62
7
  6
_SOLID
370
9
 10
1.52299618721008
 20
0.558041334152222
 11
1.5187931060791
 21
0.555614709854126
  0
LINE
  5
29D
100
AcDbEntity
  8
SEMA2D
100
AcDbLine
 62
7
  6
_SOLID
370
9
 10
1.52145195007324
 20
0.560715973377228
 11
1.51724898815155
 21
0.558289349079132
  0
LINE
  5
29E
100
AcDbEntity
  8
SEMA2D
100
AcDbLine
 62
7
  6
_SOLID
370
9
 10
1.50661838054657
 20
0.56256091594696
 11
1.51082134246826
 21
0.564987480640411
  0
LINE
  5
29F
100
AcDbEntity
  8
SEMA2D
100
AcDbLine
 62
7
  6
_SOLID
370
9
 10
1.56166636943817
 20
0.195259243249893
 11
1.5630487203598
 21
0.194456160068512
  0
LINE
  5
2A0
100
AcDbEntity
  8
SEMA2D
100
AcDbLine
 62
7
  6
_SOLID
370
9
 10
1.46806001663208
 20
0.231011241674423
 11
1.46375679969788
 21
0.232583671808243
  0
LINE
  5
2A1
100
AcDbEntity
  8
SEMA2D
100
AcDbLine
 62
7
  6
_SOLID
370
9
 10
1.66614890098572
 20
0.603152275085449
 11
1.6694141626358
 21
0.604096412658691
  0
LINE
  5
2A2
100
AcDbEntity
  8
SEMA2D
100
AcDbLine
 62
7
  6
_SOLID
370
9
 10
1.69346296787262
 20
0.181082919239998
 11
1.49151825904846
 21
0.181082919239998
  0
LINE
  5
2A3
100
AcDbEntity
  8
SEMA2D
100
AcDbLine
 62
7
  6
_SOLID
370
9
 10
1.48850607872009
 20
0.175176426768303
 11
1.69082772731781
 21
0.175176426768303
  0
LINE
  5
2A4
100
AcDbEntity
  8
SEMA2D
100
AcDbLine
 62
7
  6
_SOLID
370
9
 10
1.50329923629761
 20
0.181082919239998
 11
1.49675524234772
 21
0.181082919239998
  0
LINE
  5
2A5
100
AcDbEntity
  8
SEMA2D
100
AcDbLine
 62
7
  6
_SOLID
370
9
 10
1.46775710582733
 20
0.596401631832123
 11
1.4649099111557
 21
0.592931568622589
  0
LINE
  5
2A6
100
AcDbEntity
  8
SEMA2D
100
AcDbLine
 62
7
  6
_SOLID
370
9
 10
1.46593856811523
 20
0.598207294940948
 11
1.4630913734436
 21
0.594737231731415
  0
LINE
  5
2A7
100
AcDbEntity
  8
SEMA2D
100
AcDbLine
 62
7
  6
_SOLID
370
9
 10
1.58236598968506
 20
0.190764158964157
 11
1.58762872219086
 21
0.190764158964157
  0
LINE
  5
2A8
100
AcDbEntity
  8
SEMA2D
100
AcDbLine
 62
7
  6
_SOLID
370
9
 10
1.55183148384094
 20
0.190764158964157
 11
1.55709433555603
 21
0.190764158964157
  0
LINE
  5
2A9
100
AcDbEntity
  8
SEMA2D
100
AcDbLine
 62
7
  6
_SOLID
370
9
 10
1.64137518405914
 20
0.194440081715584
 11
1.64488220214844
 21
0.194456160068512
  0
LINE
  5
2AA
100
AcDbEntity
  8
SEMA2D
100
AcDbLine
 62
7
  6
_SOLID
370
9
 10
1.50307321548462
 20
0.194456160068512
 11
1.49139833450317
 21
0.194456160068512
  0
LINE
  5
2AB
100
AcDbEntity
  8
SEMA2D
100
AcDbLine
 62
7
  6
_SOLID
370
9
 10
1.576411485672
 20
0.194456160068512
 11
1.5630487203598
 21
0.194456160068512
  0
LINE
  5
2AC
100
AcDbEntity
  8
SEMA2D
100
AcDbLine
 62
7
  6
_SOLID
370
9
 10
1.69367098808289
 20
0.194456160068512
 11
1.64488220214844
 21
0.194456160068512
  0
LINE
  5
2AD
100
AcDbEntity
  8
SEMA2D
100
AcDbLine
 62
7
  6
_SOLID
370
9
 10
1.50507414340973
 20
0.565235555171967
 11
1.51022970676422
 21
0.56821209192276
  0
LINE
  5
2AE
100
AcDbEntity
  8
SEMA2D
100
AcDbLine
 62
7
  6
_SOLID
370
9
 10
1.49963998794556
 20
0.567769289016724
 11
1.50111758708954
 21
0.568718671798706
  0
LINE
  5
2AF
100
AcDbEntity
  8
SEMA2D
100
AcDbLine
 62
7
  6
_SOLID
370
9
 10
1.4630913734436
 20
0.594737231731415
 11
1.4630913734436
 21
0.602167427539825
  0
LINE
  5
2B0
100
AcDbEntity
  8
SEMA2D
100
AcDbLine
 62
7
  6
_SOLID
370
9
 10
1.46127283573151
 20
0.592281639575958
 11
1.46127283573151
 21
0.601754605770111
  0
LINE
  5
2B1
100
AcDbEntity
  8
SEMA2D
100
AcDbLine
 62
7
  6
_SOLID
370
9
 10
1.46021473407745
 20
0.603541433811188
 11
1.46021473407745
 21
0.601713418960571
  0
LINE
  5
2B2
100
AcDbEntity
  8
SEMA2D
100
AcDbLine
 62
7
  6
_SOLID
370
9
 10
1.46593856811523
 20
0.601324260234833
 11
1.46593856811523
 21
0.598207294940948
  0
LINE
  5
2B3
100
AcDbEntity
  8
SEMA2D
100
AcDbLine
 62
7
  6
_SOLID
370
9
 10
1.616215467453
 20
0.563452422618866
 11
1.61775970458984
 21
0.564343988895416
  0
LINE
  5
2B4
100
AcDbEntity
  8
SEMA2D
100
AcDbLine
 62
7
  6
_SOLID
370
9
 10
1.52826249599457
 20
0.513049364089966
 11
1.5268018245697
 21
0.512026607990265
  0
LINE
  5
2B5
100
AcDbEntity
  8
SEMA2D
100
AcDbLine
 62
7
  6
_SOLID
370
9
 10
1.52625381946564
 20
0.515917956829071
 11
1.52479326725006
 21
0.51489520072937
  0
LINE
  5
2B6
100
AcDbEntity
  8
SEMA2D
100
AcDbLine
 62
7
  6
_SOLID
370
9
 10
1.63623213768005
 20
0.563452422618866
 11
1.63468790054321
 21
0.56256091594696
  0
LINE
  5
2B7
100
AcDbEntity
  8
SEMA2D
100
AcDbLine
 62
7
  6
_SOLID
370
9
 10
1.6183100938797
 20
0.559824407100678
 11
1.61985433101654
 21
0.560715973377228
  0
LINE
  5
2B8
100
AcDbEntity
  8
SEMA2D
100
AcDbLine
 62
7
  6
_SOLID
370
9
 10
1.46112251281738
 20
0.603590428829193
 11
1.46127283573151
 21
0.601754605770111
  0
LINE
  5
2B9
100
AcDbEntity
  8
SEMA2D
100
AcDbLine
 62
7
  6
_SOLID
370
9
 10
1.63832676410675
 20
0.559824407100678
 11
1.63678252696991
 21
0.558932840824127
  0
LINE
  5
2BA
100
AcDbEntity
  8
SEMA2D
100
AcDbLine
 62
7
  6
_SOLID
370
9
 10
1.46775710582733
 20
0.596401631832123
 11
1.46775710582733
 21
0.603152275085449
  0
LINE
  5
2BB
100
AcDbEntity
  8
SEMA2D
100
AcDbLine
 62
7
  6
_SOLID
370
9
 10
1.63382875919342
 20
0.593884170055389
 11
1.63559448719025
 21
0.595649898052216
  0
LINE
  5
2BC
100
AcDbEntity
  8
SEMA2D
100
AcDbLine
 62
7
  6
_SOLID
370
9
 10
1.53798151016235
 20
0.553088903427124
 11
1.53500497341156
 21
0.550112426280975
  0
LINE
  5
2BD
100
AcDbEntity
  8
SEMA2D
100
AcDbLine
 62
7
  6
_SOLID
370
9
 10
1.53352355957031
 20
0.557546615600586
 11
1.5305472612381
 21
0.554570138454437
  0
LINE
  5
2BE
100
AcDbEntity
  8
SEMA2D
100
AcDbLine
 62
7
  6
_SOLID
370
9
 10
1.50093853473663
 20
0.521419525146484
 11
1.50015377998352
 21
0.520430266857147
  0
LINE
  5
2BF
100
AcDbEntity
  8
SEMA2D
100
AcDbLine
 62
7
  6
_SOLID
370
9
 10
1.45403635501862
 20
0.498842567205429
 11
1.44978702068329
 21
0.497058361768723
  0
LINE
  5
2C0
100
AcDbEntity
  8
SEMA2D
100
AcDbLine
 62
7
  6
_SOLID
370
9
 10
1.64036643505096
 20
0.59384423494339
 11
1.63885390758514
 21
0.592921257019043
  0
LINE
  5
2C1
100
AcDbEntity
  8
SEMA2D
100
AcDbLine
 62
7
  6
_SOLID
370
9
 10
1.50297951698303
 20
0.559824407100678
 11
1.50507414340973
 21
0.563452422618866
  0
LINE
  5
2C2
100
AcDbEntity
  8
SEMA2D
100
AcDbLine
 62
7
  6
_SOLID
370
9
 10
1.56829464435577
 20
0.207653939723969
 11
1.56973016262054
 21
0.206950157880783
  0
LINE
  5
2C3
100
AcDbEntity
  8
SEMA2D
100
AcDbLine
 62
7
  6
_SOLID
370
9
 10
1.56973016262054
 20
0.226039871573448
 11
1.56723368167877
 21
0.226999968290329
  0
LINE
  5
2C4
100
AcDbEntity
  8
SEMA2D
100
AcDbLine
 62
7
  6
_SOLID
370
9
 10
1.51082134246826
 20
0.564987480640411
 11
1.50592470169067
 21
0.556506276130676
  0
LINE
  5
2C5
100
AcDbEntity
  8
SEMA2D
100
AcDbLine
 62
7
  6
_SOLID
370
9
 10
1.50452375411987
 20
0.558932840824127
 11
1.50661838054657
 21
0.56256091594696
  0
LINE
  5
2C6
100
AcDbEntity
  8
SEMA2D
100
AcDbLine
 62
7
  6
_SOLID
370
9
 10
1.52509081363678
 20
0.563452422618866
 11
1.52299618721008
 21
0.559824407100678
  0
LINE
  5
2C7
100
AcDbEntity
  8
SEMA2D
100
AcDbLine
 62
7
  6
_SOLID
370
9
 10
1.52354657649994
 20
0.564343988895416
 11
1.52145195007324
 21
0.560715973377228
  0
LINE
  5
2C8
100
AcDbEntity
  8
SEMA2D
100
AcDbLine
 62
7
  6
_SOLID
370
9
 10
1.52214562892914
 20
0.566770613193512
 11
1.51724898815155
 21
0.558289349079132
  0
LINE
  5
2C9
100
AcDbEntity
  8
SEMA2D
100
AcDbLine
 62
7
  6
_SOLID
370
9
 10
1.46734535694122
 20
0.50394481420517
 11
1.46306526660919
 21
0.50238311290741
  0
LINE
  5
2CA
100
AcDbEntity
  8
SEMA2D
100
AcDbLine
 62
7
  6
_SOLID
370
9
 10
1.44588756561279
 20
0.603541433811188
 11
1.44588756561279
 21
0.601713418960571
  0
LINE
  5
2CB
100
AcDbEntity
  8
SEMA2D
100
AcDbLine
 62
7
  6
_SOLID
370
9
 10
1.45406270027161
 20
0.502659916877747
 11
1.44983887672424
 21
0.504502534866333
  0
LINE
  5
2CC
100
AcDbEntity
  8
SEMA2D
100
AcDbLine
 62
7
  6
_SOLID
370
9
 10
1.46734917163849
 20
0.49735563993454
 11
1.46304190158844
 21
0.498995006084442
  0
LINE
  5
2CD
100
AcDbEntity
  8
SEMA2D
100
AcDbLine
 62
7
  6
_SOLID
370
9
 10
1.63834297657013
 20
0.589370012283325
 11
1.63834297657013
 21
0.57270759344101
  0
LINE
  5
2CE
100
AcDbEntity
  8
SEMA2D
100
AcDbLine
 62
7
  6
_SOLID
370
9
 10
1.64491903781891
 20
0.194456338882446
 11
1.64358580112457
 21
0.485160708427429
  0
LINE
  5
2CF
100
AcDbEntity
  8
SEMA2D
100
AcDbLine
 62
7
  6
_SOLID
370
9
 10
1.64141201972961
 20
0.194440245628357
 11
1.64007878303528
 21
0.485144644975662
  0
LINE
  5
2D0
100
AcDbEntity
  8
SEMA2D
100
AcDbLine
 62
7
  6
_SOLID
370
9
 10
1.5305472612381
 20
0.521419525146484
 11
1.53352379798889
 21
0.518442988395691
  0
LINE
  5
2D1
100
AcDbEntity
  8
SEMA2D
100
AcDbLine
 62
7
  6
_SOLID
370
9
 10
1.6365373134613
 20
0.589370012283325
 11
1.6365373134613
 21
0.57270759344101
  0
LINE
  5
2D2
100
AcDbEntity
  8
SEMA2D
100
AcDbLine
 62
7
  6
_SOLID
370
9
 10
1.63623213768005
 20
0.563452422618866
 11
1.63623213768005
 21
0.565235555171967
  0
LINE
  5
2D3
100
AcDbEntity
  8
SEMA2D
100
AcDbLine
 62
7
  6
_SOLID
370
9
 10
1.63596796989441
 20
0.521419525146484
 11
1.63596796989441
 21
0.52320259809494
  0
LINE
  5
2D4
100
AcDbEntity
  8
SEMA2D
100
AcDbLine
 62
7
  6
_SOLID
370
9
 10
1.63832676410675
 20
0.559824407100678
 11
1.63832676410675
 21
0.558041334152222
  0
LINE
  5
2D5
100
AcDbEntity
  8
SEMA2D
100
AcDbLine
 62
7
  6
_SOLID
370
9
 10
1.63808131217957
 20
0.521419525146484
 11
1.63808131217957
 21
0.52320259809494
  0
LINE
  5
2D6
100
AcDbEntity
  8
SEMA2D
100
AcDbLine
 62
7
  6
_SOLID
370
9
 10
1.63808131217957
 20
0.554570138454437
 11
1.63808131217957
 21
0.552787065505981
  0
LINE
  5
2D7
100
AcDbEntity
  8
SEMA2D
100
AcDbLine
 62
7
  6
_SOLID
370
9
 10
1.64669251441956
 20
0.522988855838776
 11
1.64669251441956
 21
0.553000807762146
  0
LINE
  5
2D8
100
AcDbEntity
  8
SEMA2D
100
AcDbLine
 62
7
  6
_SOLID
370
9
 10
1.64559555053711
 20
0.556627035140991
 11
1.64559555053711
 21
0.558225750923157
  0
LINE
  5
2D9
100
AcDbEntity
  8
SEMA2D
100
AcDbLine
 62
7
  6
_SOLID
370
9
 10
1.64555072784424
 20
0.51769882440567
 11
1.64555072784424
 21
0.519297480583191
  0
LINE
  5
2DA
100
AcDbEntity
  8
SEMA2D
100
AcDbLine
 62
7
  6
_SOLID
370
9
 10
1.6666419506073
 20
0.596401631832123
 11
1.6666419506073
 21
0.600831210613251
  0
LINE
  5
2DB
100
AcDbEntity
  8
SEMA2D
100
AcDbLine
 62
7
  6
_SOLID
370
9
 10
1.66614890098572
 20
0.603152275085449
 11
1.66614890098572
 21
0.601324260234833
  0
LINE
  5
2DC
100
AcDbEntity
  8
SEMA2D
100
AcDbLine
 62
7
  6
_SOLID
370
9
 10
1.53500497341156
 20
0.525877237319946
 11
1.53798151016235
 21
0.522900760173798
  0
LINE
  5
2DD
100
AcDbEntity
  8
SEMA2D
100
AcDbLine
 62
7
  6
_SOLID
370
9
 10
1.64075994491577
 20
0.525915026664734
 11
1.64075994491577
 21
0.550074636936188
  0
LINE
  5
2DE
100
AcDbEntity
  8
SEMA2D
100
AcDbLine
 62
7
  6
_SOLID
370
9
 10
1.63948702812195
 20
0.590514123439789
 11
1.63948702812195
 21
0.571265339851379
  0
LINE
  5
2DF
100
AcDbEntity
  8
SEMA2D
100
AcDbLine
 62
7
  6
_SOLID
370
9
 10
1.63904690742493
 20
0.51806765794754
 11
1.63904690742493
 21
0.514501452445984
  0
LINE
  5
2E0
100
AcDbEntity
  8
SEMA2D
100
AcDbLine
 62
7
  6
_SOLID
370
9
 10
1.64488685131073
 20
0.522988855838776
 11
1.64488685131073
 21
0.553000807762146
  0
LINE
  5
2E1
100
AcDbEntity
  8
SEMA2D
100
AcDbLine
 62
7
  6
_SOLID
370
9
 10
1.6425656080246
 20
0.525915026664734
 11
1.6425656080246
 21
0.550074636936188
  0
LINE
  5
2E2
100
AcDbEntity
  8
SEMA2D
100
AcDbLine
 62
7
  6
_SOLID
370
9
 10
1.64129269123077
 20
0.590514123439789
 11
1.64129269123077
 21
0.571265339851379
  0
LINE
  5
2E3
100
AcDbEntity
  8
SEMA2D
100
AcDbLine
 62
7
  6
_SOLID
370
9
 10
1.63410198688507
 20
0.554570138454437
 11
1.63410198688507
 21
0.552787065505981
  0
LINE
  5
2E4
100
AcDbEntity
  8
SEMA2D
100
AcDbLine
 62
7
  6
_SOLID
370
9
 10
1.60891306400299
 20
0.521419525146484
 11
1.60891306400299
 21
0.52320259809494
  0
LINE
  5
2E5
100
AcDbEntity
  8
SEMA2D
100
AcDbLine
 62
7
  6
_SOLID
370
9
 10
1.60891306400299
 20
0.554570138454437
 11
1.60891306400299
 21
0.552787065505981
  0
LINE
  5
2E6
100
AcDbEntity
  8
SEMA2D
100
AcDbLine
 62
7
  6
_SOLID
370
9
 10
1.60623836517334
 20
0.550112426280975
 11
1.60623836517334
 21
0.525877237319946
  0
LINE
  5
2E7
100
AcDbEntity
  8
SEMA2D
100
AcDbLine
 62
7
  6
_SOLID
370
9
 10
1.61505246162415
 20
0.515917956829071
 11
1.61505246162415
 21
0.517701029777527
  0
LINE
  5
2E8
100
AcDbEntity
  8
SEMA2D
100
AcDbLine
 62
7
  6
_SOLID
370
9
 10
1.61158514022827
 20
0.512288987636566
 11
1.61158514022827
 21
0.510509788990021
  0
LINE
  5
2E9
100
AcDbEntity
  8
SEMA2D
100
AcDbLine
 62
7
  6
_SOLID
370
9
 10
1.52625381946564
 20
0.515917956829071
 11
1.52826249599457
 21
0.513049364089966
  0
LINE
  5
2EA
100
AcDbEntity
  8
SEMA2D
100
AcDbLine
 62
7
  6
_SOLID
370
9
 10
1.52479326725006
 20
0.51489520072937
 11
1.5268018245697
 21
0.512026607990265
  0
LINE
  5
2EB
100
AcDbEntity
  8
SEMA2D
100
AcDbLine
 62
7
  6
_SOLID
370
9
 10
1.5187064409256
 20
0.51806378364563
 11
1.52745175361633
 21
0.505574285984039
  0
LINE
  5
2EC
100
AcDbEntity
  8
SEMA2D
100
AcDbLine
 62
7
  6
_SOLID
370
9
 10
1.50592470169067
 20
0.556506276130676
 11
1.50452375411987
 21
0.558932840824127
  0
LINE
  5
2ED
100
AcDbEntity
  8
SEMA2D
100
AcDbLine
 62
7
  6
_SOLID
370
9
 10
1.50438058376312
 20
0.555614709854126
 11
1.50297951698303
 21
0.558041334152222
  0
LINE
  5
2EE
100
AcDbEntity
  8
SEMA2D
100
AcDbLine
 62
7
  6
_SOLID
370
9
 10
1.62269794940948
 20
0.521419525146484
 11
1.62269794940948
 21
0.52320259809494
  0
LINE
  5
2EF
100
AcDbEntity
  8
SEMA2D
100
AcDbLine
 62
7
  6
_SOLID
370
9
 10
1.52368974685669
 20
0.567662119865417
 11
1.52509081363678
 21
0.565235555171967
  0
LINE
  5
2F0
100
AcDbEntity
  8
SEMA2D
100
AcDbLine
 62
7
  6
_SOLID
370
9
 10
1.52214562892914
 20
0.566770613193512
 11
1.52354657649994
 21
0.564343988895416
  0
LINE
  5
2F1
100
AcDbEntity
  8
SEMA2D
100
AcDbLine
 62
7
  6
_SOLID
370
9
 10
1.6338586807251
 20
0.569995164871216
 11
1.6338586807251
 21
0.56821209192276
  0
LINE
  5
2F2
100
AcDbEntity
  8
SEMA2D
100
AcDbLine
 62
7
  6
_SOLID
370
9
 10
1.63382875919342
 20
0.592078506946564
 11
1.63382875919342
 21
0.593884170055389
  0
LINE
  5
2F3
100
AcDbEntity
  8
SEMA2D
100
AcDbLine
 62
7
  6
_SOLID
370
9
 10
1.62654304504395
 20
0.554570138454437
 11
1.62654304504395
 21
0.552787065505981
  0
LINE
  5
2F4
100
AcDbEntity
  8
SEMA2D
100
AcDbLine
 62
7
  6
_SOLID
370
9
 10
1.6183100938797
 20
0.559824407100678
 11
1.6183100938797
 21
0.558041334152222
  0
LINE
  5
2F5
100
AcDbEntity
  8
SEMA2D
100
AcDbLine
 62
7
  6
_SOLID
370
9
 10
1.616215467453
 20
0.563452422618866
 11
1.616215467453
 21
0.565235555171967
  0
LINE
  5
2F6
100
AcDbEntity
  8
SEMA2D
100
AcDbLine
 62
7
  6
_SOLID
370
9
 10
1.50015377998352
 20
0.555559396743774
 11
1.50093853473663
 21
0.554570138454437
  0
LINE
  5
2F7
100
AcDbEntity
  8
SEMA2D
100
AcDbLine
 62
7
  6
_SOLID
370
9
 10
1.66847002506256
 20
0.600831210613251
 11
1.6694141626358
 21
0.604096412658691
  0
LINE
  5
2F8
100
AcDbEntity
  8
SEMA2D
100
AcDbLine
 62
7
  6
_SOLID
370
9
 10
1.68871557712555
 20
0.519297480583191
 11
1.68871557712555
 21
0.556627035140991
  0
LINE
  5
2F9
100
AcDbEntity
  8
SEMA2D
100
AcDbLine
 62
7
  6
_SOLID
370
9
 10
1.50507414340973
 20
0.563452422618866
 11
1.50661838054657
 21
0.56256091594696
  0
LINE
  5
2FA
100
AcDbEntity
  8
SEMA2D
100
AcDbLine
 62
7
  6
_SOLID
370
9
 10
1.50297951698303
 20
0.559824407100678
 11
1.50452375411987
 21
0.558932840824127
  0
LINE
  5
2FB
100
AcDbEntity
  8
SEMA2D
100
AcDbLine
 62
7
  6
_SOLID
370
9
 10
1.69090294837952
 20
0.565491557121277
 11
1.69090294837952
 21
0.583494901657105
  0
LINE
  5
2FC
100
AcDbEntity
  8
SEMA2D
100
AcDbLine
 62
7
  6
_SOLID
370
9
 10
1.69003808498383
 20
0.519297480583191
 11
1.69003808498383
 21
0.556627035140991
  0
LINE
  5
2FD
100
AcDbEntity
  8
SEMA2D
100
AcDbLine
 62
7
  6
_SOLID
370
9
 10
1.68930423259735
 20
0.567769289016724
 11
1.68930423259735
 21
0.581666827201843
  0
LINE
  5
2FE
100
AcDbEntity
  8
SEMA2D
100
AcDbLine
 62
7
  6
_SOLID
370
9
 10
1.46662545204163
 20
0.494643062353134
 11
1.46218812465668
 21
0.494671732187271
  0
LINE
  5
2FF
100
AcDbEntity
  8
SEMA2D
100
AcDbLine
 62
7
  6
_SOLID
370
9
 10
1.46670854091644
 20
0.506685137748718
 11
1.46227121353149
 21
0.50671774148941
  0
LINE
  5
300
100
AcDbEntity
  8
SEMA2D
100
AcDbLine
 62
7
  6
_SOLID
370
9
 10
1.45489275455475
 20
0.506534337997437
 11
1.44973933696747
 21
0.506572186946869
  0
LINE
  5
301
100
AcDbEntity
  8
SEMA2D
100
AcDbLine
 62
7
  6
_SOLID
370
9
 10
1.63904690742493
 20
0.514501452445984
 11
1.69438076019287
 21
0.514501452445984
  0
LINE
  5
302
100
AcDbEntity
  8
SEMA2D
100
AcDbLine
 62
7
  6
_SOLID
370
9
 10
1.49475002288818
 20
0.514501452445984
 11
1.50225937366486
 21
0.514501452445984
  0
LINE
  5
303
100
AcDbEntity
  8
SEMA2D
100
AcDbLine
 62
7
  6
_SOLID
370
9
 10
1.52972114086151
 20
0.512288987636566
 11
1.61158514022827
 21
0.512288987636566
  0
LINE
  5
304
100
AcDbEntity
  8
SEMA2D
100
AcDbLine
 62
7
  6
_SOLID
370
9
 10
1.69150745868683
 20
0.516943454742432
 11
1.69443964958191
 21
0.516943454742432
  0
LINE
  5
305
100
AcDbEntity
  8
SEMA2D
100
AcDbLine
 62
7
  6
_SOLID
370
9
 10
1.61505246162415
 20
0.515917956829071
 11
1.52625381946564
 21
0.515917956829071
  0
LINE
  5
306
100
AcDbEntity
  8
SEMA2D
100
AcDbLine
 62
7
  6
_SOLID
370
9
 10
1.6961864233017
 20
0.518180012702942
 11
1.69454121589661
 21
0.5181645154953
  0
LINE
  5
307
100
AcDbEntity
  8
SEMA2D
100
AcDbLine
 62
7
  6
_SOLID
370
9
 10
1.69156610965729
 20
0.559824407100678
 11
1.69156610965729
 21
0.558080613613129
  0
LINE
  5
308
100
AcDbEntity
  8
SEMA2D
100
AcDbLine
 62
7
  6
_SOLID
370
9
 10
1.69150745868683
 20
0.557186901569366
 11
1.69150745868683
 21
0.5181645154953
  0
LINE
  5
309
100
AcDbEntity
  8
SEMA2D
100
AcDbLine
 62
7
  6
_SOLID
370
9
 10
1.52972114086151
 20
0.510509788990021
 11
1.61158514022827
 21
0.510509788990021
  0
LINE
  5
30A
100
AcDbEntity
  8
SEMA2D
100
AcDbLine
 62
7
  6
_SOLID
370
9
 10
1.69602584838867
 20
0.514516532421112
 11
1.69438076019287
 21
0.514501452445984
  0
LINE
  5
30B
100
AcDbEntity
  8
SEMA2D
100
AcDbLine
 62
7
  6
_SOLID
370
9
 10
1.66937804222107
 20
0.587482452392578
 11
1.66937804222107
 21
0.59384423494339
  0
LINE
  5
30C
100
AcDbEntity
  8
SEMA2D
100
AcDbLine
 62
7
  6
_SOLID
370
9
 10
1.66847002506256
 20
0.600831210613251
 11
1.66847002506256
 21
0.598207294940948
  0
LINE
  5
30D
100
AcDbEntity
  8
SEMA2D
100
AcDbLine
 62
7
  6
_SOLID
370
9
 10
1.66754996776581
 20
0.587482452392578
 11
1.66754996776581
 21
0.59384423494339
  0
LINE
  5
30E
100
AcDbEntity
  8
SEMA2D
100
AcDbLine
 62
7
  6
_SOLID
370
9
 10
1.46798264980316
 20
0.237699285149574
 11
1.46371531486511
 21
0.236022427678108
  0
LINE
  5
30F
100
AcDbEntity
  8
SEMA2D
100
AcDbLine
 62
7
  6
_SOLID
370
9
 10
1.45475542545319
 20
0.2323077917099
 11
1.45053172111511
 21
0.230463951826096
  0
LINE
  5
310
100
AcDbEntity
  8
SEMA2D
100
AcDbLine
 62
7
  6
_SOLID
370
9
 10
1.6694141626358
 20
0.604096412658691
 11
1.6694141626358
 21
0.587482452392578
  0
LINE
  5
311
100
AcDbEntity
  8
SEMA2D
100
AcDbLine
 62
7
  6
_SOLID
370
9
 10
1.50157880783081
 20
0.589370012283325
 11
1.50043475627899
 21
0.590514123439789
  0
LINE
  5
312
100
AcDbEntity
  8
SEMA2D
100
AcDbLine
 62
7
  6
_SOLID
370
9
 10
1.46671080589294
 20
0.603995442390442
 11
1.46775710582733
 21
0.603152275085449
  0
LINE
  5
313
100
AcDbEntity
  8
SEMA2D
100
AcDbLine
 62
7
  6
_SOLID
370
9
 10
1.46489226818085
 20
0.602167427539825
 11
1.46593856811523
 21
0.601324260234833
  0
LINE
  5
314
100
AcDbEntity
  8
SEMA2D
100
AcDbLine
 62
7
  6
_SOLID
370
9
 10
1.68770551681519
 20
0.565986216068268
 11
1.68770551681519
 21
0.583754301071167
  0
LINE
  5
315
100
AcDbEntity
  8
SEMA2D
100
AcDbLine
 62
7
  6
_SOLID
370
9
 10
1.67310607433319
 20
0.581926286220551
 11
1.67310607433319
 21
0.583790421485901
  0
LINE
  5
316
100
AcDbEntity
  8
SEMA2D
100
AcDbLine
 62
7
  6
_SOLID
370
9
 10
1.50432729721069
 20
0.595649898052216
 11
1.50609302520752
 21
0.593884170055389
  0
LINE
  5
317
100
AcDbEntity
  8
SEMA2D
100
AcDbLine
 62
7
  6
_SOLID
370
9
 10
1.49549639225006
 20
0.553776323795319
 11
1.49697399139404
 21
0.552826941013336
  0
LINE
  5
318
100
AcDbEntity
  8
SEMA2D
100
AcDbLine
 62
7
  6
_SOLID
370
9
 10
1.52016711235046
 20
0.520869612693787
 11
1.52625381946564
 21
0.517701029777527
  0
LINE
  5
319
100
AcDbEntity
  8
SEMA2D
100
AcDbLine
 62
7
  6
_SOLID
370
9
 10
1.5187064409256
 20
0.51806378364563
 11
1.52479326725006
 21
0.51489520072937
  0
LINE
  5
31A
100
AcDbEntity
  8
SEMA2D
100
AcDbLine
 62
7
  6
_SOLID
370
9
 10
1.52625381946564
 20
0.515917956829071
 11
1.52625381946564
 21
0.517701029777527
  0
LINE
  5
31B
100
AcDbEntity
  8
SEMA2D
100
AcDbLine
 62
7
  6
_SOLID
370
9
 10
1.52509081363678
 20
0.563452422618866
 11
1.52509081363678
 21
0.565235555171967
  0
LINE
  5
31C
100
AcDbEntity
  8
SEMA2D
100
AcDbLine
 62
7
  6
_SOLID
370
9
 10
1.5305472612381
 20
0.554570138454437
 11
1.5305472612381
 21
0.552787065505981
  0
LINE
  5
31D
100
AcDbEntity
  8
SEMA2D
100
AcDbLine
 62
7
  6
_SOLID
370
9
 10
1.52972114086151
 20
0.512288987636566
 11
1.52972114086151
 21
0.510509788990021
  0
LINE
  5
31E
100
AcDbEntity
  8
SEMA2D
100
AcDbLine
 62
7
  6
_SOLID
370
9
 10
1.51476323604584
 20
0.554570138454437
 11
1.51476323604584
 21
0.552787065505981
  0
LINE
  5
31F
100
AcDbEntity
  8
SEMA2D
100
AcDbLine
 62
7
  6
_SOLID
370
9
 10
1.50720429420471
 20
0.554570138454437
 11
1.50720429420471
 21
0.552787065505981
  0
LINE
  5
320
100
AcDbEntity
  8
SEMA2D
100
AcDbLine
 62
7
  6
_SOLID
370
9
 10
1.60593664646149
 20
0.518443048000336
 11
1.60891306400299
 21
0.521419525146484
  0
LINE
  5
321
100
AcDbEntity
  8
SEMA2D
100
AcDbLine
 62
7
  6
_SOLID
370
9
 10
1.64044237136841
 20
0.557546615600586
 11
1.63808131217957
 21
0.554570138454437
  0
LINE
  5
322
100
AcDbEntity
  8
SEMA2D
100
AcDbLine
 62
7
  6
_SOLID
370
9
 10
1.52299618721008
 20
0.559824407100678
 11
1.52299618721008
 21
0.558041334152222
  0
LINE
  5
323
100
AcDbEntity
  8
SEMA2D
100
AcDbLine
 62
7
  6
_SOLID
370
9
 10
1.5186083316803
 20
0.521419525146484
 11
1.5186083316803
 21
0.52320259809494
  0
LINE
  5
324
100
AcDbEntity
  8
SEMA2D
100
AcDbLine
 62
7
  6
_SOLID
370
9
 10
1.61304378509521
 20
0.513049364089966
 11
1.61505246162415
 21
0.515917956829071
  0
LINE
  5
325
100
AcDbEntity
  8
SEMA2D
100
AcDbLine
 62
7
  6
_SOLID
370
9
 10
1.61775970458984
 20
0.564343988895416
 11
1.61916065216064
 21
0.566770613193512
  0
LINE
  5
326
100
AcDbEntity
  8
SEMA2D
100
AcDbLine
 62
7
  6
_SOLID
370
9
 10
1.616215467453
 20
0.565235555171967
 11
1.6176164150238
 21
0.567662119865417
  0
LINE
  5
327
100
AcDbEntity
  8
SEMA2D
100
AcDbLine
 62
7
  6
_SOLID
370
9
 10
1.53153049945831
 20
0.382036626338959
 11
1.53225982189178
 21
0.381427109241486
  0
LINE
  5
328
100
AcDbEntity
  8
SEMA2D
100
AcDbLine
 62
7
  6
_SOLID
370
9
 10
1.64488685131073
 20
0.553000807762146
 11
1.6425656080246
 21
0.550074636936188
  0
LINE
  5
329
100
AcDbEntity
  8
SEMA2D
100
AcDbLine
 62
7
  6
_SOLID
370
9
 10
1.61450445652008
 20
0.512026607990265
 11
1.61651301383972
 21
0.51489520072937
  0
LINE
  5
32A
100
AcDbEntity
  8
SEMA2D
100
AcDbLine
 62
7
  6
_SOLID
370
9
 10
1.53500497341156
 20
0.525877237319946
 11
1.53500497341156
 21
0.550112426280975
  0
LINE
  5
32B
100
AcDbEntity
  8
SEMA2D
100
AcDbLine
 62
7
  6
_SOLID
370
9
 10
1.53322184085846
 20
0.525877237319946
 11
1.53322184085846
 21
0.550112426280975
  0
LINE
  5
32C
100
AcDbEntity
  8
SEMA2D
100
AcDbLine
 62
7
  6
_SOLID
370
9
 10
1.5305472612381
 20
0.521419525146484
 11
1.5305472612381
 21
0.52320259809494
  0
LINE
  5
32D
100
AcDbEntity
  8
SEMA2D
100
AcDbLine
 62
7
  6
_SOLID
370
9
 10
1.53878736495972
 20
0.519492864608765
 11
1.53878736495972
 21
0.517709732055664
  0
LINE
  5
32E
100
AcDbEntity
  8
SEMA2D
100
AcDbLine
 62
7
  6
_SOLID
370
9
 10
1.5387020111084
 20
0.558225750923157
 11
1.5387020111084
 21
0.556627035140991
  0
LINE
  5
32F
100
AcDbEntity
  8
SEMA2D
100
AcDbLine
 62
7
  6
_SOLID
370
9
 10
1.53798151016235
 20
0.522900760173798
 11
1.53798151016235
 21
0.553088903427124
  0
LINE
  5
330
100
AcDbEntity
  8
SEMA2D
100
AcDbLine
 62
7
  6
_SOLID
370
9
 10
1.60147869586945
 20
0.522900760173798
 11
1.60445523262024
 21
0.525877237319946
  0
LINE
  5
331
100
AcDbEntity
  8
SEMA2D
100
AcDbLine
 62
7
  6
_SOLID
370
9
 10
1.49515461921692
 20
0.563452422618866
 11
1.49515461921692
 21
0.565235555171967
  0
LINE
  5
332
100
AcDbEntity
  8
SEMA2D
100
AcDbLine
 62
7
  6
_SOLID
370
9
 10
1.49956607818604
 20
0.485029429197311
 11
1.49956607818604
 21
0.194456249475479
  0
LINE
  5
333
100
AcDbEntity
  8
SEMA2D
100
AcDbLine
 62
7
  6
_SOLID
370
9
 10
1.49862909317017
 20
0.571265339851379
 11
1.49862909317017
 21
0.590514123439789
  0
LINE
  5
334
100
AcDbEntity
  8
SEMA2D
100
AcDbLine
 62
7
  6
_SOLID
370
9
 10
1.49826002120972
 20
0.550280332565308
 11
1.49826002120972
 21
0.525709331035614
  0
LINE
  5
335
100
AcDbEntity
  8
SEMA2D
100
AcDbLine
 62
7
  6
_SOLID
370
9
 10
1.61505246162415
 20
0.517701029777527
 11
1.62113916873932
 21
0.520869612693787
  0
LINE
  5
336
100
AcDbEntity
  8
SEMA2D
100
AcDbLine
 62
7
  6
_SOLID
370
9
 10
1.63948702812195
 20
0.590514123439789
 11
1.63834297657013
 21
0.589370012283325
  0
LINE
  5
337
100
AcDbEntity
  8
SEMA2D
100
AcDbLine
 62
7
  6
_SOLID
370
9
 10
1.48850607872009
 20
0.175176426768303
 11
1.48850607872009
 21
0.197328418493271
  0
LINE
  5
338
100
AcDbEntity
  8
SEMA2D
100
AcDbLine
 62
7
  6
_SOLID
370
9
 10
1.49511337280273
 20
0.559824407100678
 11
1.49511337280273
 21
0.558041334152222
  0
LINE
  5
339
100
AcDbEntity
  8
SEMA2D
100
AcDbLine
 62
7
  6
_SOLID
370
9
 10
1.49448549747467
 20
0.525709331035614
 11
1.49448549747467
 21
0.550280332565308
  0
LINE
  5
33A
100
AcDbEntity
  8
SEMA2D
100
AcDbLine
 62
7
  6
_SOLID
370
9
 10
1.61651301383972
 20
0.51489520072937
 11
1.62259984016418
 21
0.51806378364563
  0
LINE
  5
33B
100
AcDbEntity
  8
SEMA2D
100
AcDbLine
 62
7
  6
_SOLID
370
9
 10
1.50507414340973
 20
0.563452422618866
 11
1.50507414340973
 21
0.565235555171967
  0
LINE
  5
33C
100
AcDbEntity
  8
SEMA2D
100
AcDbLine
 62
7
  6
_SOLID
370
9
 10
1.50338447093964
 20
0.57270759344101
 11
1.50338447093964
 21
0.589370012283325
  0
LINE
  5
33D
100
AcDbEntity
  8
SEMA2D
100
AcDbLine
 62
7
  6
_SOLID
370
9
 10
1.50307321548462
 20
0.485029429197311
 11
1.50307321548462
 21
0.194456249475479
  0
LINE
  5
33E
100
AcDbEntity
  8
SEMA2D
100
AcDbLine
 62
7
  6
_SOLID
370
9
 10
1.50609302520752
 20
0.592078506946564
 11
1.50609302520752
 21
0.593884170055389
  0
LINE
  5
33F
100
AcDbEntity
  8
SEMA2D
100
AcDbLine
 62
7
  6
_SOLID
370
9
 10
1.50606298446655
 20
0.569995164871216
 11
1.50606298446655
 21
0.56821209192276
  0
LINE
  5
340
100
AcDbEntity
  8
SEMA2D
100
AcDbLine
 62
7
  6
_SOLID
370
9
 10
1.50533831119537
 20
0.521419525146484
 11
1.50533831119537
 21
0.52320259809494
  0
LINE
  5
341
100
AcDbEntity
  8
SEMA2D
100
AcDbLine
 62
7
  6
_SOLID
370
9
 10
1.50093853473663
 20
0.521419525146484
 11
1.50093853473663
 21
0.52320259809494
  0
LINE
  5
342
100
AcDbEntity
  8
SEMA2D
100
AcDbLine
 62
7
  6
_SOLID
370
9
 10
1.50093853473663
 20
0.554570138454437
 11
1.50093853473663
 21
0.552787065505981
  0
LINE
  5
343
100
AcDbEntity
  8
SEMA2D
100
AcDbLine
 62
7
  6
_SOLID
370
9
 10
1.50043475627899
 20
0.571265339851379
 11
1.50043475627899
 21
0.590514123439789
  0
LINE
  5
344
100
AcDbEntity
  8
SEMA2D
100
AcDbLine
 62
7
  6
_SOLID
370
9
 10
1.50297951698303
 20
0.559824407100678
 11
1.50297951698303
 21
0.558041334152222
  0
LINE
  5
345
100
AcDbEntity
  8
SEMA2D
100
AcDbLine
 62
7
  6
_SOLID
370
9
 10
1.50225937366486
 20
0.51806765794754
 11
1.50225937366486
 21
0.514501452445984
  0
LINE
  5
346
100
AcDbEntity
  8
SEMA2D
100
AcDbLine
 62
7
  6
_SOLID
370
9
 10
1.50157880783081
 20
0.57270759344101
 11
1.50157880783081
 21
0.589370012283325
  0
LINE
  5
347
100
AcDbEntity
  8
SEMA2D
100
AcDbLine
 62
7
  6
_SOLID
370
9
 10
1.59704768657684
 20
0.380730420351028
 11
1.60055422782898
 21
0.377978026866913
  0
LINE
  5
348
100
AcDbEntity
  8
SEMA2D
100
AcDbLine
 62
7
  6
_SOLID
370
9
 10
1.58895933628082
 20
0.3811274766922
 11
1.59014499187469
 21
0.381723076105118
  0
LINE
  5
349
100
AcDbEntity
  8
SEMA2D
100
AcDbLine
 62
7
  6
_SOLID
370
9
 10
1.58886754512787
 20
0.38018462061882
 11
1.59135389328003
 21
0.378340184688568
  0
LINE
  5
34A
100
AcDbEntity
  8
SEMA2D
100
AcDbLine
 62
7
  6
_SOLID
370
9
 10
1.5025429725647
 20
0.514501452445984
 11
1.50857865810394
 21
0.505881547927856
  0
LINE
  5
34B
100
AcDbEntity
  8
SEMA2D
100
AcDbLine
 62
7
  6
_SOLID
370
9
 10
1.61024677753448
 20
0.37843269109726
 11
1.60888314247131
 21
0.379581570625305
  0
LINE
  5
34C
100
AcDbEntity
  8
SEMA2D
100
AcDbLine
 62
7
  6
_SOLID
370
9
 10
1.60792982578278
 20
0.379424214363098
 11
1.6072005033493
 21
0.380033761262894
  0
LINE
  5
34D
100
AcDbEntity
  8
SEMA2D
100
AcDbLine
 62
7
  6
_SOLID
370
9
 10
1.58895933628082
 20
0.380333364009857
 11
1.59014499187469
 21
0.379737794399262
  0
LINE
  5
34E
100
AcDbEntity
  8
SEMA2D
100
AcDbLine
 62
7
  6
_SOLID
370
9
 10
1.59704768657684
 20
0.380730420351028
 11
1.60055422782898
 21
0.383482843637466
  0
LINE
  5
34F
100
AcDbEntity
  8
SEMA2D
100
AcDbLine
 62
7
  6
_SOLID
370
9
 10
1.60792982578278
 20
0.382036626338959
 11
1.6072005033493
 21
0.381427109241486
  0
LINE
  5
350
100
AcDbEntity
  8
SEMA2D
100
AcDbLine
 62
7
  6
_SOLID
370
9
 10
1.61024677753448
 20
0.383028149604797
 11
1.60888314247131
 21
0.381879299879074
  0
LINE
  5
351
100
AcDbEntity
  8
SEMA2D
100
AcDbLine
 62
7
  6
_SOLID
370
9
 10
1.50665366649628
 20
0.519733250141144
 11
1.51711046695709
 21
0.504799365997314
  0
LINE
  5
352
100
AcDbEntity
  8
SEMA2D
100
AcDbLine
 62
7
  6
_SOLID
370
9
 10
1.51098167896271
 20
0.503327190876007
 11
1.50857865810394
 21
0.505881607532501
  0
LINE
  5
353
100
AcDbEntity
  8
SEMA2D
100
AcDbLine
 62
7
  6
_SOLID
370
9
 10
1.58886754512787
 20
0.381276220083237
 11
1.59135389328003
 21
0.383120656013489
  0
LINE
  5
354
100
AcDbEntity
  8
SEMA2D
100
AcDbLine
 62
7
  6
_SOLID
370
9
 10
1.60067284107208
 20
0.519492864608765
 11
1.60067284107208
 21
0.517709732055664
  0
LINE
  5
355
100
AcDbEntity
  8
SEMA2D
100
AcDbLine
 62
7
  6
_SOLID
370
9
 10
1.59969568252563
 20
0.553088903427124
 11
1.59969568252563
 21
0.522900760173798
  0
LINE
  5
356
100
AcDbEntity
  8
SEMA2D
100
AcDbLine
 62
7
  6
_SOLID
370
9
 10
1.60445523262024
 20
0.550112426280975
 11
1.60445523262024
 21
0.525877237319946
  0
LINE
  5
357
100
AcDbEntity
  8
SEMA2D
100
AcDbLine
 62
7
  6
_SOLID
370
9
 10
1.60147869586945
 20
0.553088903427124
 11
1.60147869586945
 21
0.522900760173798
  0
LINE
  5
358
100
AcDbEntity
  8
SEMA2D
100
AcDbLine
 62
7
  6
_SOLID
370
9
 10
1.6007581949234
 20
0.558225750923157
 11
1.6007581949234
 21
0.556627035140991
  0
LINE
  5
359
100
AcDbEntity
  8
SEMA2D
100
AcDbLine
 62
7
  6
_SOLID
370
9
 10
1.63117337226868
 20
0.504216432571411
 11
1.63343727588654
 21
0.506895005702972
  0
LINE
  5
35A
100
AcDbEntity
  8
SEMA2D
100
AcDbLine
 62
7
  6
_SOLID
370
9
 10
1.6305159330368
 20
0.508940517902374
 11
1.63567936420441
 21
0.516314625740051
  0
LINE
  5
35B
100
AcDbEntity
  8
SEMA2D
100
AcDbLine
 62
7
  6
_SOLID
370
9
 10
1.63465261459351
 20
0.519733250141144
 11
1.6248242855072
 21
0.505696952342987
  0
LINE
  5
35C
100
AcDbEntity
  8
SEMA2D
100
AcDbLine
 62
7
  6
_SOLID
370
9
 10
1.55050086975098
 20
0.3811274766922
 11
1.54931533336639
 21
0.381723076105118
  0
LINE
  5
35D
100
AcDbEntity
  8
SEMA2D
100
AcDbLine
 62
7
  6
_SOLID
370
9
 10
1.53153049945831
 20
0.379424214363098
 11
1.53225982189178
 21
0.380033731460571
  0
LINE
  5
35E
100
AcDbEntity
  8
SEMA2D
100
AcDbLine
 62
7
  6
_SOLID
370
9
 10
1.52921342849731
 20
0.37843269109726
 11
1.53057718276978
 21
0.379581570625305
  0
LINE
  5
35F
100
AcDbEntity
  8
SEMA2D
100
AcDbLine
 62
7
  6
_SOLID
370
9
 10
1.63678252696991
 20
0.558932840824127
 11
1.63538146018982
 21
0.556506276130676
  0
LINE
  5
360
100
AcDbEntity
  8
SEMA2D
100
AcDbLine
 62
7
  6
_SOLID
370
9
 10
1.53976464271545
 20
0.522900760173798
 11
1.53976464271545
 21
0.553088903427124
  0
LINE
  5
361
100
AcDbEntity
  8
SEMA2D
100
AcDbLine
 62
7
  6
_SOLID
370
9
 10
1.52921342849731
 20
0.383028149604797
 11
1.53057718276978
 21
0.381879299879074
  0
LINE
  5
362
100
AcDbEntity
  8
SEMA2D
100
AcDbLine
 62
7
  6
_SOLID
370
9
 10
1.62259984016418
 20
0.51806378364563
 11
1.61385452747345
 21
0.505574285984039
  0
LINE
  5
363
100
AcDbEntity
  8
SEMA2D
100
AcDbLine
 62
7
  6
_SOLID
370
9
 10
1.63832676410675
 20
0.558041334152222
 11
1.63692569732666
 21
0.555614709854126
  0
LINE
  5
364
100
AcDbEntity
  8
SEMA2D
100
AcDbLine
 62
7
  6
_SOLID
370
9
 10
1.55050086975098
 20
0.380333364009857
 11
1.54931533336639
 21
0.379737764596939
  0
LINE
  5
365
100
AcDbEntity
  8
SEMA2D
100
AcDbLine
 62
7
  6
_SOLID
370
9
 10
1.55059278011322
 20
0.38018462061882
 11
1.54810631275177
 21
0.378340184688568
  0
LINE
  5
366
100
AcDbEntity
  8
SEMA2D
100
AcDbLine
 62
7
  6
_SOLID
370
9
 10
1.54241263866425
 20
0.380730420351028
 11
1.53890609741211
 21
0.377978026866913
  0
LINE
  5
367
100
AcDbEntity
  8
SEMA2D
100
AcDbLine
 62
7
  6
_SOLID
370
9
 10
1.54241263866425
 20
0.380730420351028
 11
1.53890609741211
 21
0.383482843637466
  0
LINE
  5
368
100
AcDbEntity
  8
SEMA2D
100
AcDbLine
 62
7
  6
_SOLID
370
9
 10
1.55059278011322
 20
0.381276220083237
 11
1.54810631275177
 21
0.383120656013489
  0
LINE
  5
369
100
AcDbEntity
  8
SEMA2D
100
AcDbLine
 62
7
  6
_SOLID
370
9
 10
1.63343727588654
 20
0.506895005702972
 11
1.63860058784485
 21
0.514269113540649
  0
LINE
  5
36A
100
AcDbEntity
  8
SEMA2D
100
AcDbLine
 62
7
  6
_SOLID
370
9
 10
1.48667287826538
 20
0.201562464237213
 11
1.48630547523499
 21
0.200725540518761
  0
LINE
  5
36B
100
AcDbEntity
  8
SEMA2D
100
AcDbLine
 62
7
  6
_SOLID
370
9
 10
1.64555072784424
 20
0.51769882440567
 11
1.68878817558289
 21
0.51769882440567
  0
LINE
  5
36C
100
AcDbEntity
  8
SEMA2D
100
AcDbLine
 62
7
  6
_SOLID
370
9
 10
1.49862909317017
 20
0.590514123439789
 11
1.50043475627899
 21
0.590514123439789
  0
LINE
  5
36D
100
AcDbEntity
  8
SEMA2D
100
AcDbLine
 62
7
  6
_SOLID
370
9
 10
1.64129269123077
 20
0.590514123439789
 11
1.63948702812195
 21
0.590514123439789
  0
LINE
  5
36E
100
AcDbEntity
  8
SEMA2D
100
AcDbLine
 62
7
  6
_SOLID
370
9
 10
1.50609302520752
 20
0.592078506946564
 11
1.63382875919342
 21
0.592078506946564
  0
LINE
  5
36F
100
AcDbEntity
  8
SEMA2D
100
AcDbLine
 62
7
  6
_SOLID
370
9
 10
1.50338447093964
 20
0.589370012283325
 11
1.50157880783081
 21
0.589370012283325
  0
LINE
  5
370
100
AcDbEntity
  8
SEMA2D
100
AcDbLine
 62
7
  6
_SOLID
370
9
 10
1.66754996776581
 20
0.587482452392578
 11
1.6694141626358
 21
0.587482452392578
  0
LINE
  5
371
100
AcDbEntity
  8
SEMA2D
100
AcDbLine
 62
7
  6
_SOLID
370
9
 10
1.67310607433319
 20
0.583790421485901
 11
1.69618117809296
 21
0.583790421485901
  0
LINE
  5
372
100
AcDbEntity
  8
SEMA2D
100
AcDbLine
 62
7
  6
_SOLID
370
9
 10
1.6365373134613
 20
0.589370012283325
 11
1.63834297657013
 21
0.589370012283325
  0
LINE
  5
373
100
AcDbEntity
  8
SEMA2D
100
AcDbLine
 62
7
  6
_SOLID
370
9
 10
1.69062399864197
 20
0.175176426768303
 11
1.69137442111969
 21
0.176401734352112
  0
LINE
  5
374
100
AcDbEntity
  8
SEMA2D
100
AcDbLine
 62
7
  6
_SOLID
370
9
 10
1.6689670085907
 20
0.597455561161041
 11
1.66847002506256
 21
0.598207294940948
  0
LINE
  5
375
100
AcDbEntity
  8
SEMA2D
100
AcDbLine
 62
7
  6
_SOLID
370
9
 10
1.4950338602066
 20
0.59384423494339
 11
1.49955534934998
 21
0.59384423494339
  0
LINE
  5
376
100
AcDbEntity
  8
SEMA2D
100
AcDbLine
 62
7
  6
_SOLID
370
9
 10
1.4932336807251
 20
0.59349799156189
 11
1.4950338602066
 21
0.59384423494339
  0
LINE
  5
377
100
AcDbEntity
  8
SEMA2D
100
AcDbLine
 62
7
  6
_SOLID
370
9
 10
1.49326181411743
 20
0.593094408512115
 11
1.49510228633881
 21
0.593069195747375
  0
LINE
  5
378
100
AcDbEntity
  8
SEMA2D
100
AcDbLine
 62
7
  6
_SOLID
370
9
 10
1.47258937358856
 20
0.590274155139923
 11
1.44957625865936
 21
0.590584814548492
  0
LINE
  5
379
100
AcDbEntity
  8
SEMA2D
100
AcDbLine
 62
7
  6
_SOLID
370
9
 10
1.66713893413544
 20
0.595649898052216
 11
1.6666419506073
 21
0.596401631832123
  0
LINE
  5
37A
100
AcDbEntity
  8
SEMA2D
100
AcDbLine
 62
7
  6
_SOLID
370
9
 10
1.64028179645538
 20
0.567769289016724
 11
1.6388041973114
 21
0.568718671798706
  0
LINE
  5
37B
100
AcDbEntity
  8
SEMA2D
100
AcDbLine
 62
7
  6
_SOLID
370
9
 10
1.69465100765228
 20
0.568238914012909
 11
1.69585514068604
 21
0.568107128143311
  0
LINE
  5
37C
100
AcDbEntity
  8
SEMA2D
100
AcDbLine
 62
7
  6
_SOLID
370
9
 10
1.68770551681519
 20
0.583754301071167
 11
1.67310607433319
 21
0.583754301071167
  0
LINE
  5
37D
100
AcDbEntity
  8
SEMA2D
100
AcDbLine
 62
7
  6
_SOLID
370
9
 10
1.61840915679932
 20
0.56821209192276
 11
1.52289712429047
 21
0.56821209192276
  0
LINE
  5
37E
100
AcDbEntity
  8
SEMA2D
100
AcDbLine
 62
7
  6
_SOLID
370
9
 10
1.6338586807251
 20
0.56821209192276
 11
1.63060140609741
 21
0.56821209192276
  0
LINE
  5
37F
100
AcDbEntity
  8
SEMA2D
100
AcDbLine
 62
7
  6
_SOLID
370
9
 10
1.64028179645538
 20
0.567769289016724
 11
1.68930423259735
 21
0.567769289016724
  0
LINE
  5
380
100
AcDbEntity
  8
SEMA2D
100
AcDbLine
 62
7
  6
_SOLID
370
9
 10
1.64129269123077
 20
0.571265339851379
 11
1.63948702812195
 21
0.571265339851379
  0
LINE
  5
381
100
AcDbEntity
  8
SEMA2D
100
AcDbLine
 62
7
  6
_SOLID
370
9
 10
1.6338586807251
 20
0.569995164871216
 11
1.50606298446655
 21
0.569995164871216
  0
LINE
  5
382
100
AcDbEntity
  8
SEMA2D
100
AcDbLine
 62
7
  6
_SOLID
370
9
 10
1.51070487499237
 20
0.56821209192276
 11
1.50606298446655
 21
0.56821209192276
  0
LINE
  5
383
100
AcDbEntity
  8
SEMA2D
100
AcDbLine
 62
7
  6
_SOLID
370
9
 10
1.50429725646973
 20
0.565986216068268
 11
1.49494802951813
 21
0.565986216068268
  0
LINE
  5
384
100
AcDbEntity
  8
SEMA2D
100
AcDbLine
 62
7
  6
_SOLID
370
9
 10
1.69090294837952
 20
0.565491557121277
 11
1.69412159919739
 21
0.565491557121277
  0
LINE
  5
385
100
AcDbEntity
  8
SEMA2D
100
AcDbLine
 62
7
  6
_SOLID
370
9
 10
1.50507414340973
 20
0.565235555171967
 11
1.49515461921692
 21
0.565235555171967
  0
LINE
  5
386
100
AcDbEntity
  8
SEMA2D
100
AcDbLine
 62
7
  6
_SOLID
370
9
 10
1.49963998794556
 20
0.567769289016724
 11
1.49477958679199
 21
0.567769289016724
  0
LINE
  5
387
100
AcDbEntity
  8
SEMA2D
100
AcDbLine
 62
7
  6
_SOLID
370
9
 10
1.69090294837952
 20
0.567274689674377
 11
1.6944432258606
 21
0.567274689674377
  0
LINE
  5
388
100
AcDbEntity
  8
SEMA2D
100
AcDbLine
 62
7
  6
_SOLID
370
9
 10
1.63562440872192
 20
0.565986216068268
 11
1.68770563602448
 21
0.565986216068268
  0
LINE
  5
389
100
AcDbEntity
  8
SEMA2D
100
AcDbLine
 62
7
  6
_SOLID
370
9
 10
1.69082772731781
 20
0.175176426768303
 11
1.69618117809296
 21
0.187175422906876
  0
LINE
  5
38A
100
AcDbEntity
  8
SEMA2D
100
AcDbLine
 62
7
  6
_SOLID
370
9
 10
1.63202905654907
 20
0.567662119865417
 11
1.63623213768005
 21
0.565235555171967
  0
LINE
  5
38B
100
AcDbEntity
  8
SEMA2D
100
AcDbLine
 62
7
  6
_SOLID
370
9
 10
1.63048481941223
 20
0.564987480640411
 11
1.63468790054321
 21
0.56256091594696
  0
LINE
  5
38C
100
AcDbEntity
  8
SEMA2D
100
AcDbLine
 62
7
  6
_SOLID
370
9
 10
1.69533479213715
 20
0.583494901657105
 11
1.69090294837952
 21
0.583494901657105
  0
LINE
  5
38D
100
AcDbEntity
  8
SEMA2D
100
AcDbLine
 62
7
  6
_SOLID
370
9
 10
1.68770551681519
 20
0.581926286220551
 11
1.67310607433319
 21
0.581926286220551
  0
LINE
  5
38E
100
AcDbEntity
  8
SEMA2D
100
AcDbLine
 62
7
  6
_SOLID
370
9
 10
1.69489192962646
 20
0.581666827201843
 11
1.68930423259735
 21
0.581666827201843
  0
LINE
  5
38F
100
AcDbEntity
  8
SEMA2D
100
AcDbLine
 62
7
  6
_SOLID
370
9
 10
1.6365373134613
 20
0.57270759344101
 11
1.63834297657013
 21
0.57270759344101
  0
LINE
  5
390
100
AcDbEntity
  8
SEMA2D
100
AcDbLine
 62
7
  6
_SOLID
370
9
 10
1.50338447093964
 20
0.57270759344101
 11
1.50157880783081
 21
0.57270759344101
  0
LINE
  5
391
100
AcDbEntity
  8
SEMA2D
100
AcDbLine
 62
7
  6
_SOLID
370
9
 10
1.49862909317017
 20
0.571265339851379
 11
1.50043475627899
 21
0.571265339851379
  0
LINE
  5
392
100
AcDbEntity
  8
SEMA2D
100
AcDbLine
 62
7
  6
_SOLID
370
9
 10
1.62405729293823
 20
0.558289349079132
 11
1.61985433101654
 21
0.560715973377228
  0
LINE
  5
393
100
AcDbEntity
  8
SEMA2D
100
AcDbLine
 62
7
  6
_SOLID
370
9
 10
1.49293911457062
 20
0.567791104316711
 11
1.49477958679199
 21
0.567769289016724
  0
LINE
  5
394
100
AcDbEntity
  8
SEMA2D
100
AcDbLine
 62
7
  6
_SOLID
370
9
 10
1.49288415908813
 20
0.563478589057922
 11
1.49515461921692
 21
0.563452422618866
  0
LINE
  5
395
100
AcDbEntity
  8
SEMA2D
100
AcDbLine
 62
7
  6
_SOLID
370
9
 10
1.46593856811523
 20
0.601324260234833
 11
1.66614890098572
 21
0.601324260234833
  0
LINE
  5
396
100
AcDbEntity
  8
SEMA2D
100
AcDbLine
 62
7
  6
_SOLID
370
9
 10
1.66847002506256
 20
0.600831210613251
 11
1.6666419506073
 21
0.600831210613251
  0
LINE
  5
397
100
AcDbEntity
  8
SEMA2D
100
AcDbLine
 62
7
  6
_SOLID
370
9
 10
1.46593856811523
 20
0.598207294940948
 11
1.66847002506256
 21
0.598207294940948
  0
LINE
  5
398
100
AcDbEntity
  8
SEMA2D
100
AcDbLine
 62
7
  6
_SOLID
370
9
 10
1.46775710582733
 20
0.603152275085449
 11
1.66614890098572
 21
0.603152275085449
  0
LINE
  5
399
100
AcDbEntity
  8
SEMA2D
100
AcDbLine
 62
7
  6
_SOLID
370
9
 10
1.4630913734436
 20
0.602167427539825
 11
1.46489226818085
 21
0.602167427539825
  0
LINE
  5
39A
100
AcDbEntity
  8
SEMA2D
100
AcDbLine
 62
7
  6
_SOLID
370
9
 10
1.44588756561279
 20
0.601713418960571
 11
1.46021473407745
 21
0.601713418960571
  0
LINE
  5
39B
100
AcDbEntity
  8
SEMA2D
100
AcDbLine
 62
7
  6
_SOLID
370
9
 10
1.50609302520752
 20
0.593884170055389
 11
1.63382875919342
 21
0.593884170055389
  0
LINE
  5
39C
100
AcDbEntity
  8
SEMA2D
100
AcDbLine
 62
7
  6
_SOLID
370
9
 10
1.64036643505096
 20
0.59384423494339
 11
1.66937804222107
 21
0.59384423494339
  0
LINE
  5
39D
100
AcDbEntity
  8
SEMA2D
100
AcDbLine
 62
7
  6
_SOLID
370
9
 10
1.6666419506073
 20
0.596401631832123
 11
1.46775710582733
 21
0.596401631832123
  0
LINE
  5
39E
100
AcDbEntity
  8
SEMA2D
100
AcDbLine
 62
7
  6
_SOLID
370
9
 10
1.63559448719025
 20
0.595649898052216
 11
1.66713893413544
 21
0.595649898052216
  0
LINE
  5
39F
100
AcDbEntity
  8
SEMA2D
100
AcDbLine
 62
7
  6
_SOLID
370
9
 10
1.49169325828552
 20
0.595649898052216
 11
1.50432729721069
 21
0.595649898052216
  0
LINE
  5
3A0
100
AcDbEntity
  8
SEMA2D
100
AcDbLine
 62
7
  6
_SOLID
370
9
 10
1.46021473407745
 20
0.603541433811188
 11
1.46420121192932
 21
0.604096412658691
  0
LINE
  5
3A1
100
AcDbEntity
  8
SEMA2D
100
AcDbLine
 62
7
  6
_SOLID
370
9
 10
1.46655380725861
 20
0.604009091854095
 11
1.46709883213043
 21
0.604096412658691
  0
LINE
  5
3A2
100
AcDbEntity
  8
SEMA2D
100
AcDbLine
 62
7
  6
_SOLID
370
9
 10
1.46157217025757
 20
0.603641211986542
 11
1.46420121192932
 21
0.604096412658691
  0
LINE
  5
3A3
100
AcDbEntity
  8
SEMA2D
100
AcDbLine
 62
7
  6
_SOLID
370
9
 10
1.44327914714813
 20
0.604096412658691
 11
1.6694141626358
 21
0.604096412658691
  0
LINE
  5
3A4
100
AcDbEntity
  8
SEMA2D
100
AcDbLine
 62
7
  6
_SOLID
370
9
 10
1.46465682983398
 20
0.603995442390442
 11
1.46645772457123
 21
0.603995442390442
  0
LINE
  5
3A5
100
AcDbEntity
  8
SEMA2D
100
AcDbLine
 62
7
  6
_SOLID
370
9
 10
1.44588756561279
 20
0.603541433811188
 11
1.46021473407745
 21
0.603541433811188
  0
LINE
  5
3A6
100
AcDbEntity
  8
SEMA2D
100
AcDbLine
 62
7
  6
_SOLID
370
9
 10
1.4667067527771
 20
0.604009091854095
 11
1.46709883213043
 21
0.604096412658691
  0
LINE
  5
3A7
100
AcDbEntity
  8
SEMA2D
100
AcDbLine
 62
7
  6
_SOLID
370
9
 10
1.44379651546478
 20
0.601480007171631
 11
1.44562435150146
 21
0.601453900337219
  0
LINE
  5
3A8
100
AcDbEntity
  8
SEMA2D
100
AcDbLine
 62
7
  6
_SOLID
370
9
 10
1.616215467453
 20
0.565235555171967
 11
1.52509081363678
 21
0.565235555171967
  0
LINE
  5
3A9
100
AcDbEntity
  8
SEMA2D
100
AcDbLine
 62
7
  6
_SOLID
370
9
 10
1.52509081363678
 20
0.563452422618866
 11
1.52354657649994
 21
0.564343988895416
  0
LINE
  5
3AA
100
AcDbEntity
  8
SEMA2D
100
AcDbLine
 62
7
  6
_SOLID
370
9
 10
1.52299618721008
 20
0.559824407100678
 11
1.52145195007324
 21
0.560715973377228
  0
LINE
  5
3AB
100
AcDbEntity
  8
SEMA2D
100
AcDbLine
 62
7
  6
_SOLID
370
9
 10
1.49343717098236
 20
0.522213339805603
 11
1.49163854122162
 21
0.522228598594666
  0
LINE
  5
3AC
100
AcDbEntity
  8
SEMA2D
100
AcDbLine
 62
7
  6
_SOLID
370
9
 10
1.6305159330368
 20
0.508940517902374
 11
1.63343727588654
 21
0.506895005702972
  0
LINE
  5
3AD
100
AcDbEntity
  8
SEMA2D
100
AcDbLine
 62
7
  6
_SOLID
370
9
 10
1.61505246162415
 20
0.515917956829071
 11
1.61651301383972
 21
0.51489520072937
  0
LINE
  5
3AE
100
AcDbEntity
  8
SEMA2D
100
AcDbLine
 62
7
  6
_SOLID
370
9
 10
1.61304378509521
 20
0.513049364089966
 11
1.61450445652008
 21
0.512026607990265
  0
LINE
  5
3AF
100
AcDbEntity
  8
SEMA2D
100
AcDbLine
 62
7
  6
_SOLID
370
9
 10
1.60891306400299
 20
0.554570138454437
 11
1.60593640804291
 21
0.557546675205231
  0
LINE
  5
3B0
100
AcDbEntity
  8
SEMA2D
100
AcDbLine
 62
7
  6
_SOLID
370
9
 10
1.60445523262024
 20
0.550112426280975
 11
1.60147869586945
 21
0.553088903427124
  0
LINE
  5
3B1
100
AcDbEntity
  8
SEMA2D
100
AcDbLine
 62
7
  6
_SOLID
370
9
 10
1.63567936420441
 20
0.516314625740051
 11
1.63860058784485
 21
0.514269113540649
  0
LINE
  5
3B2
100
AcDbEntity
  8
SEMA2D
100
AcDbLine
 62
7
  6
_SOLID
370
9
 10
1.63468790054321
 20
0.56256091594696
 11
1.63678252696991
 21
0.558932840824127
  0
LINE
  5
3B3
100
AcDbEntity
  8
SEMA2D
100
AcDbLine
 62
7
  6
_SOLID
370
9
 10
1.63048481941223
 20
0.564987480640411
 11
1.63538146018982
 21
0.556506276130676
  0
LINE
  5
3B4
100
AcDbEntity
  8
SEMA2D
100
AcDbLine
 62
7
  6
_SOLID
370
9
 10
1.6425656080246
 20
0.525915026664734
 11
1.64488685131073
 21
0.522988855838776
  0
LINE
  5
3B5
100
AcDbEntity
  8
SEMA2D
100
AcDbLine
 62
7
  6
_SOLID
370
9
 10
1.61985433101654
 20
0.560715973377228
 11
1.61775970458984
 21
0.564343988895416
  0
LINE
  5
3B6
100
AcDbEntity
  8
SEMA2D
100
AcDbLine
 62
7
  6
_SOLID
370
9
 10
1.6183100938797
 20
0.559824407100678
 11
1.616215467453
 21
0.563452422618866
  0
LINE
  5
3B7
100
AcDbEntity
  8
SEMA2D
100
AcDbLine
 62
7
  6
_SOLID
370
9
 10
1.63808131217957
 20
0.521419525146484
 11
1.64044260978699
 21
0.518442988395691
  0
LINE
  5
3B8
100
AcDbEntity
  8
SEMA2D
100
AcDbLine
 62
7
  6
_SOLID
370
9
 10
1.49955534934998
 20
0.59384423494339
 11
1.5010678768158
 21
0.592921257019043
  0
LINE
  5
3B9
100
AcDbEntity
  8
SEMA2D
100
AcDbLine
 62
7
  6
_SOLID
370
9
 10
1.57222652435303
 20
0.226999968290329
 11
1.56973016262054
 21
0.226039871573448
  0
LINE
  5
3BA
100
AcDbEntity
  8
SEMA2D
100
AcDbLine
 62
7
  6
_SOLID
370
9
 10
1.61916065216064
 20
0.566770613193512
 11
1.62405729293823
 21
0.558289349079132
  0
LINE
  5
3BB
100
AcDbEntity
  8
SEMA2D
100
AcDbLine
 62
7
  6
_SOLID
370
9
 10
1.6425656080246
 20
0.525915026664734
 11
1.64075994491577
 21
0.525915026664734
  0
LINE
  5
3BC
100
AcDbEntity
  8
SEMA2D
100
AcDbLine
 62
7
  6
_SOLID
370
9
 10
1.50015377998352
 20
0.520430266857147
 11
1.493985414505
 21
0.520430266857147
  0
LINE
  5
3BD
100
AcDbEntity
  8
SEMA2D
100
AcDbLine
 62
7
  6
_SOLID
370
9
 10
1.60067284107208
 20
0.519492864608765
 11
1.53878736495972
 21
0.519492864608765
  0
LINE
  5
3BE
100
AcDbEntity
  8
SEMA2D
100
AcDbLine
 62
7
  6
_SOLID
370
9
 10
1.64555072784424
 20
0.519297480583191
 11
1.69003808498383
 21
0.519297480583191
  0
LINE
  5
3BF
100
AcDbEntity
  8
SEMA2D
100
AcDbLine
 62
7
  6
_SOLID
370
9
 10
1.60891306400299
 20
0.521419525146484
 11
1.62269794940948
 21
0.521419525146484
  0
LINE
  5
3C0
100
AcDbEntity
  8
SEMA2D
100
AcDbLine
 62
7
  6
_SOLID
370
9
 10
1.5186083316803
 20
0.521419525146484
 11
1.5305472612381
 21
0.521419525146484
  0
LINE
  5
3C1
100
AcDbEntity
  8
SEMA2D
100
AcDbLine
 62
7
  6
_SOLID
370
9
 10
1.50093853473663
 20
0.521419525146484
 11
1.50533831119537
 21
0.521419525146484
  0
LINE
  5
3C2
100
AcDbEntity
  8
SEMA2D
100
AcDbLine
 62
7
  6
_SOLID
370
9
 10
1.60067284107208
 20
0.517709732055664
 11
1.53878736495972
 21
0.517709732055664
  0
LINE
  5
3C3
100
AcDbEntity
  8
SEMA2D
100
AcDbLine
 62
7
  6
_SOLID
370
9
 10
1.61505246162415
 20
0.517701029777527
 11
1.52625381946564
 21
0.517701029777527
  0
LINE
  5
3C4
100
AcDbEntity
  8
SEMA2D
100
AcDbLine
 62
7
  6
_SOLID
370
9
 10
1.69115400314331
 20
0.5181645154953
 11
1.69454121589661
 21
0.5181645154953
  0
LINE
  5
3C5
100
AcDbEntity
  8
SEMA2D
100
AcDbLine
 62
7
  6
_SOLID
370
9
 10
1.49020302295685
 20
0.51806765794754
 11
1.50225937366486
 21
0.51806765794754
  0
LINE
  5
3C6
100
AcDbEntity
  8
SEMA2D
100
AcDbLine
 62
7
  6
_SOLID
370
9
 10
1.64197039604187
 20
0.51806765794754
 11
1.63904690742493
 21
0.51806765794754
  0
LINE
  5
3C7
100
AcDbEntity
  8
SEMA2D
100
AcDbLine
 62
7
  6
_SOLID
370
9
 10
1.63596796989441
 20
0.52320259809494
 11
1.63808131217957
 21
0.52320259809494
  0
LINE
  5
3C8
100
AcDbEntity
  8
SEMA2D
100
AcDbLine
 62
7
  6
_SOLID
370
9
 10
1.50093853473663
 20
0.52320259809494
 11
1.50533831119537
 21
0.52320259809494
  0
LINE
  5
3C9
100
AcDbEntity
  8
SEMA2D
100
AcDbLine
 62
7
  6
_SOLID
370
9
 10
1.60891306400299
 20
0.52320259809494
 11
1.62269794940948
 21
0.52320259809494
  0
LINE
  5
3CA
100
AcDbEntity
  8
SEMA2D
100
AcDbLine
 62
7
  6
_SOLID
370
9
 10
1.60445523262024
 20
0.525877237319946
 11
1.60623836517334
 21
0.525877237319946
  0
LINE
  5
3CB
100
AcDbEntity
  8
SEMA2D
100
AcDbLine
 62
7
  6
_SOLID
370
9
 10
1.53500497341156
 20
0.525877237319946
 11
1.53322184085846
 21
0.525877237319946
  0
LINE
  5
3CC
100
AcDbEntity
  8
SEMA2D
100
AcDbLine
 62
7
  6
_SOLID
370
9
 10
1.49448549747467
 20
0.525709331035614
 11
1.49826002120972
 21
0.525709331035614
  0
LINE
  5
3CD
100
AcDbEntity
  8
SEMA2D
100
AcDbLine
 62
7
  6
_SOLID
370
9
 10
1.60147869586945
 20
0.522900760173798
 11
1.59969568252563
 21
0.522900760173798
  0
LINE
  5
3CE
100
AcDbEntity
  8
SEMA2D
100
AcDbLine
 62
7
  6
_SOLID
370
9
 10
1.49549639225006
 20
0.522213339805603
 11
1.49343717098236
 21
0.522213339805603
  0
LINE
  5
3CF
100
AcDbEntity
  8
SEMA2D
100
AcDbLine
 62
7
  6
_SOLID
370
9
 10
1.63596796989441
 20
0.521419525146484
 11
1.63808131217957
 21
0.521419525146484
  0
LINE
  5
3D0
100
AcDbEntity
  8
SEMA2D
100
AcDbLine
 62
7
  6
_SOLID
370
9
 10
1.5186083316803
 20
0.52320259809494
 11
1.5305472612381
 21
0.52320259809494
  0
LINE
  5
3D1
100
AcDbEntity
  8
SEMA2D
100
AcDbLine
 62
7
  6
_SOLID
370
9
 10
1.64488685131073
 20
0.522988855838776
 11
1.64669251441956
 21
0.522988855838776
  0
LINE
  5
3D2
100
AcDbEntity
  8
SEMA2D
100
AcDbLine
 62
7
  6
_SOLID
370
9
 10
1.53798151016235
 20
0.522900760173798
 11
1.53976464271545
 21
0.522900760173798
  0
LINE
  5
3D3
100
AcDbEntity
  8
SEMA2D
100
AcDbLine
 62
7
  6
_SOLID
370
9
 10
1.49374151229858
 20
0.553776323795319
 11
1.49194288253784
 21
0.553795754909515
  0
LINE
  5
3D4
100
AcDbEntity
  8
SEMA2D
100
AcDbLine
 62
7
  6
_SOLID
370
9
 10
1.69403004646301
 20
0.558974266052246
 11
1.69108033180237
 21
0.558974266052246
  0
LINE
  5
3D5
100
AcDbEntity
  8
SEMA2D
100
AcDbLine
 62
7
  6
_SOLID
370
9
 10
1.64559555053711
 20
0.558225750923157
 11
1.68878817558289
 21
0.558225750923157
  0
LINE
  5
3D6
100
AcDbEntity
  8
SEMA2D
100
AcDbLine
 62
7
  6
_SOLID
370
9
 10
1.63562440872192
 20
0.565986216068268
 11
1.6338586807251
 21
0.56821209192276
  0
LINE
  5
3D7
100
AcDbEntity
  8
SEMA2D
100
AcDbLine
 62
7
  6
_SOLID
370
9
 10
1.62251305580139
 20
0.555614709854126
 11
1.6183100938797
 21
0.558041334152222
  0
LINE
  5
3D8
100
AcDbEntity
  8
SEMA2D
100
AcDbLine
 62
7
  6
_SOLID
370
9
 10
1.49511337280273
 20
0.559824407100678
 11
1.4928377866745
 21
0.559849977493286
  0
LINE
  5
3D9
100
AcDbEntity
  8
SEMA2D
100
AcDbLine
 62
7
  6
_SOLID
370
9
 10
1.52299618721008
 20
0.558041334152222
 11
1.53574013710022
 21
0.558041334152222
  0
LINE
  5
3DA
100
AcDbEntity
  8
SEMA2D
100
AcDbLine
 62
7
  6
_SOLID
370
9
 10
1.49511337280273
 20
0.558041334152222
 11
1.50297951698303
 21
0.558041334152222
  0
LINE
  5
3DB
100
AcDbEntity
  8
SEMA2D
100
AcDbLine
 62
7
  6
_SOLID
370
9
 10
1.64263129234314
 20
0.558041334152222
 11
1.63832676410675
 21
0.558041334152222
  0
LINE
  5
3DC
100
AcDbEntity
  8
SEMA2D
100
AcDbLine
 62
7
  6
_SOLID
370
9
 10
1.6007581949234
 20
0.558225750923157
 11
1.5387020111084
 21
0.558225750923157
  0
LINE
  5
3DD
100
AcDbEntity
  8
SEMA2D
100
AcDbLine
 62
7
  6
_SOLID
370
9
 10
1.69403445720673
 20
0.558080613613129
 11
1.69156610965729
 21
0.558080613613129
  0
LINE
  5
3DE
100
AcDbEntity
  8
SEMA2D
100
AcDbLine
 62
7
  6
_SOLID
370
9
 10
1.60372018814087
 20
0.558041334152222
 11
1.6183100938797
 21
0.558041334152222
  0
LINE
  5
3DF
100
AcDbEntity
  8
SEMA2D
100
AcDbLine
 62
7
  6
_SOLID
370
9
 10
1.69397366046906
 20
0.563452422618866
 11
1.63623213768005
 21
0.563452422618866
  0
LINE
  5
3E0
100
AcDbEntity
  8
SEMA2D
100
AcDbLine
 62
7
  6
_SOLID
370
9
 10
1.63832676410675
 20
0.559824407100678
 11
1.69156610965729
 21
0.559824407100678
  0
LINE
  5
3E1
100
AcDbEntity
  8
SEMA2D
100
AcDbLine
 62
7
  6
_SOLID
370
9
 10
1.52299618721008
 20
0.559824407100678
 11
1.6183100938797
 21
0.559824407100678
  0
LINE
  5
3E2
100
AcDbEntity
  8
SEMA2D
100
AcDbLine
 62
7
  6
_SOLID
370
9
 10
1.69399058818817
 20
0.565235555171967
 11
1.63623213768005
 21
0.565235555171967
  0
LINE
  5
3E3
100
AcDbEntity
  8
SEMA2D
100
AcDbLine
 62
7
  6
_SOLID
370
9
 10
1.50507414340973
 20
0.563452422618866
 11
1.49515461921692
 21
0.563452422618866
  0
LINE
  5
3E4
100
AcDbEntity
  8
SEMA2D
100
AcDbLine
 62
7
  6
_SOLID
370
9
 10
1.616215467453
 20
0.563452422618866
 11
1.52509081363678
 21
0.563452422618866
  0
LINE
  5
3E5
100
AcDbEntity
  8
SEMA2D
100
AcDbLine
 62
7
  6
_SOLID
370
9
 10
1.60139667987823
 20
0.18303744494915
 11
1.60226023197174
 21
0.183689549565315
  0
LINE
  5
3E6
100
AcDbEntity
  8
SEMA2D
100
AcDbLine
 62
7
  6
_SOLID
370
9
 10
1.63948702812195
 20
0.571265339851379
 11
1.63834297657013
 21
0.57270759344101
  0
LINE
  5
3E7
100
AcDbEntity
  8
SEMA2D
100
AcDbLine
 62
7
  6
_SOLID
370
9
 10
1.49511337280273
 20
0.559824407100678
 11
1.50297951698303
 21
0.559824407100678
  0
LINE
  5
3E8
100
AcDbEntity
  8
SEMA2D
100
AcDbLine
 62
7
  6
_SOLID
370
9
 10
1.58236598968506
 20
0.190764158964157
 11
1.58139336109161
 21
0.190157756209373
  0
LINE
  5
3E9
100
AcDbEntity
  8
SEMA2D
100
AcDbLine
 62
7
  6
_SOLID
370
9
 10
1.58987772464752
 20
0.192211836576462
 11
1.58762872219086
 21
0.190764158964157
  0
LINE
  5
3EA
100
AcDbEntity
  8
SEMA2D
100
AcDbLine
 62
7
  6
_SOLID
370
9
 10
1.69411706924438
 20
0.557186901569366
 11
1.69037795066834
 21
0.557186901569366
  0
LINE
  5
3EB
100
AcDbEntity
  8
SEMA2D
100
AcDbLine
 62
7
  6
_SOLID
370
9
 10
1.49448549747467
 20
0.550280332565308
 11
1.49826002120972
 21
0.550280332565308
  0
LINE
  5
3EC
100
AcDbEntity
  8
SEMA2D
100
AcDbLine
 62
7
  6
_SOLID
370
9
 10
1.60445523262024
 20
0.550112426280975
 11
1.60623836517334
 21
0.550112426280975
  0
LINE
  5
3ED
100
AcDbEntity
  8
SEMA2D
100
AcDbLine
 62
7
  6
_SOLID
370
9
 10
1.53500497341156
 20
0.550112426280975
 11
1.53322184085846
 21
0.550112426280975
  0
LINE
  5
3EE
100
AcDbEntity
  8
SEMA2D
100
AcDbLine
 62
7
  6
_SOLID
370
9
 10
1.50720429420471
 20
0.552787065505981
 11
1.50093853473663
 21
0.552787065505981
  0
LINE
  5
3EF
100
AcDbEntity
  8
SEMA2D
100
AcDbLine
 62
7
  6
_SOLID
370
9
 10
1.5305472612381
 20
0.552787065505981
 11
1.51476323604584
 21
0.552787065505981
  0
LINE
  5
3F0
100
AcDbEntity
  8
SEMA2D
100
AcDbLine
 62
7
  6
_SOLID
370
9
 10
1.62654304504395
 20
0.552787065505981
 11
1.60891306400299
 21
0.552787065505981
  0
LINE
  5
3F1
100
AcDbEntity
  8
SEMA2D
100
AcDbLine
 62
7
  6
_SOLID
370
9
 10
1.57116556167603
 20
0.207653939723969
 11
1.56973016262054
 21
0.206950157880783
  0
LINE
  5
3F2
100
AcDbEntity
  8
SEMA2D
100
AcDbLine
 62
7
  6
_SOLID
370
9
 10
1.57779383659363
 20
0.195259243249893
 11
1.576411485672
 21
0.194456160068512
  0
LINE
  5
3F3
100
AcDbEntity
  8
SEMA2D
100
AcDbLine
 62
7
  6
_SOLID
370
9
 10
1.63623213768005
 20
0.563452422618866
 11
1.63832676410675
 21
0.559824407100678
  0
LINE
  5
3F4
100
AcDbEntity
  8
SEMA2D
100
AcDbLine
 62
7
  6
_SOLID
370
9
 10
1.6425656080246
 20
0.550074636936188
 11
1.64075994491577
 21
0.550074636936188
  0
LINE
  5
3F5
100
AcDbEntity
  8
SEMA2D
100
AcDbLine
 62
7
  6
_SOLID
370
9
 10
1.69576215744019
 20
0.55720716714859
 11
1.69411706924438
 21
0.557186901569366
  0
LINE
  5
3F6
100
AcDbEntity
  8
SEMA2D
100
AcDbLine
 62
7
  6
_SOLID
370
9
 10
1.50720429420471
 20
0.554570138454437
 11
1.50093853473663
 21
0.554570138454437
  0
LINE
  5
3F7
100
AcDbEntity
  8
SEMA2D
100
AcDbLine
 62
7
  6
_SOLID
370
9
 10
1.5305472612381
 20
0.554570138454437
 11
1.51476323604584
 21
0.554570138454437
  0
LINE
  5
3F8
100
AcDbEntity
  8
SEMA2D
100
AcDbLine
 62
7
  6
_SOLID
370
9
 10
1.62654304504395
 20
0.554570138454437
 11
1.60891306400299
 21
0.554570138454437
  0
LINE
  5
3F9
100
AcDbEntity
  8
SEMA2D
100
AcDbLine
 62
7
  6
_SOLID
370
9
 10
1.64559555053711
 20
0.556627035140991
 11
1.69003808498383
 21
0.556627035140991
  0
LINE
  5
3FA
100
AcDbEntity
  8
SEMA2D
100
AcDbLine
 62
7
  6
_SOLID
370
9
 10
1.6007581949234
 20
0.556627035140991
 11
1.5387020111084
 21
0.556627035140991
  0
LINE
  5
3FB
100
AcDbEntity
  8
SEMA2D
100
AcDbLine
 62
7
  6
_SOLID
370
9
 10
1.4943585395813
 20
0.555559396743774
 11
1.50015377998352
 21
0.555559396743774
  0
LINE
  5
3FC
100
AcDbEntity
  8
SEMA2D
100
AcDbLine
 62
7
  6
_SOLID
370
9
 10
1.60147869586945
 20
0.553088903427124
 11
1.59969568252563
 21
0.553088903427124
  0
LINE
  5
3FD
100
AcDbEntity
  8
SEMA2D
100
AcDbLine
 62
7
  6
_SOLID
370
9
 10
1.64488685131073
 20
0.553000807762146
 11
1.64669251441956
 21
0.553000807762146
  0
LINE
  5
3FE
100
AcDbEntity
  8
SEMA2D
100
AcDbLine
 62
7
  6
_SOLID
370
9
 10
1.63808131217957
 20
0.552787065505981
 11
1.63410198688507
 21
0.552787065505981
  0
LINE
  5
3FF
100
AcDbEntity
  8
SEMA2D
100
AcDbLine
 62
7
  6
_SOLID
370
9
 10
1.63808131217957
 20
0.554570138454437
 11
1.63410198688507
 21
0.554570138454437
  0
LINE
  5
400
100
AcDbEntity
  8
SEMA2D
100
AcDbLine
 62
7
  6
_SOLID
370
9
 10
1.49374151229858
 20
0.553776323795319
 11
1.49549639225006
 21
0.553776323795319
  0
LINE
  5
401
100
AcDbEntity
  8
SEMA2D
100
AcDbLine
 62
7
  6
_SOLID
370
9
 10
1.53798151016235
 20
0.553088903427124
 11
1.53976464271545
 21
0.553088903427124
  0
ARC
  5
402
100
AcDbEntity
  8
SEMA2D
100
AcDbCircle
 62
7
  6
_SOLID
370
9
 10
1.38912105560303
 20
0.501054883003235
 40
0.19487501680851
100
AcDbArc
 50
321.870269775391
 51
337.940521240234
  0
ARC
  5
403
100
AcDbEntity
  8
SEMA2D
100
AcDbCircle
 62
7
  6
_SOLID
370
9
 10
1.75033926963806
 20
0.501054883003235
 40
0.19487501680851
100
AcDbArc
 50
202.059478759766
 51
218.129745483398
  0
ARC
  5
404
100
AcDbEntity
  8
SEMA2D
100
AcDbCircle
 62
7
  6
_SOLID
370
9
 10
1.75033926963806
 20
0.501054883003235
 40
0.190417274832726
100
AcDbArc
 50
199.253158569336
 51
218.129745483398
  0
ARC
  5
405
100
AcDbEntity
  8
SEMA2D
100
AcDbCircle
 62
7
  6
_SOLID
370
9
 10
1.38912105560303
 20
0.260405957698822
 40
0.19487501680851
100
AcDbArc
 50
22.0594825744629
 51
38.1297378540039
  0
ARC
  5
406
100
AcDbEntity
  8
SEMA2D
100
AcDbCircle
 62
7
  6
_SOLID
370
9
 10
1.38912105560303
 20
0.260405957698822
 40
0.190417274832726
100
AcDbArc
 50
19.25315284729
 51
38.1297416687012
  0
ARC
  5
407
100
AcDbEntity
  8
SEMA2D
100
AcDbCircle
 62
7
  6
_SOLID
370
9
 10
1.38912105560303
 20
0.501054883003235
 40
0.190417274832726
100
AcDbArc
 50
321.870147705078
 51
340.746856689453
  0
ARC
  5
408
100
AcDbEntity
  8
SEMA2D
100
AcDbCircle
 62
7
  6
_SOLID
370
9
 10
1.75033926963806
 20
0.501054883003235
 40
0.183183521032333
100
AcDbArc
 50
189.617111206055
 51
220.113861083984
  0
ARC
  5
409
100
AcDbEntity
  8
SEMA2D
100
AcDbCircle
 62
7
  6
_SOLID
370
9
 10
1.38912105560303
 20
0.260405957698822
 40
0.18496660888195
100
AcDbArc
 50
13.6494703292847
 51
40.1138648986816
  0
ARC
  5
40A
100
AcDbEntity
  8
SEMA2D
100
AcDbCircle
 62
7
  6
_SOLID
370
9
 10
1.38912105560303
 20
0.260405957698822
 40
0.183183521032333
100
AcDbArc
 50
9.6171178817749
 51
40.1138648986816
  0
ARC
  5
40B
100
AcDbEntity
  8
SEMA2D
100
AcDbCircle
 62
7
  6
_SOLID
370
9
 10
1.75033926963806
 20
0.260405957698822
 40
0.183183521032333
100
AcDbArc
 50
139.886138916016
 51
170.382888793945
  0
ARC
  5
40C
100
AcDbEntity
  8
SEMA2D
100
AcDbCircle
 62
7
  6
_SOLID
370
9
 10
1.75033926963806
 20
0.260405957698822
 40
0.18496660888195
100
AcDbArc
 50
139.886138916016
 51
166.350524902344
  0
ARC
  5
40D
100
AcDbEntity
  8
SEMA2D
100
AcDbCircle
 62
7
  6
_SOLID
370
9
 10
1.75033926963806
 20
0.501054883003235
 40
0.18496660888195
100
AcDbArc
 50
193.649475097656
 51
220.113861083984
  0
ARC
  5
40E
100
AcDbEntity
  8
SEMA2D
100
AcDbCircle
 62
7
  6
_SOLID
370
9
 10
1.38912105560303
 20
0.260405957698822
 40
0.185595780611038
100
AcDbArc
 50
14.4239463806152
 51
39.887092590332
  0
ARC
  5
40F
100
AcDbEntity
  8
SEMA2D
100
AcDbCircle
 62
7
  6
_SOLID
370
9
 10
1.38912105560303
 20
0.501054883003235
 40
0.185595780611038
100
AcDbArc
 50
320.112915039063
 51
345.576049804687
  0
ARC
  5
410
100
AcDbEntity
  8
SEMA2D
100
AcDbCircle
 62
7
  6
_SOLID
370
9
 10
1.38912105560303
 20
0.501054883003235
 40
0.186546266078949
100
AcDbArc
 50
320.112915039063
 51
345.020263671875
  0
ARC
  5
411
100
AcDbEntity
  8
SEMA2D
100
AcDbCircle
 62
7
  6
_SOLID
370
9
 10
1.75033926963806
 20
0.260405957698822
 40
0.197951510548592
100
AcDbArc
 50
143.432220458984
 51
155.837829589844
  0
ARC
  5
412
100
AcDbEntity
  8
SEMA2D
100
AcDbCircle
 62
7
  6
_SOLID
370
9
 10
1.75033926963806
 20
0.501054883003235
 40
0.197951510548592
100
AcDbArc
 50
204.162170410156
 51
216.567779541016
  0
ARC
  5
413
100
AcDbEntity
  8
SEMA2D
100
AcDbCircle
 62
7
  6
_SOLID
370
9
 10
1.38912105560303
 20
0.260405957698822
 40
0.186546266078949
100
AcDbArc
 50
14.9797248840332
 51
39.887092590332
  0
ARC
  5
414
100
AcDbEntity
  8
SEMA2D
100
AcDbCircle
 62
7
  6
_SOLID
370
9
 10
1.75033926963806
 20
0.260405957698822
 40
0.186546266078949
100
AcDbArc
 50
140.112899780273
 51
165.020278930664
  0
ARC
  5
415
100
AcDbEntity
  8
SEMA2D
100
AcDbCircle
 62
7
  6
_SOLID
370
9
 10
1.75033926963806
 20
0.260405957698822
 40
0.190417274832726
100
AcDbArc
 50
141.870147705078
 51
160.746841430664
  0
ARC
  5
416
100
AcDbEntity
  8
SEMA2D
100
AcDbCircle
 62
7
  6
_SOLID
370
9
 10
1.75033926963806
 20
0.260405957698822
 40
0.19487501680851
100
AcDbArc
 50
141.870269775391
 51
157.940521240234
  0
ARC
  5
417
100
AcDbEntity
  8
SEMA2D
100
AcDbCircle
 62
7
  6
_SOLID
370
9
 10
1.75033926963806
 20
0.501054883003235
 40
0.186546266078949
100
AcDbArc
 50
194.979721069336
 51
219.887084960938
  0
ARC
  5
418
100
AcDbEntity
  8
SEMA2D
100
AcDbCircle
 62
7
  6
_SOLID
370
9
 10
1.75033926963806
 20
0.501054883003235
 40
0.185595780611038
100
AcDbArc
 50
194.423950195313
 51
219.887084960938
  0
ARC
  5
419
100
AcDbEntity
  8
SEMA2D
100
AcDbCircle
 62
7
  6
_SOLID
370
9
 10
1.75033926963806
 20
0.260405957698822
 40
0.185595780611038
100
AcDbArc
 50
140.112899780273
 51
165.576049804687
  0
ARC
  5
41A
100
AcDbEntity
  8
SEMA2D
100
AcDbCircle
 62
7
  6
_SOLID
370
9
 10
1.38912105560303
 20
0.501054883003235
 40
0.183183521032333
100
AcDbArc
 50
319.886138916016
 51
350.382873535156
  0
ARC
  5
41B
100
AcDbEntity
  8
SEMA2D
100
AcDbCircle
 62
7
  6
_SOLID
370
9
 10
-11.9359130859375
 20
0.389498919248581
 40
13.6334791183472
100
AcDbArc
 50
359.148559570313
 51
0.816553175449371
  0
ARC
  5
41C
100
AcDbEntity
  8
SEMA2D
100
AcDbCircle
 62
7
  6
_SOLID
370
9
 10
1.4848141670227
 20
0.197328418493271
 40
0.00369199994020164
100
AcDbArc
 50
0
 51
90
  0
ARC
  5
41D
100
AcDbEntity
  8
SEMA2D
100
AcDbCircle
 62
7
  6
_SOLID
370
9
 10
15.0753269195557
 20
0.406574428081512
 40
13.6334791183472
100
AcDbArc
 50
179.169876098633
 51
180.863891601562
  0
ARC
  5
41E
100
AcDbEntity
  8
SEMA2D
100
AcDbCircle
 62
7
  6
_SOLID
370
9
 10
-11.9359130859375
 20
0.389498919248581
 40
13.6325130462646
100
AcDbArc
 50
359.180145263672
 51
0
  0
ARC
  5
41F
100
AcDbEntity
  8
SEMA2D
100
AcDbCircle
 62
7
  6
_SOLID
370
9
 10
-11.9359130859375
 20
0.389498919248581
 40
13.6308670043945
100
AcDbArc
 50
359.180145263672
 51
0.52544105052948
  0
ARC
  5
420
100
AcDbEntity
  8
SEMA2D
100
AcDbCircle
 62
7
  6
_SOLID
370
9
 10
1.67310607433319
 20
0.587482452392578
 40
0.00369199994020164
100
AcDbArc
 50
180
 51
270
  0
ARC
  5
421
100
AcDbEntity
  8
SEMA2D
100
AcDbCircle
 62
7
  6
_SOLID
370
9
 10
1.75033926963806
 20
0.260405957698822
 40
0.188447222113609
100
AcDbArc
 50
141.027221679688
 51
162.533737182617
  0
ARC
  5
422
100
AcDbEntity
  8
SEMA2D
100
AcDbCircle
 62
7
  6
_SOLID
370
9
 10
1.75033926963806
 20
0.501054883003235
 40
0.188447222113609
100
AcDbArc
 50
197.466262817383
 51
218.972778320313
  0
ARC
  5
423
100
AcDbEntity
  8
SEMA2D
100
AcDbCircle
 62
7
  6
_SOLID
370
9
 10
1.38912105560303
 20
0.501054883003235
 40
0.188447222113609
100
AcDbArc
 50
321.027221679687
 51
342.533721923828
  0
ARC
  5
424
100
AcDbEntity
  8
SEMA2D
100
AcDbCircle
 62
7
  6
_SOLID
370
9
 10
1.38912105560303
 20
0.501054883003235
 40
0.18496660888195
100
AcDbArc
 50
319.886138916016
 51
346.350524902344
  0
ARC
  5
425
100
AcDbEntity
  8
SEMA2D
100
AcDbCircle
 62
7
  6
_SOLID
370
9
 10
1.75033926963806
 20
0.295500874519348
 40
0.188364565372467
100
AcDbArc
 50
197.386566162109
 51
216.079650878906
  0
ARC
  5
426
100
AcDbEntity
  8
SEMA2D
100
AcDbCircle
 62
7
  6
_SOLID
370
9
 10
1.38912105560303
 20
0.295500874519348
 40
0.188364565372467
100
AcDbArc
 50
323.920349121094
 51
342.613433837891
  0
ARC
  5
427
100
AcDbEntity
  8
SEMA2D
100
AcDbCircle
 62
7
  6
_SOLID
370
9
 10
-11.9359130859375
 20
0.389498919248581
 40
13.6327075958252
100
AcDbArc
 50
0.540831208229065
 51
0.704864799976349
  0
ARC
  5
428
100
AcDbEntity
  8
SEMA2D
100
AcDbCircle
 62
7
  6
_SOLID
370
9
 10
-11.9359130859375
 20
0.389498919248581
 40
13.6310625076294
100
AcDbArc
 50
0.540831208229065
 51
0.704864799976349
  0
ARC
  5
429
100
AcDbEntity
  8
SEMA2D
100
AcDbCircle
 62
7
  6
_SOLID
370
9
 10
1.38912105560303
 20
0.260405957698822
 40
0.188447222113609
100
AcDbArc
 50
17.4662704467773
 51
38.972770690918
  0
ARC
  5
42A
100
AcDbEntity
  8
SEMA2D
100
AcDbCircle
 62
7
  6
_SOLID
370
9
 10
-11.9359130859375
 20
0.389498919248581
 40
13.6326427459717
100
AcDbArc
 50
0.712382078170776
 51
0.731208980083466
  0
ARC
  5
42B
100
AcDbEntity
  8
SEMA2D
100
AcDbCircle
 62
7
  6
_SOLID
370
9
 10
-11.9359130859375
 20
0.389498919248581
 40
13.6309967041016
100
AcDbArc
 50
0.712381720542908
 51
0.73120641708374
  0
ARC
  5
42C
100
AcDbEntity
  8
SEMA2D
100
AcDbCircle
 62
7
  6
_SOLID
370
9
 10
1.4585086107254
 20
0.5007204413414
 40
0.00485052773728967
100
AcDbArc
 50
339.162750244141
 51
20.0463352203369
  0
ARC
  5
42D
100
AcDbEntity
  8
SEMA2D
100
AcDbCircle
 62
7
  6
_SOLID
370
9
 10
1.75033926963806
 20
0.295500874519348
 40
0.193505749106407
100
AcDbArc
 50
201.036407470703
 51
212.769378662109
  0
ARC
  5
42E
100
AcDbEntity
  8
SEMA2D
100
AcDbCircle
 62
7
  6
_SOLID
370
9
 10
1.4585086107254
 20
0.5007204413414
 40
0.00945920404046774
100
AcDbArc
 50
156.746307373047
 51
202.776901245117
  0
ARC
  5
42F
100
AcDbEntity
  8
SEMA2D
100
AcDbCircle
 62
7
  6
_SOLID
370
9
 10
1.4585086107254
 20
0.5007204413414
 40
0.00485052820295095
100
AcDbArc
 50
156.431167602539
 51
202.776947021484
  0
ARC
  5
430
100
AcDbEntity
  8
SEMA2D
100
AcDbCircle
 62
7
  6
_SOLID
370
9
 10
1.45920085906982
 20
0.234248429536819
 40
0.00485052773728967
100
AcDbArc
 50
339.927490234375
 51
21.4526786804199
  0
ARC
  5
431
100
AcDbEntity
  8
SEMA2D
100
AcDbCircle
 62
7
  6
_SOLID
370
9
 10
1.75033926963806
 20
0.295500874519348
 40
0.185550957918167
100
AcDbArc
 50
194.370300292969
 51
217.055694580078
  0
ARC
  5
432
100
AcDbEntity
  8
SEMA2D
100
AcDbCircle
 62
7
  6
_SOLID
370
9
 10
1.75033926963806
 20
0.295500874519348
 40
0.186633110046387
100
AcDbArc
 50
195.126922607422
 51
217.055694580078
  0
ARC
  5
433
100
AcDbEntity
  8
SEMA2D
100
AcDbCircle
 62
7
  6
_SOLID
370
9
 10
1.38912105560303
 20
0.295500874519348
 40
0.186633110046387
100
AcDbArc
 50
322.944305419922
 51
344.873077392578
  0
ARC
  5
434
100
AcDbEntity
  8
SEMA2D
100
AcDbCircle
 62
7
  6
_SOLID
370
9
 10
1.75033926963806
 20
0.295500874519348
 40
0.19083109498024
100
AcDbArc
 50
201.036392211914
 51
212.769378662109
  0
ARC
  5
435
100
AcDbEntity
  8
SEMA2D
100
AcDbCircle
 62
7
  6
_SOLID
370
9
 10
1.38912105560303
 20
0.295500874519348
 40
0.19083109498024
100
AcDbArc
 50
327.230621337891
 51
338.963592529297
  0
ARC
  5
436
100
AcDbEntity
  8
SEMA2D
100
AcDbCircle
 62
7
  6
_SOLID
370
9
 10
1.38912105560303
 20
0.295500874519348
 40
0.193505749106407
100
AcDbArc
 50
327.230621337891
 51
338.963592529297
  0
ARC
  5
437
100
AcDbEntity
  8
SEMA2D
100
AcDbCircle
 62
7
  6
_SOLID
370
9
 10
15.0753269195557
 20
0.406574428081512
 40
13.632924079895
100
AcDbArc
 50
179.18083190918
 51
179.532455444336
  0
ARC
  5
438
100
AcDbEntity
  8
SEMA2D
100
AcDbCircle
 62
7
  6
_SOLID
370
9
 10
1.45920085906982
 20
0.234248429536819
 40
0.00945920404046774
100
AcDbArc
 50
157.798416137695
 51
203.583450317383
  0
ARC
  5
439
100
AcDbEntity
  8
SEMA2D
100
AcDbCircle
 62
7
  6
_SOLID
370
9
 10
1.45920085906982
 20
0.234248429536819
 40
0.00485052820295095
100
AcDbArc
 50
157.798370361328
 51
203.58349609375
  0
ARC
  5
43A
100
AcDbEntity
  8
SEMA2D
100
AcDbCircle
 62
7
  6
_SOLID
370
9
 10
1.67310607433319
 20
0.587482452392578
 40
0.0037281068507582
100
AcDbArc
 50
180
 51
270
  0
ARC
  5
43B
100
AcDbEntity
  8
SEMA2D
100
AcDbCircle
 62
7
  6
_SOLID
370
9
 10
1.67310607433319
 20
0.587482452392578
 40
0.00555614149197936
100
AcDbArc
 50
180
 51
270
  0
ARC
  5
43C
100
AcDbEntity
  8
SEMA2D
100
AcDbCircle
 62
7
  6
_SOLID
370
9
 10
1.38912105560303
 20
0.295500874519348
 40
0.185550957918167
100
AcDbArc
 50
322.944305419922
 51
345.629699707031
  0
ARC
  5
43D
100
AcDbEntity
  8
SEMA2D
100
AcDbCircle
 62
7
  6
_SOLID
370
9
 10
1.75033926963806
 20
0.260405957698822
 40
0.201047345995903
100
AcDbArc
 50
143.432220458984
 51
153.940856933594
  0
ARC
  5
43E
100
AcDbEntity
  8
SEMA2D
100
AcDbCircle
 62
7
  6
_SOLID
370
9
 10
1.75033926963806
 20
0.501054883003235
 40
0.201047345995903
100
AcDbArc
 50
206.059143066406
 51
216.567749023438
  0
ARC
  5
43F
100
AcDbEntity
  8
SEMA2D
100
AcDbCircle
 62
7
  6
_SOLID
370
9
 10
1.75033926963806
 20
0.501054883003235
 40
0.199720561504364
100
AcDbArc
 50
205.79963684082
 51
216.567779541016
  0
ARC
  5
440
100
AcDbEntity
  8
SEMA2D
100
AcDbCircle
 62
7
  6
_SOLID
370
9
 10
1.6149570941925
 20
0.485029429197311
 40
0.0251218993216753
100
AcDbArc
 50
0.262771159410477
 51
49.7965698242188
  0
ARC
  5
441
100
AcDbEntity
  8
SEMA2D
100
AcDbCircle
 62
7
  6
_SOLID
370
9
 10
1.6149570941925
 20
0.485029429197311
 40
0.028628995642066
100
AcDbArc
 50
0.262771219015121
 51
49.7965698242188
  0
ARC
  5
442
100
AcDbEntity
  8
SEMA2D
100
AcDbCircle
 62
7
  6
_SOLID
370
9
 10
1.75033926963806
 20
0.260405957698822
 40
0.199720561504364
100
AcDbArc
 50
143.432220458984
 51
154.20036315918
  0
ARC
  5
443
100
AcDbEntity
  8
SEMA2D
100
AcDbCircle
 62
7
  6
_SOLID
370
9
 10
1.38912105560303
 20
0.501054883003235
 40
0.201047345995903
100
AcDbArc
 50
323.432250976562
 51
333.940856933594
  0
ARC
  5
444
100
AcDbEntity
  8
SEMA2D
100
AcDbCircle
 62
7
  6
_SOLID
370
9
 10
1.38912105560303
 20
0.260405957698822
 40
0.197951510548592
100
AcDbArc
 50
24.1621780395508
 51
36.5677833557129
  0
ARC
  5
445
100
AcDbEntity
  8
SEMA2D
100
AcDbCircle
 62
7
  6
_SOLID
370
9
 10
1.38912105560303
 20
0.501054883003235
 40
0.197951510548592
100
AcDbArc
 50
323.432220458984
 51
335.837829589844
  0
ARC
  5
446
100
AcDbEntity
  8
SEMA2D
100
AcDbCircle
 62
7
  6
_SOLID
370
9
 10
1.38912105560303
 20
0.260405957698822
 40
0.201047345995903
100
AcDbArc
 50
26.0591468811035
 51
36.5677528381348
  0
ARC
  5
447
100
AcDbEntity
  8
SEMA2D
100
AcDbCircle
 62
7
  6
_SOLID
370
9
 10
1.38912105560303
 20
0.260405957698822
 40
0.199720561504364
100
AcDbArc
 50
25.7996311187744
 51
36.5677833557129
  0
ARC
  5
448
100
AcDbEntity
  8
SEMA2D
100
AcDbCircle
 62
7
  6
_SOLID
370
9
 10
1.38912105560303
 20
0.501054883003235
 40
0.199720561504364
100
AcDbArc
 50
323.432220458984
 51
334.200378417969
  0
ARC
  5
449
100
AcDbEntity
  8
SEMA2D
100
AcDbCircle
 62
7
  6
_SOLID
370
9
 10
1.75033926963806
 20
0.295500874519348
 40
0.199550196528435
100
AcDbArc
 50
206.118225097656
 51
210.154800415039
  0
ARC
  5
44A
100
AcDbEntity
  8
SEMA2D
100
AcDbCircle
 62
7
  6
_SOLID
370
9
 10
1.38912105560303
 20
0.295500874519348
 40
0.197951510548592
100
AcDbArc
 50
328.055145263672
 51
335.837829589844
  0
ARC
  5
44B
100
AcDbEntity
  8
SEMA2D
100
AcDbCircle
 62
7
  6
_SOLID
370
9
 10
1.75033926963806
 20
0.295500874519348
 40
0.197951510548592
100
AcDbArc
 50
204.162170410156
 51
211.944869995117
  0
ARC
  5
44C
100
AcDbEntity
  8
SEMA2D
100
AcDbCircle
 62
7
  6
_SOLID
370
9
 10
1.38912105560303
 20
0.295500874519348
 40
0.199550196528435
100
AcDbArc
 50
329.845184326172
 51
333.881774902344
  0
ARC
  5
44D
100
AcDbEntity
  8
SEMA2D
100
AcDbCircle
 62
7
  6
_SOLID
370
9
 10
1.38912105560303
 20
0.295500874519348
 40
0.201148882508278
100
AcDbArc
 50
329.845184326172
 51
333.881774902344
  0
ARC
  5
44E
100
AcDbEntity
  8
SEMA2D
100
AcDbCircle
 62
7
  6
_SOLID
370
9
 10
1.75033926963806
 20
0.295500874519348
 40
0.201148882508278
100
AcDbArc
 50
206.118225097656
 51
210.154800415039
  0
ARC
  5
44F
100
AcDbEntity
  8
SEMA2D
100
AcDbCircle
 62
7
  6
_SOLID
370
9
 10
1.38912105560303
 20
0.295500874519348
 40
0.183183521032333
100
AcDbArc
 50
321.403228759766
 51
350.382873535156
  0
ARC
  5
450
100
AcDbEntity
  8
SEMA2D
100
AcDbCircle
 62
7
  6
_SOLID
370
9
 10
1.52819514274597
 20
0.485029429197311
 40
0.028628995642066
100
AcDbArc
 50
133.251083374023
 51
180
  0
ARC
  5
451
100
AcDbEntity
  8
SEMA2D
100
AcDbCircle
 62
7
  6
_SOLID
370
9
 10
1.52819514274597
 20
0.485029429197311
 40
0.0251218993216753
100
AcDbArc
 50
133.251068115234
 51
180
  0
ARC
  5
452
100
AcDbEntity
  8
SEMA2D
100
AcDbCircle
 62
7
  6
_SOLID
370
9
 10
1.75033926963806
 20
0.295500874519348
 40
0.183183521032333
100
AcDbArc
 50
189.617111206055
 51
218.596755981445
  0
ARC
  5
453
100
AcDbEntity
  8
SEMA2D
100
AcDbCircle
 62
7
  6
_SOLID
370
9
 10
1.75033926963806
 20
0.295500874519348
 40
0.18496660888195
100
AcDbArc
 50
193.649475097656
 51
217.438186645508
  0
ARC
  5
454
100
AcDbEntity
  8
SEMA2D
100
AcDbCircle
 62
7
  6
_SOLID
370
9
 10
1.38912105560303
 20
0.295500874519348
 40
0.18496660888195
100
AcDbArc
 50
322.561828613281
 51
346.350524902344
  0
LINE
  5
455
100
AcDbEntity
  8
SEMA2D
100
AcDbLine
 62
7
  6
_SOLID
370
9
 10
1.49510228633881
 20
0.593069195747375
 11
1.49477958679199
 21
0.567769289016724
  0
LINE
  5
456
100
AcDbEntity
  8
SEMA2D
100
AcDbLine
 62
7
  6
_SOLID
370
9
 10
1.49326181411743
 20
0.593094408512115
 11
1.4927830696106
 21
0.555559396743774
  0
LINE
  5
457
100
AcDbEntity
  8
SEMA2D
100
AcDbLine
 62
7
  6
_SOLID
370
9
 10
1.45574772357941
 20
0.590501487255096
 11
1.45489275455475
 21
0.506534337997437
  0
LINE
  5
458
100
AcDbEntity
  8
SEMA2D
100
AcDbLine
 62
7
  6
_SOLID
370
9
 10
1.46227121353149
 20
0.50671774148941
 11
1.46312320232391
 21
0.590401947498322
  0
LINE
  5
459
100
AcDbEntity
  8
SEMA2D
100
AcDbLine
 62
7
  6
_SOLID
370
9
 10
1.46756708621979
 20
0.590513169765472
 11
1.46666586399078
 21
0.506685435771942
  0
LINE
  5
45A
100
AcDbEntity
  8
SEMA2D
100
AcDbLine
 62
7
  6
_SOLID
370
9
 10
1.47259330749512
 20
0.590567052364349
 11
1.47178888320923
 21
0.515722334384918
  0
LINE
  5
45B
100
AcDbEntity
  8
SEMA2D
100
AcDbLine
 62
7
  6
_SOLID
370
9
 10
1.45103549957275
 20
0.228418484330177
 11
1.45140266418457
 21
0.201020419597626
  0
LINE
  5
45C
100
AcDbEntity
  8
SEMA2D
100
AcDbLine
 62
7
  6
_SOLID
370
9
 10
1.45558726787567
 20
0.228475302457809
 11
1.45594429969788
 21
0.201020419597626
  0
LINE
  5
45D
100
AcDbEntity
  8
SEMA2D
100
AcDbLine
 62
7
  6
_SOLID
370
9
 10
1.46296727657318
 20
0.228212624788284
 11
1.46332085132599
 21
0.201020419597626
  0
LINE
  5
45E
100
AcDbEntity
  8
SEMA2D
100
AcDbLine
 62
7
  6
_SOLID
370
9
 10
1.46740436553955
 20
0.228268042206764
 11
1.4677699804306
 21
0.201020419597626
  0
LINE
  5
45F
100
AcDbEntity
  8
SEMA2D
100
AcDbLine
 62
7
  6
_SOLID
370
9
 10
1.47193324565887
 20
0.240785613656044
 11
1.47251665592194
 21
0.201020419597626
  0
ARC
  5
460
100
AcDbEntity
  8
SEMA2D
100
AcDbCircle
 62
7
  6
_SOLID
370
9
 10
15.0753345489502
 20
0.396996170282364
 40
13.6324071884155
100
AcDbArc
 50
180.014038085938
 51
180.823699951172
  0
LINE
  5
461
100
AcDbEntity
  8
SEMA2D
100
AcDbLine
 62
7
  6
_SOLID
370
9
 10
1.45481276512146
 20
0.494957000017166
 11
1.45544910430908
 21
0.247964724898338
  0
ARC
  5
462
100
AcDbEntity
  8
SEMA2D
100
AcDbCircle
 62
7
  6
_SOLID
370
9
 10
15.0985422134399
 20
0.406572729349136
 40
13.6366386413574
100
AcDbArc
 50
179.629837036133
 51
180.664566040039
  0
ARC
  5
463
100
AcDbEntity
  8
SEMA2D
100
AcDbCircle
 62
7
  6
_SOLID
370
9
 10
15.0985307693481
 20
0.406572818756103
 40
13.6321897506714
100
AcDbArc
 50
179.629837036133
 51
180.664566040039
  0
ARC
  5
464
100
AcDbEntity
  8
SEMA2D
100
AcDbCircle
 62
7
  6
_SOLID
370
9
 10
15.2360353469849
 20
0.407500714063644
 40
13.750786781311
100
AcDbArc
 50
179.212875366211
 51
180.824645996094
  0
ARC
  5
465
100
AcDbEntity
  8
SEMA2D
100
AcDbCircle
 62
7
  6
_SOLID
370
9
 10
13.3013744354248
 20
0.411528438329697
 40
11.8305549621582
100
AcDbArc
 50
179.613983154297
 51
180.826934814453
  0
LINE
  5
466
100
AcDbEntity
  8
SEMA2D
100
AcDbLine
 62
7
  6
_SOLID
370
9
 10
1.47178888320923
 20
0.515722334384918
 11
1.47108745574951
 21
0.491232544183731
  0
ARC
  5
467
100
AcDbEntity
  8
SEMA2D
100
AcDbCircle
 62
7
  6
_SOLID
370
9
 10
1.4586546421051
 20
0.5007204413414
 40
0.00945920404046774
100
AcDbArc
 50
338.848175048828
 51
20.3494472503662
  0
ARC
  5
468
100
AcDbEntity
  8
SEMA2D
100
AcDbCircle
 62
7
  6
_SOLID
370
9
 10
15.1126308441162
 20
0.406577914953232
 40
13.6228847503662
100
AcDbArc
 50
179.53108215332
 51
180.948440551758
  0
ARC
  5
469
100
AcDbEntity
  8
SEMA2D
100
AcDbCircle
 62
7
  6
_SOLID
370
9
 10
15.1249933242798
 20
0.406572788953781
 40
13.6306705474854
100
AcDbArc
 50
179.546325683594
 51
180.891662597656
  0
LINE
  5
46A
100
AcDbEntity
  8
SEMA2D
100
AcDbLine
 62
7
  6
_SOLID
370
9
 10
1.49448549747467
 20
0.550280332565308
 11
1.49448549747467
 21
0.525709331035614
  0
LINE
  5
46B
100
AcDbEntity
  8
SEMA2D
100
AcDbLine
 62
7
  6
_SOLID
370
9
 10
1.49374151229858
 20
0.553776323795319
 11
1.49343717098236
 21
0.522213339805603
  0
LINE
  5
46C
100
AcDbEntity
  8
SEMA2D
100
AcDbLine
 62
7
  6
_SOLID
370
9
 10
1.49194288253784
 20
0.553795754909515
 11
1.49163854122162
 21
0.522228598594666
  0
LINE
  5
46D
100
AcDbEntity
  8
SEMA2D
100
AcDbLine
 62
7
  6
_SOLID
370
9
 10
1.44973933696747
 20
0.506572186946869
 11
1.44973933696747
 21
0.590584814548492
  0
LINE
  5
46E
100
AcDbEntity
  8
SEMA2D
100
AcDbLine
 62
7
  6
_SOLID
370
9
 10
1.44973933696747
 20
0.247964724898338
 11
1.44973933696747
 21
0.494989901781082
  0
LINE
  5
46F
100
AcDbEntity
  8
SEMA2D
100
AcDbLine
 62
7
  6
_SOLID
370
9
 10
1.45544910430908
 20
0.247964724898338
 11
1.44973945617676
 21
0.24795001745224
  0
ARC
  5
470
100
AcDbEntity
  8
SEMA2D
100
AcDbCircle
 62
7
  6
_SOLID
370
9
 10
19.5404033660889
 20
0.421955347061157
 40
18.0974960327148
100
AcDbArc
 50
179.431625366211
 51
180.55094909668
  0
LINE
  5
471
100
AcDbEntity
  8
SEMA2D
100
AcDbLine
 62
7
  6
_SOLID
370
9
 10
1.44973933696747
 20
0.494989901781082
 11
1.45481276512146
 21
0.494957000017166
  0
ARC
  5
472
100
AcDbEntity
  8
SEMA2D
100
AcDbCircle
 62
7
  6
_SOLID
370
9
 10
1.45931351184845
 20
0.234248429536819
 40
0.00945920404046774
100
AcDbArc
 50
339.693420410156
 51
22.2015781402588
  0
LINE
  5
473
100
AcDbEntity
  8
SEMA2D
100
AcDbLine
 62
7
  6
_SOLID
370
9
 10
1.46282076835632
 20
0.248405203223228
 11
1.46725797653198
 21
0.248456671833992
  0
ENDSEC
  0
SECTION
  2
OBJECTS
  0
DICTIONARY
  5
 13
330
0
100
AcDbDictionary
281
     1
  3
ACAD_GROUP
350
 14
 3
ACAD_MLINESTYLE
350
 16
  3
ACAD_PLOTSETTINGS
350
 17
  3
ACAD_PLOTSTYLENAME
350
 18
  0
DICTIONARY
  5
 14
330
 13
100
AcDbDictionary
281
     1
  0
DICTIONARY
  5
 16
330
 13
100
AcDbDictionary
281
     1
  0
DICTIONARY
  5
 17
102
{ACAD_REACTORS
330
 13
102
}
330
 13
100
AcDbDictionary
281
     1
  0
ACDBDICTIONARYWDFLT
  5
 18
102
{ACAD_REACTORS
330
 13
102
}
330
 13
100
AcDbDictionary
281
     1
  3
Normal
350
 19
100
AcDbDictionaryWithDefault
340
 19
  0
ACDBPLACEHOLDER
  5
 19
102
{ACAD_REACTORS
330
 18
102
}
330
 18
  0
ENDSEC
  0
EOF
