  0
SECTION
  2
HEADER
  9
$ACADVER
  1
AC1015
  9
$HANDSEED
  5
133
  9
$LIMMIN
 10
0.873945355415344
 20
0.0751635730266571
  9
$LIMMAX
 10
1.39498364925385
 20
0.703016698360443
  9
$MEASUREMENT
 70
1
  0
ENDSEC
  0
SECTION
  2
TABLES
  0
TABLE
  2
VPORT
  5
  1
100
AcDbSymbolTable
  0
ENDTAB
  0
TABLE
  2
LTYPE
  5
  2
100
AcDbSymbolTable
  0
LTYPE
  5
  3
100
AcDbSymbolTableRecord
100
AcDbLinetypeTableRecord
  2
BYBLOCK
 70
     0
  0
LTYPE
  5
  4
100
AcDbSymbolTableRecord
100
AcDbLinetypeTableRecord
  2
BYLAYER
 70
     0
  0
LTYPE
  5
20
100
AcDbSymbolTableRecord
100
AcDbLinetypeTableRecord
  2
_SOLID
  3

 70
0
 72
65
 73
2
 40
5
 49
5
 74
0
 49
0
 74
0
  0
LTYPE
  5
21
100
AcDbSymbolTableRecord
100
AcDbLinetypeTableRecord
  2
_DASH
  3

 70
0
 72
65
 73
2
 40
7
 49
5
 74
0
 49
-2
 74
0
  0
LTYPE
  5
22
100
AcDbSymbolTableRecord
100
AcDbLinetypeTableRecord
  2
_DOT
  3

 70
0
 72
65
 73
2
 40
4
 49
2
 74
0
 49
-2
 74
0
  0
LTYPE
  5
23
100
AcDbSymbolTableRecord
100
AcDbLinetypeTableRecord
  2
_DASHDOT
  3

 70
0
 72
65
 73
4
 40
11
 49
5
 74
0
 49
-2
 74
0
 49
2
 74
0
 49
-2
 74
0
  0
LTYPE
  5
24
100
AcDbSymbolTableRecord
100
AcDbLinetypeTableRecord
  2
_DASHDOTDOT
  3

 70
0
 72
65
 73
6
 40
15
 49
5
 74
0
 49
-2
 74
0
 49
2
 74
0
 49
-2
 74
0
 49
2
 74
0
 49
-2
 74
0
  0
LTYPE
  5
25
100
AcDbSymbolTableRecord
100
AcDbLinetypeTableRecord
  2
ISO128-20-02
  3

 70
0
 72
65
 73
2
 40
15
 49
12
 74
0
 49
-3
 74
0
  0
LTYPE
  5
26
100
AcDbSymbolTableRecord
100
AcDbLinetypeTableRecord
  2
ISO128-20-03
  3

 70
0
 72
65
 73
2
 40
30
 49
12
 74
0
 49
-18
 74
0
  0
LTYPE
  5
27
100
AcDbSymbolTableRecord
100
AcDbLinetypeTableRecord
  2
ISO128-20-04
  3

 70
0
 72
65
 73
4
 40
30
 49
24
 74
0
 49
-3
 74
0
 49
0
 74
0
 49
-3
 74
0
  0
LTYPE
  5
28
100
AcDbSymbolTableRecord
100
AcDbLinetypeTableRecord
  2
ISO128-20-05
  3

 70
0
 72
65
 73
6
 40
33
 49
24
 74
0
 49
-3
 74
0
 49
0
 74
0
 49
-3
 74
0
 49
0
 74
0
 49
-3
 74
0
  0
LTYPE
  5
29
100
AcDbSymbolTableRecord
100
AcDbLinetypeTableRecord
  2
ISO128-20-06
  3

 70
0
 72
65
 73
8
 40
36
 49
24
 74
0
 49
-3
 74
0
 49
0
 74
0
 49
-3
 74
0
 49
0
 74
0
 49
-3
 74
0
 49
0
 74
0
 49
-3
 74
0
  0
LTYPE
  5
2A
100
AcDbSymbolTableRecord
100
AcDbLinetypeTableRecord
  2
ISO128-20-07
  3

 70
0
 72
65
 73
2
 40
3
 49
0
 74
0
 49
-3
 74
0
  0
LTYPE
  5
2B
100
AcDbSymbolTableRecord
100
AcDbLinetypeTableRecord
  2
ISO128-20-08
  3

 70
0
 72
65
 73
4
 40
36
 49
24
 74
0
 49
-3
 74
0
 49
6
 74
0
 49
-3
 74
0
  0
LTYPE
  5
2C
100
AcDbSymbolTableRecord
100
AcDbLinetypeTableRecord
  2
ISO128-20-09
  3

 70
0
 72
65
 73
6
 40
45
 49
24
 74
0
 49
-3
 74
0
 49
6
 74
0
 49
-3
 74
0
 49
6
 74
0
 49
-3
 74
0
  0
LTYPE
  5
2D
100
AcDbSymbolTableRecord
100
AcDbLinetypeTableRecord
  2
ISO128-20-10
  3

 70
0
 72
65
 73
4
 40
18
 49
12
 74
0
 49
-3
 74
0
 49
0
 74
0
 49
-3
 74
0
  0
LTYPE
  5
2E
100
AcDbSymbolTableRecord
100
AcDbLinetypeTableRecord
  2
ISO128-20-11
  3

 70
0
 72
65
 73
6
 40
33
 49
12
 74
0
 49
-3
 74
0
 49
12
 74
0
 49
-3
 74
0
 49
0
 74
0
 49
-3
 74
0
  0
LTYPE
  5
2F
100
AcDbSymbolTableRecord
100
AcDbLinetypeTableRecord
  2
ISO128-20-12
  3

 70
0
 72
65
 73
6
 40
21
 49
12
 74
0
 49
-3
 74
0
 49
0
 74
0
 49
-3
 74
0
 49
0
 74
0
 49
-3
 74
0
  0
LTYPE
  5
30
100
AcDbSymbolTableRecord
100
AcDbLinetypeTableRecord
  2
ISO128-20-13
  3

 70
0
 72
65
 73
8
 40
36
 49
12
 74
0
 49
-3
 74
0
 49
12
 74
0
 49
-3
 74
0
 49
0
 74
0
 49
-3
 74
0
 49
0
 74
0
 49
-3
 74
0
  0
LTYPE
  5
31
100
AcDbSymbolTableRecord
100
AcDbLinetypeTableRecord
  2
ISO128-20-14
  3

 70
0
 72
65
 73
8
 40
24
 49
12
 74
0
 49
-3
 74
0
 49
0
 74
0
 49
-3
 74
0
 49
0
 74
0
 49
-3
 74
0
 49
0
 74
0
 49
-3
 74
0
  0
LTYPE
  5
32
100
AcDbSymbolTableRecord
100
AcDbLinetypeTableRecord
  2
ISO128-20-15
  3

 70
0
 72
65
 73
10
 40
39
 49
12
 74
0
 49
-3
 74
0
 49
12
 74
0
 49
-3
 74
0
 49
0
 74
0
 49
-3
 74
0
 49
0
 74
0
 49
-3
 74
0
 49
0
 74
0
 49
-3
 74
0
  0
ENDTAB
  0
TABLE
  2
LAYER
  5
 1A
330
  0
100
AcDbSymbolTable
  0
LAYER
  5
12F
330
 1A
100
AcDbSymbolTableRecord
100
AcDbLayerTableRecord
  2
0
 70
0
 62
7
  6
Continuous
370
-3
390
 19
  0
LAYER
  5
130
330
 1A
100
AcDbSymbolTableRecord
100
AcDbLayerTableRecord
  2
SEMA2D
 70
0
 62
7
  6
Continuous
370
-3
390
 19
  0
LAYER
  5
131
330
 1A
100
AcDbSymbolTableRecord
100
AcDbLayerTableRecord
  2
SEMATEXT
 70
0
 62
7
  6
Continuous
370
-3
390
 19
  0
ENDTAB
  0
TABLE
  2
STYLE
  5
  5
100
AcDbSymbolTable
  0
STYLE
  5
  6
100
AcDbSymbolTableRecord
100
AcDbTextStyleTableRecord
  2
STANDARD
 70
     0
 40
0.0
 41
1.0
 50
0.0
 71
     0
 42
10.0
  3
txt
  4

  0
ENDTAB
  0
TABLE
  2
VIEW
  5
  7
100
AcDbSymbolTable
  0
ENDTAB
  0
TABLE
  2
UCS
  5
  8
100
AcDbSymbolTable
  0
ENDTAB
  0
TABLE
  2
APPID
  5
  9
100
AcDbSymbolTable
  0
APPID
  5
  A
100
AcDbSymbolTableRecord
100
AcDbRegAppTableRecord
  2
ACAD
 70
0
  0
ENDTAB
  0
TABLE
  2
DIMSTYLE
  5
  B
100
AcDbSymbolTable
 70
     1
100
AcDbDimStyleTable
 71
     0
  0
DIMSTYLE
105
 1B
330
B
100
AcDbSymbolTableRecord
100
AcDbDimStyleTableRecord
  2
STANDARD
 70
    0
340
  6
  0
ENDTAB
  0
TABLE
  2
BLOCK_RECORD
  5
  C
100
AcDbSymbolTable
  0
BLOCK_RECORD
  5
  D
100
AcDbSymbolTableRecord
100
AcDbBlockTableRecord
  2
*MODEL_SPACE
  0
BLOCK_RECORD
  5
  E
100
AcDbSymbolTableRecord
100
AcDbBlockTableRecord
  2
*PAPER_SPACE
  0
ENDTAB
  0
ENDSEC
  0
SECTION
  2
BLOCKS
  0
BLOCK
  5
  F
330
  D
100
AcDbEntity
  8
0
100
AcDbBlockBegin
  2
*MODEL_SPACE
 70
     0
  0
ENDBLK
  5
 10
100
AcDbEntity
  8
0
100
AcDbBlockEnd
  0
BLOCK
  5
 11
330
  E
100
AcDbEntity
  8
0
100
AcDbBlockBegin
  2
*PAPER_SPACE
 70
     0
  0
ENDBLK
  5
 12
100
AcDbEntity
  8
0
100
AcDbBlockEnd
  0
ENDSEC
  0
SECTION
  2
ENTITIES
  0
ARC
  5
33
100
AcDbEntity
  8
SEMA2D
100
AcDbCircle
 62
7
  6
_SOLID
370
9
 10
1.20568645000458
 20
0.614504754543304
 40
0.00185400003101677
100
AcDbArc
 50
195
 51
270
  0
ARC
  5
34
100
AcDbEntity
  8
SEMA2D
100
AcDbCircle
 62
7
  6
_SOLID
370
9
 10
1.22138118743896
 20
0.614504754543304
 40
0.00185400003101677
100
AcDbArc
 50
270
 51
345
  0
ARC
  5
35
100
AcDbEntity
  8
SEMA2D
100
AcDbCircle
 62
7
  6
_SOLID
370
9
 10
1.19790732860565
 20
0.625628769397736
 40
0.00278099998831749
100
AcDbArc
 50
15.0000009536743
 51
90
  0
ARC
  5
36
100
AcDbEntity
  8
SEMA2D
100
AcDbCircle
 62
7
  6
_SOLID
370
9
 10
1.30795538425446
 20
0.625628769397736
 40
0.00278099998831749
100
AcDbArc
 50
90
 51
165
  0
ARC
  5
37
100
AcDbEntity
  8
SEMA2D
100
AcDbCircle
 62
7
  6
_SOLID
370
9
 10
1.27670228481293
 20
0.625628769397736
 40
0.00278099998831749
100
AcDbArc
 50
15.0000009536743
 51
90
  0
ARC
  5
38
100
AcDbEntity
  8
SEMA2D
100
AcDbCircle
 62
7
  6
_SOLID
370
9
 10
1.30017626285553
 20
0.614504754543304
 40
0.00185400003101677
100
AcDbArc
 50
270
 51
345
  0
ARC
  5
39
100
AcDbEntity
  8
SEMA2D
100
AcDbCircle
 62
7
  6
_SOLID
370
9
 10
1.17127192020416
 20
0.63026374578476
 40
0.00185400003101677
100
AcDbArc
 50
183
 51
270
  0
ARC
  5
3A
100
AcDbEntity
  8
SEMA2D
100
AcDbCircle
 62
7
  6
_SOLID
370
9
 10
1.28448152542114
 20
0.614504754543304
 40
0.00185400003101677
100
AcDbArc
 50
195
 51
270
  0
ARC
  5
3B
100
AcDbEntity
  8
SEMA2D
100
AcDbCircle
 62
7
  6
_SOLID
370
9
 10
1.33459079265594
 20
0.63026374578476
 40
0.00185400003101677
100
AcDbArc
 50
270
 51
-3.0000011920929
  0
ARC
  5
3C
100
AcDbEntity
  8
SEMA2D
100
AcDbCircle
 62
7
  6
_SOLID
370
9
 10
1.22916042804718
 20
0.625628769397736
 40
0.00278099998831749
100
AcDbArc
 50
90
 51
165
  0
ARC
  5
3D
100
AcDbEntity
  8
SEMA2D
100
AcDbCircle
 62
7
  6
_SOLID
370
9
 10
1.20542085170746
 20
0.636670649051666
 40
0.00927000027149916
100
AcDbArc
 50
67.4151763916016
 51
112.585556030273
  0
ARC
  5
3E
100
AcDbEntity
  8
SEMA2D
100
AcDbCircle
 62
7
  6
_SOLID
370
9
 10
1.18958389759064
 20
0.674743831157684
 40
0.0319655798375607
100
AcDbArc
 50
243.986419677734
 51
292.585296630859
  0
ARC
  5
3F
100
AcDbEntity
  8
SEMA2D
100
AcDbCircle
 62
7
  6
_SOLID
370
9
 10
1.33233118057251
 20
0.641851246356964
 40
0.00463500013574958
100
AcDbArc
 50
3.00000047683716
 51
116.013580322266
  0
ARC
  5
40
100
AcDbEntity
  8
SEMA2D
100
AcDbCircle
 62
7
  6
_SOLID
370
9
 10
1.31627881526947
 20
0.674743831157684
 40
0.0319655798375607
100
AcDbArc
 50
247.414703369141
 51
296.013580322266
  0
ARC
  5
41
100
AcDbEntity
  8
SEMA2D
100
AcDbCircle
 62
7
  6
_SOLID
370
9
 10
1.1735315322876
 20
0.641851246356964
 40
0.00463500013574958
100
AcDbArc
 50
63.9864196777344
 51
177
  0
ARC
  5
42
100
AcDbEntity
  8
SEMA2D
100
AcDbCircle
 62
7
  6
_SOLID
370
9
 10
1.30044198036194
 20
0.636670649051666
 40
0.00927000027149916
100
AcDbArc
 50
67.4144668579102
 51
112.584693908691
  0
ARC
  5
43
100
AcDbEntity
  8
SEMA2D
100
AcDbCircle
 62
7
  6
_SOLID
370
9
 10
1.23709452152252
 20
0.636670649051666
 40
0.00927000027149916
100
AcDbArc
 50
67.4138488769531
 51
112.584243774414
  0
ARC
  5
44
100
AcDbEntity
  8
SEMA2D
100
AcDbCircle
 62
7
  6
_SOLID
370
9
 10
1.22125768661499
 20
0.674743831157684
 40
0.0319655798375607
100
AcDbArc
 50
247.414749145508
 51
292.585235595703
  0
ARC
  5
45
100
AcDbEntity
  8
SEMA2D
100
AcDbCircle
 62
7
  6
_SOLID
370
9
 10
1.25293135643005
 20
0.674743831157684
 40
0.0319655798375607
100
AcDbArc
 50
247.414779663086
 51
292.585235595703
  0
ARC
  5
46
100
AcDbEntity
  8
SEMA2D
100
AcDbCircle
 62
7
  6
_SOLID
370
9
 10
1.28460502624512
 20
0.674743831157684
 40
0.0319655798375607
100
AcDbArc
 50
247.414764404297
 51
292.585266113281
  0
ARC
  5
47
100
AcDbEntity
  8
SEMA2D
100
AcDbCircle
 62
7
  6
_SOLID
370
9
 10
1.26876819133759
 20
0.636670649051666
 40
0.00927000027149916
100
AcDbArc
 50
67.4155807495117
 51
112.586303710938
  0
LINE
  5
48
100
AcDbEntity
  8
SEMA2D
100
AcDbLine
 62
7
  6
_SOLID
370
9
 10
1.22138118743896
 20
0.612650752067566
 11
1.20568645000458
 21
0.612650752067566
  0
LINE
  5
49
100
AcDbEntity
  8
SEMA2D
100
AcDbLine
 62
7
  6
_SOLID
370
9
 10
1.28448152542114
 20
0.612650752067566
 11
1.30017626285553
 21
0.612650752067566
  0
LINE
  5
4A
100
AcDbEntity
  8
SEMA2D
100
AcDbLine
 62
7
  6
_SOLID
370
9
 10
1.22647416591644
 20
0.626348555088043
 11
1.22317206859589
 21
0.614024877548218
  0
LINE
  5
4B
100
AcDbEntity
  8
SEMA2D
100
AcDbLine
 62
7
  6
_SOLID
370
9
 10
1.16926956176758
 20
0.63304477930069
 11
1.16942048072815
 21
0.630166709423065
  0
LINE
  5
4C
100
AcDbEntity
  8
SEMA2D
100
AcDbLine
 62
7
  6
_SOLID
370
9
 10
1.16787910461426
 20
0.63304477930069
 11
1.16787910461426
 21
0.635825753211975
  0
LINE
  5
4D
100
AcDbEntity
  8
SEMA2D
100
AcDbLine
 62
7
  6
_SOLID
370
9
 10
1.17171967029572
 20
0.630166709423065
 11
1.17159533500671
 21
0.63304477930069
  0
LINE
  5
4E
100
AcDbEntity
  8
SEMA2D
100
AcDbLine
 62
7
  6
_SOLID
370
9
 10
1.17044973373413
 20
0.63304477930069
 11
1.17044973373413
 21
0.635825753211975
  0
LINE
  5
4F
100
AcDbEntity
  8
SEMA2D
100
AcDbLine
 62
7
  6
_SOLID
370
9
 10
1.16890287399292
 20
0.6420938372612
 11
1.16857433319092
 21
0.635825753211975
  0
LINE
  5
50
100
AcDbEntity
  8
SEMA2D
100
AcDbLine
 62
7
  6
_SOLID
370
9
 10
1.20056974887848
 20
0.626437366008759
 11
1.20389568805695
 21
0.614024877548218
  0
LINE
  5
51
100
AcDbEntity
  8
SEMA2D
100
AcDbLine
 62
7
  6
_SOLID
370
9
 10
1.33459079265594
 20
0.628409743309021
 11
1.17127192020416
 21
0.628409743309021
  0
LINE
  5
52
100
AcDbEntity
  8
SEMA2D
100
AcDbLine
 62
7
  6
_SOLID
370
9
 10
1.28269064426422
 20
0.614024877548218
 11
1.27938854694366
 21
0.626348555088043
  0
LINE
  5
53
100
AcDbEntity
  8
SEMA2D
100
AcDbLine
 62
7
  6
_SOLID
370
9
 10
1.30196702480316
 20
0.614024877548218
 11
1.30529296398163
 21
0.626437366008759
  0
LINE
  5
54
100
AcDbEntity
  8
SEMA2D
100
AcDbLine
 62
7
  6
_SOLID
370
9
 10
1.33728837966919
 20
0.635825753211975
 11
1.33695983886719
 21
0.6420938372612
  0
LINE
  5
55
100
AcDbEntity
  8
SEMA2D
100
AcDbLine
 62
7
  6
_SOLID
370
9
 10
1.33798360824585
 20
0.635825753211975
 11
1.16787910461426
 21
0.635825753211975
  0
LINE
  5
56
100
AcDbEntity
  8
SEMA2D
100
AcDbLine
 62
7
  6
_SOLID
370
9
 10
1.33644223213196
 20
0.630166709423065
 11
1.16942048072815
 21
0.630166709423065
  0
LINE
  5
57
100
AcDbEntity
  8
SEMA2D
100
AcDbLine
 62
7
  6
_SOLID
370
9
 10
1.33798360824585
 20
0.63304477930069
 11
1.16787910461426
 21
0.63304477930069
  0
LINE
  5
58
100
AcDbEntity
  8
SEMA2D
100
AcDbLine
 62
7
  6
_SOLID
370
9
 10
1.19791090488434
 20
0.628409743309021
 11
1.19809281826019
 21
0.628403425216675
  0
LINE
  5
59
100
AcDbEntity
  8
SEMA2D
100
AcDbLine
 62
7
  6
_SOLID
370
9
 10
1.1735315322876
 20
0.646486222743988
 11
1.33233118057251
 21
0.646486222743988
  0
LINE
  5
5A
100
AcDbEntity
  8
SEMA2D
100
AcDbLine
 62
7
  6
_SOLID
370
9
 10
1.33798360824585
 20
0.63304477930069
 11
1.33798360824585
 21
0.635825753211975
  0
LINE
  5
5B
100
AcDbEntity
  8
SEMA2D
100
AcDbLine
 62
7
  6
_SOLID
370
9
 10
1.33541309833527
 20
0.63304477930069
 11
1.33541309833527
 21
0.635825753211975
  0
LINE
  5
5C
100
AcDbEntity
  8
SEMA2D
100
AcDbLine
 62
7
  6
_SOLID
370
9
 10
1.33414304256439
 20
0.630166709423065
 11
1.33426737785339
 21
0.63304477930069
  0
LINE
  5
5D
100
AcDbEntity
  8
SEMA2D
100
AcDbLine
 62
7
  6
_SOLID
370
9
 10
1.33659315109253
 20
0.63304477930069
 11
1.33644223213196
 21
0.630166709423065
  0
LINE
  5
5E
100
AcDbEntity
  8
SEMA2D
100
AcDbLine
 62
7
  6
_SOLID
370
9
 10
0.996401369571686
 20
0.461225748062134
 11
1.00290942192078
 21
0.460876226425171
  0
LINE
  5
5F
100
AcDbEntity
  8
SEMA2D
100
AcDbLine
 62
7
  6
_SOLID
370
9
 10
0.996401369571686
 20
0.459328353404999
 11
0.999279379844665
 21
0.459173768758774
  0
LINE
  5
60
100
AcDbEntity
  8
SEMA2D
100
AcDbLine
 62
7
  6
_SOLID
370
9
 10
0.996401369571686
 20
0.462650746107101
 11
0.993620336055756
 21
0.462650746107101
  0
LINE
  5
61
100
AcDbEntity
  8
SEMA2D
100
AcDbLine
 62
7
  6
_SOLID
370
9
 10
0.996401369571686
 20
0.082650750875473
 11
1.00103640556335
 21
0.0828996896743774
  0
LINE
  5
62
100
AcDbEntity
  8
SEMA2D
100
AcDbLine
 62
7
  6
_SOLID
370
9
 10
0.993620336055756
 20
0.134159088134766
 11
0.987352252006531
 21
0.134159088134766
  0
LINE
  5
63
100
AcDbEntity
  8
SEMA2D
100
AcDbLine
 62
7
  6
_SOLID
370
9
 10
0.993620336055756
 20
0.0812257528305054
 11
0.996401369571686
 21
0.0812257528305054
  0
LINE
  5
64
100
AcDbEntity
  8
SEMA2D
100
AcDbLine
 62
7
  6
_SOLID
370
9
 10
0.990183532238007
 20
0.082122839987278
 11
0.993620336055756
 21
0.0819382518529892
  0
LINE
  5
65
100
AcDbEntity
  8
SEMA2D
100
AcDbLine
 62
7
  6
_SOLID
370
9
 10
1.00103640556335
 20
0.459173768758774
 11
1.00103640556335
 21
0.0828996896743774
  0
LINE
  5
66
100
AcDbEntity
  8
SEMA2D
100
AcDbLine
 62
7
  6
_SOLID
370
9
 10
1.0152633190155
 20
0.436009079217911
 11
1.00103640556335
 21
0.433438241481781
  0
LINE
  5
67
100
AcDbEntity
  8
SEMA2D
100
AcDbLine
 62
7
  6
_SOLID
370
9
 10
1.01679539680481
 20
0.437880218029022
 11
1.01679539680481
 21
0.451442062854767
  0
LINE
  5
68
100
AcDbEntity
  8
SEMA2D
100
AcDbLine
 62
7
  6
_SOLID
370
9
 10
0.987352252006531
 20
0.459704220294952
 11
0.987352252006531
 21
0.134159088134766
  0
LINE
  5
69
100
AcDbEntity
  8
SEMA2D
100
AcDbLine
 62
7
  6
_SOLID
370
9
 10
0.996401369571686
 20
0.462650746107101
 11
0.996401369571686
 21
0.081225797533989
  0
LINE
  5
6A
100
AcDbEntity
  8
SEMA2D
100
AcDbLine
 62
7
  6
_SOLID
370
9
 10
0.993620336055756
 20
0.462650746107101
 11
0.993620336055756
 21
0.081225797533989
  0
LINE
  5
6B
100
AcDbEntity
  8
SEMA2D
100
AcDbLine
 62
7
  6
_SOLID
370
9
 10
1.00103640556335
 20
0.459173768758774
 11
0.999279379844665
 21
0.459173768758774
  0
LINE
  5
6C
100
AcDbEntity
  8
SEMA2D
100
AcDbLine
 62
7
  6
_SOLID
370
9
 10
0.993620336055756
 20
0.461938261985779
 11
0.984716832637787
 21
0.461460053920746
  0
LINE
  5
6D
100
AcDbEntity
  8
SEMA2D
100
AcDbLine
 62
7
  6
_SOLID
370
9
 10
1.01587927341461
 20
0.453081011772156
 11
1.00290942192078
 21
0.460876226425171
  0
LINE
  5
6E
100
AcDbEntity
  8
SEMA2D
100
AcDbLine
 62
7
  6
_SOLID
370
9
 10
0.982959866523743
 20
0.459562659263611
 11
0.982959866523743
 21
0.129995435476303
  0
LINE
  5
6F
100
AcDbEntity
  8
SEMA2D
100
AcDbLine
 62
7
  6
_SOLID
370
9
 10
0.983505487442017
 20
0.127057000994682
 11
0.983505487442017
 21
0.0874446257948875
  0
LINE
  5
70
100
AcDbEntity
  8
SEMA2D
100
AcDbLine
 62
7
  6
_SOLID
370
9
 10
0.984216392040253
 20
0.100349150598049
 11
0.984216392040253
 21
0.124644890427589
  0
LINE
  5
71
100
AcDbEntity
  8
SEMA2D
100
AcDbLine
 62
7
  6
_SOLID
370
9
 10
0.984216392040253
 20
0.0878156423568726
 11
0.984216392040253
 21
0.096285805106163
  0
ARC
  5
72
100
AcDbEntity
  8
SEMA2D
100
AcDbCircle
 62
7
  6
_SOLID
370
9
 10
0.9848752617836
 20
0.459551185369492
 40
0.00191543495748192
100
AcDbArc
 50
94.7445220947266
 51
179.65673828125
  0
ARC
  5
73
100
AcDbEntity
  8
SEMA2D
100
AcDbCircle
 62
7
  6
_SOLID
370
9
 10
1.01471960544586
 20
0.438017070293426
 40
0.00208030315116048
100
AcDbArc
 50
285.151702880859
 51
-3.77187871932983
  0
ARC
  5
74
100
AcDbEntity
  8
SEMA2D
100
AcDbCircle
 62
7
  6
_SOLID
370
9
 10
1.01518189907074
 20
0.451615691184998
 40
0.00162281154189259
100
AcDbArc
 50
353.858032226562
 51
64.5477676391602
  0
ARC
  5
75
100
AcDbEntity
  8
SEMA2D
100
AcDbCircle
 62
7
  6
_SOLID
370
9
 10
0.97603839635849
 20
0.0886244252324104
 40
0.0110475700348616
100
AcDbArc
 50
16.409107208252
 51
35.7974700927734
  0
ARC
  5
76
100
AcDbEntity
  8
SEMA2D
100
AcDbCircle
 62
7
  6
_SOLID
370
9
 10
0.989913046360016
 20
0.0991996824741364
 40
0.00640839710831642
100
AcDbArc
 50
181.066833496094
 51
219.930633544922
  0
ARC
  5
77
100
AcDbEntity
  8
SEMA2D
100
AcDbCircle
 62
7
  6
_SOLID
370
9
 10
0.938928008079529
 20
0.109123609960079
 40
0.0477608069777489
100
AcDbArc
 50
1.69659268856049
 51
14.9809732437134
  0
ARC
  5
78
100
AcDbEntity
  8
SEMA2D
100
AcDbCircle
 62
7
  6
_SOLID
370
9
 10
0.991322755813599
 20
0.130027890205383
 40
0.00836279056966305
100
AcDbArc
 50
180.230316162109
 51
200.808853149414
  0
ARC
  5
79
100
AcDbEntity
  8
SEMA2D
100
AcDbCircle
 62
7
  6
_SOLID
370
9
 10
0.873945355415344
 20
0.0934553071856499
 40
0.11459705978632
100
AcDbArc
 50
14.1499166488647
 51
17.0505886077881
  0
ARC
  5
7A
100
AcDbEntity
  8
SEMA2D
100
AcDbCircle
 62
7
  6
_SOLID
370
9
 10
0.987694919109345
 20
0.0874876752495766
 40
0.00418959558010101
100
AcDbArc
 50
180.564926147461
 51
249.915634155273
  0
ARC
  5
7B
100
AcDbEntity
  8
SEMA2D
100
AcDbCircle
 62
7
  6
_SOLID
370
9
 10
0.990391194820404
 20
0.0858481228351593
 40
0.00373107497580349
100
AcDbArc
 50
244.056594848633
 51
266.808776855469
  0
LINE
  5
7C
100
AcDbEntity
  8
SEMA2D
100
AcDbLine
 62
7
  6
_SOLID
370
9
 10
0.986256182193756
 20
0.083552859723568
 11
0.98875892162323
 21
0.0824930444359779
  0
LINE
  5
7D
100
AcDbEntity
  8
SEMA2D
100
AcDbLine
 62
7
  6
_SOLID
370
9
 10
1.16890287399292
 20
0.459704220294952
 11
1.16890287399292
 21
0.134159088134766
  0
LINE
  5
7E
100
AcDbEntity
  8
SEMA2D
100
AcDbLine
 62
7
  6
_SOLID
370
9
 10
1.16857433319092
 20
0.134159088134766
 11
1.16857433319092
 21
0.461938261985779
  0
LINE
  5
7F
100
AcDbEntity
  8
SEMA2D
100
AcDbLine
 62
7
  6
_SOLID
370
9
 10
1.16787910461426
 20
0.134159088134766
 11
1.16787910461426
 21
0.462650746107101
  0
LINE
  5
80
100
AcDbEntity
  8
SEMA2D
100
AcDbLine
 62
7
  6
_SOLID
370
9
 10
1.17556440830231
 20
0.389510869979858
 11
1.17556440830231
 21
0.129167526960373
  0
LINE
  5
81
100
AcDbEntity
  8
SEMA2D
100
AcDbLine
 62
7
  6
_SOLID
370
9
 10
1.2335342168808
 20
0.0878156423568726
 11
1.23353445529938
 21
0.379562348127365
  0
LINE
  5
82
100
AcDbEntity
  8
SEMA2D
100
AcDbLine
 62
7
  6
_SOLID
370
9
 10
1.24065470695496
 20
0.0870782807469368
 11
1.24065482616425
 21
0.386524587869644
  0
LINE
  5
83
100
AcDbEntity
  8
SEMA2D
100
AcDbLine
 62
7
  6
_SOLID
370
9
 10
1.20186054706573
 20
0.100349150598049
 11
1.20186054706573
 21
0.365471869707108
  0
LINE
  5
84
100
AcDbEntity
  8
SEMA2D
100
AcDbLine
 62
7
  6
_SOLID
370
9
 10
1.2089809179306
 20
0.363157451152802
 11
1.20898103713989
 21
0.0978330820798874
  0
LINE
  5
85
100
AcDbEntity
  8
SEMA2D
100
AcDbLine
 62
7
  6
_SOLID
370
9
 10
1.2968817949295
 20
0.36262521147728
 11
1.29688167572021
 21
0.0978330820798874
  0
LINE
  5
86
100
AcDbEntity
  8
SEMA2D
100
AcDbLine
 62
7
  6
_SOLID
370
9
 10
1.30400216579437
 20
0.100349150598049
 11
1.30400216579437
 21
0.365471869707108
  0
LINE
  5
87
100
AcDbEntity
  8
SEMA2D
100
AcDbLine
 62
7
  6
_SOLID
370
9
 10
1.27232849597931
 20
0.0878156423568726
 11
1.27232825756073
 21
0.379561811685562
  0
LINE
  5
88
100
AcDbEntity
  8
SEMA2D
100
AcDbLine
 62
7
  6
_SOLID
370
9
 10
1.26520800590515
 20
0.0870782807469368
 11
1.26520788669586
 21
0.386523902416229
  0
LINE
  5
89
100
AcDbEntity
  8
SEMA2D
100
AcDbLine
 62
7
  6
_SOLID
370
9
 10
1.33029842376709
 20
0.129167526960373
 11
1.33029842376709
 21
0.389510869979858
  0
LINE
  5
8A
100
AcDbEntity
  8
SEMA2D
100
AcDbLine
 62
7
  6
_SOLID
370
9
 10
1.33728837966919
 20
0.461938261985779
 11
1.33728837966919
 21
0.134159088134766
  0
LINE
  5
8B
100
AcDbEntity
  8
SEMA2D
100
AcDbLine
 62
7
  6
_SOLID
370
9
 10
1.33798360824585
 20
0.462650746107101
 11
1.33798360824585
 21
0.134159088134766
  0
ARC
  5
8C
100
AcDbEntity
  8
SEMA2D
100
AcDbCircle
 62
7
  6
_SOLID
370
9
 10
1.18317854404449
 20
0.134177938103676
 40
0.0146042350679636
100
AcDbArc
 50
180.073928833008
 51
213.657485961914
  0
ARC
  5
8D
100
AcDbEntity
  8
SEMA2D
100
AcDbCircle
 62
7
  6
_SOLID
370
9
 10
1.1854190826416
 20
0.134847596287727
 40
0.0175535101443529
100
AcDbArc
 50
182.247894287109
 51
211.483856201172
  0
ARC
  5
8E
100
AcDbEntity
  8
SEMA2D
100
AcDbCircle
 62
7
  6
_SOLID
370
9
 10
1.25322067737579
 20
0.180535674095154
 40
0.0985978469252586
100
AcDbArc
 50
213.522308349609
 51
270
  0
ARC
  5
8F
100
AcDbEntity
  8
SEMA2D
100
AcDbCircle
 62
7
  6
_SOLID
370
9
 10
1.25335800647736
 20
0.180771693587303
 40
0.0995432734489441
100
AcDbArc
 50
213.603561401367
 51
269.883026123047
  0
ARC
  5
90
100
AcDbEntity
  8
SEMA2D
100
AcDbCircle
 62
7
  6
_SOLID
370
9
 10
1.3226842880249
 20
0.134176626801491
 40
0.0146042350679636
100
AcDbArc
 50
326.342498779297
 51
-0.0739309415221214
  0
ARC
  5
91
100
AcDbEntity
  8
SEMA2D
100
AcDbCircle
 62
7
  6
_SOLID
370
9
 10
1.3204437494278
 20
0.134846284985542
 40
0.0175535101443529
100
AcDbArc
 50
328.516143798828
 51
357.752105712891
  0
ARC
  5
92
100
AcDbEntity
  8
SEMA2D
100
AcDbCircle
 62
7
  6
_SOLID
370
9
 10
1.2526421546936
 20
0.180534362792969
 40
0.0985978469252586
100
AcDbArc
 50
270.297882080078
 51
326.477691650391
  0
ARC
  5
93
100
AcDbEntity
  8
SEMA2D
100
AcDbCircle
 62
7
  6
_SOLID
370
9
 10
1.25250482559204
 20
0.180770382285118
 40
0.0995432734489441
100
AcDbArc
 50
270.374084472656
 51
326.396423339844
  0
LINE
  5
94
100
AcDbEntity
  8
SEMA2D
100
AcDbLine
 62
7
  6
_SOLID
370
9
 10
1.16857433319092
 20
0.461938261985779
 11
1.33728837966919
 21
0.461938261985779
  0
LINE
  5
95
100
AcDbEntity
  8
SEMA2D
100
AcDbLine
 62
7
  6
_SOLID
370
9
 10
1.18123555183411
 20
0.403242647647858
 11
1.18123555183411
 21
0.445475846529007
  0
LINE
  5
96
100
AcDbEntity
  8
SEMA2D
100
AcDbLine
 62
7
  6
_SOLID
370
9
 10
1.22173345088959
 20
0.449675381183624
 11
1.22173345088959
 21
0.441615432500839
  0
LINE
  5
97
100
AcDbEntity
  8
SEMA2D
100
AcDbLine
 62
7
  6
_SOLID
370
9
 10
1.22328579425812
 20
0.371605008840561
 11
1.22070491313934
 21
0.368960082530975
  0
LINE
  5
98
100
AcDbEntity
  8
SEMA2D
100
AcDbLine
 62
7
  6
_SOLID
370
9
 10
1.22877955436707
 20
0.410809993743897
 11
1.23006296157837
 21
0.423729866743088
  0
LINE
  5
99
100
AcDbEntity
  8
SEMA2D
100
AcDbLine
 62
7
  6
_SOLID
370
9
 10
1.21130502223969
 20
0.36440709233284
 11
1.18676936626434
 21
0.38955157995224
  0
LINE
  5
9A
100
AcDbEntity
  8
SEMA2D
100
AcDbLine
 62
7
  6
_SOLID
370
9
 10
1.2287632226944
 20
0.409985184669495
 11
1.2287632226944
 21
0.40474659204483
  0
LINE
  5
9B
100
AcDbEntity
  8
SEMA2D
100
AcDbLine
 62
7
  6
_SOLID
370
9
 10
1.22505068778992
 20
0.442980110645294
 11
1.2249151468277
 21
0.441615432500839
  0
LINE
  5
9C
100
AcDbEntity
  8
SEMA2D
100
AcDbLine
 62
7
  6
_SOLID
370
9
 10
1.19422376155853
 20
0.423729866743088
 11
1.19550728797913
 21
0.410809993743897
  0
LINE
  5
9D
100
AcDbEntity
  8
SEMA2D
100
AcDbLine
 62
7
  6
_SOLID
370
9
 10
1.19452321529388
 20
0.441615432500839
 11
1.19550728797913
 21
0.431710004806519
  0
LINE
  5
9E
100
AcDbEntity
  8
SEMA2D
100
AcDbLine
 62
7
  6
_SOLID
370
9
 10
1.1955235004425
 20
0.409985184669495
 11
1.1955235004425
 21
0.40474659204483
  0
LINE
  5
9F
100
AcDbEntity
  8
SEMA2D
100
AcDbLine
 62
7
  6
_SOLID
370
9
 10
1.1955235004425
 20
0.425382673740387
 11
1.1955235004425
 21
0.430885165929794
  0
LINE
  5
A0
100
AcDbEntity
  8
SEMA2D
100
AcDbLine
 62
7
  6
_SOLID
370
9
 10
1.20533430576324
 20
0.449675381183624
 11
1.20533430576324
 21
0.441615432500839
  0
LINE
  5
A1
100
AcDbEntity
  8
SEMA2D
100
AcDbLine
 62
7
  6
_SOLID
370
9
 10
1.31035554409027
 20
0.431710004806519
 11
1.19550728797913
 21
0.431710004806519
  0
LINE
  5
A2
100
AcDbEntity
  8
SEMA2D
100
AcDbLine
 62
7
  6
_SOLID
370
9
 10
1.1955235004425
 20
0.430885165929794
 11
1.3103392124176
 21
0.430885165929794
  0
LINE
  5
A3
100
AcDbEntity
  8
SEMA2D
100
AcDbLine
 62
7
  6
_SOLID
370
9
 10
1.3103392124176
 20
0.425382673740387
 11
1.1955235004425
 21
0.425382673740387
  0
LINE
  5
A4
100
AcDbEntity
  8
SEMA2D
100
AcDbLine
 62
7
  6
_SOLID
370
9
 10
1.19550728797913
 20
0.410809993743897
 11
1.22877955436707
 21
0.410809993743897
  0
LINE
  5
A5
100
AcDbEntity
  8
SEMA2D
100
AcDbLine
 62
7
  6
_SOLID
370
9
 10
1.31035554409027
 20
0.410809993743897
 11
1.27708327770233
 21
0.410809993743897
  0
LINE
  5
A6
100
AcDbEntity
  8
SEMA2D
100
AcDbLine
 62
7
  6
_SOLID
370
9
 10
1.27709949016571
 20
0.409985184669495
 11
1.3103392124176
 21
0.409985184669495
  0
LINE
  5
A7
100
AcDbEntity
  8
SEMA2D
100
AcDbLine
 62
7
  6
_SOLID
370
9
 10
1.1955235004425
 20
0.409985184669495
 11
1.2287632226944
 21
0.409985184669495
  0
LINE
  5
A8
100
AcDbEntity
  8
SEMA2D
100
AcDbLine
 62
7
  6
_SOLID
370
9
 10
1.31163895130157
 20
0.42372989654541
 11
1.27579975128174
 21
0.42372989654541
  0
LINE
  5
A9
100
AcDbEntity
  8
SEMA2D
100
AcDbLine
 62
7
  6
_SOLID
370
9
 10
1.23000466823578
 20
0.423729866743088
 11
1.19428205490112
 21
0.423729866743088
  0
LINE
  5
AA
100
AcDbEntity
  8
SEMA2D
100
AcDbLine
 62
7
  6
_SOLID
370
9
 10
1.324627161026
 20
0.444175362586975
 11
1.324627161026
 21
0.403242647647858
  0
LINE
  5
AB
100
AcDbEntity
  8
SEMA2D
100
AcDbLine
 62
7
  6
_SOLID
370
9
 10
1.33722960948944
 20
0.46246263384819
 11
1.16857433319092
 21
0.46246263384819
  0
LINE
  5
AC
100
AcDbEntity
  8
SEMA2D
100
AcDbLine
 62
7
  6
_SOLID
370
9
 10
1.16787910461426
 20
0.462650746107101
 11
1.33798360824585
 21
0.462650746107101
  0
LINE
  5
AD
100
AcDbEntity
  8
SEMA2D
100
AcDbLine
 62
7
  6
_SOLID
370
9
 10
1.33728837966919
 20
0.459375828504562
 11
1.16857433319092
 21
0.459375828504562
  0
LINE
  5
AE
100
AcDbEntity
  8
SEMA2D
100
AcDbLine
 62
7
  6
_SOLID
370
9
 10
1.22173345088959
 20
0.449675381183624
 11
1.28412926197052
 21
0.449675381183624
  0
LINE
  5
AF
100
AcDbEntity
  8
SEMA2D
100
AcDbLine
 62
7
  6
_SOLID
370
9
 10
1.18593561649323
 20
0.449675381183624
 11
1.20533430576324
 21
0.449675381183624
  0
LINE
  5
B0
100
AcDbEntity
  8
SEMA2D
100
AcDbLine
 62
7
  6
_SOLID
370
9
 10
1.30052840709686
 20
0.449675381183624
 11
1.31992709636688
 21
0.449675381183624
  0
LINE
  5
B1
100
AcDbEntity
  8
SEMA2D
100
AcDbLine
 62
7
  6
_SOLID
370
9
 10
1.28094756603241
 20
0.441615432500839
 11
1.31133949756622
 21
0.441615432500839
  0
LINE
  5
B2
100
AcDbEntity
  8
SEMA2D
100
AcDbLine
 62
7
  6
_SOLID
370
9
 10
1.28081202507019
 20
0.442980110645294
 11
1.22505068778992
 21
0.442980110645294
  0
LINE
  5
B3
100
AcDbEntity
  8
SEMA2D
100
AcDbLine
 62
7
  6
_SOLID
370
9
 10
1.2249151468277
 20
0.441615432500839
 11
1.19452321529388
 21
0.441615432500839
  0
LINE
  5
B4
100
AcDbEntity
  8
SEMA2D
100
AcDbLine
 62
7
  6
_SOLID
370
9
 10
1.27709949016571
 20
0.409985184669495
 11
1.27709949016571
 21
0.40474659204483
  0
LINE
  5
B5
100
AcDbEntity
  8
SEMA2D
100
AcDbLine
 62
7
  6
_SOLID
370
9
 10
1.28412926197052
 20
0.449675381183624
 11
1.28412926197052
 21
0.441615432500839
  0
LINE
  5
B6
100
AcDbEntity
  8
SEMA2D
100
AcDbLine
 62
7
  6
_SOLID
370
9
 10
1.28094756603241
 20
0.441615432500839
 11
1.28081202507019
 21
0.442980110645294
  0
LINE
  5
B7
100
AcDbEntity
  8
SEMA2D
100
AcDbLine
 62
7
  6
_SOLID
370
9
 10
1.31909346580505
 20
0.38955157995224
 11
1.29473352432251
 21
0.364587366580963
  0
LINE
  5
B8
100
AcDbEntity
  8
SEMA2D
100
AcDbLine
 62
7
  6
_SOLID
370
9
 10
1.27579975128174
 20
0.42372989654541
 11
1.27708327770233
 21
0.410809993743897
  0
LINE
  5
B9
100
AcDbEntity
  8
SEMA2D
100
AcDbLine
 62
7
  6
_SOLID
370
9
 10
1.26460671424866
 20
0.407310456037521
 11
1.26460671424866
 21
0.411350756883621
  0
LINE
  5
BA
100
AcDbEntity
  8
SEMA2D
100
AcDbLine
 62
7
  6
_SOLID
370
9
 10
1.24125599861145
 20
0.411350756883621
 11
1.24125599861145
 21
0.407310456037521
  0
LINE
  5
BB
100
AcDbEntity
  8
SEMA2D
100
AcDbLine
 62
7
  6
_SOLID
370
9
 10
1.22070491313934
 20
0.368960082530975
 11
1.21121323108673
 21
0.378687262535095
  0
LINE
  5
BC
100
AcDbEntity
  8
SEMA2D
100
AcDbLine
 62
7
  6
_SOLID
370
9
 10
1.29464948177338
 20
0.378686875104904
 11
1.28515779972076
 21
0.368960082530975
  0
LINE
  5
BD
100
AcDbEntity
  8
SEMA2D
100
AcDbLine
 62
7
  6
_SOLID
370
9
 10
1.29455769062042
 20
0.36440709233284
 11
1.29388332366943
 21
0.362952619791031
  0
LINE
  5
BE
100
AcDbEntity
  8
SEMA2D
100
AcDbLine
 62
7
  6
_SOLID
370
9
 10
1.2287632226944
 20
0.40474659204483
 11
1.1955235004425
 21
0.40474659204483
  0
LINE
  5
BF
100
AcDbEntity
  8
SEMA2D
100
AcDbLine
 62
7
  6
_SOLID
370
9
 10
1.3103392124176
 20
0.40474659204483
 11
1.27709949016571
 21
0.40474659204483
  0
LINE
  5
C0
100
AcDbEntity
  8
SEMA2D
100
AcDbLine
 62
7
  6
_SOLID
370
9
 10
1.28257691860199
 20
0.371605008840561
 11
1.28515779972076
 21
0.368960082530975
  0
LINE
  5
C1
100
AcDbEntity
  8
SEMA2D
100
AcDbLine
 62
7
  6
_SOLID
370
9
 10
1.30052840709686
 20
0.449675381183624
 11
1.30052840709686
 21
0.441615432500839
  0
LINE
  5
C2
100
AcDbEntity
  8
SEMA2D
100
AcDbLine
 62
7
  6
_SOLID
370
9
 10
1.31035554409027
 20
0.410809993743897
 11
1.31163895130157
 21
0.42372989654541
  0
LINE
  5
C3
100
AcDbEntity
  8
SEMA2D
100
AcDbLine
 62
7
  6
_SOLID
370
9
 10
1.31035554409027
 20
0.431710004806519
 11
1.31133949756622
 21
0.441615432500839
  0
LINE
  5
C4
100
AcDbEntity
  8
SEMA2D
100
AcDbLine
 62
7
  6
_SOLID
370
9
 10
1.3103392124176
 20
0.409985184669495
 11
1.3103392124176
 21
0.40474659204483
  0
LINE
  5
C5
100
AcDbEntity
  8
SEMA2D
100
AcDbLine
 62
7
  6
_SOLID
370
9
 10
1.3103392124176
 20
0.430885165929794
 11
1.3103392124176
 21
0.425382673740387
  0
ARC
  5
C6
100
AcDbEntity
  8
SEMA2D
100
AcDbCircle
 62
7
  6
_SOLID
370
9
 10
1.25293135643005
 20
0.41163557767868
 40
0.0116788744926453
100
AcDbArc
 50
358.602478027344
 51
181.397537231445
  0
ARC
  5
C7
100
AcDbEntity
  8
SEMA2D
100
AcDbCircle
 62
7
  6
_SOLID
370
9
 10
1.16727340221405
 20
0.454884737730026
 40
0.087958924472332
100
AcDbArc
 50
299.970245361328
 51
327.256866455078
  0
ARC
  5
C8
100
AcDbEntity
  8
SEMA2D
100
AcDbCircle
 62
7
  6
_SOLID
370
9
 10
1.33856642246246
 20
0.454859018325806
 40
0.0879254639148712
100
AcDbArc
 50
212.736907958984
 51
240.034484863281
  0
ARC
  5
C9
100
AcDbEntity
  8
SEMA2D
100
AcDbCircle
 62
7
  6
_SOLID
370
9
 10
1.33905255794525
 20
0.454925924539566
 40
0.10065720975399
100
AcDbArc
 50
211.175155639648
 51
235.870223999023
  0
ARC
  5
CA
100
AcDbEntity
  8
SEMA2D
100
AcDbCircle
 62
7
  6
_SOLID
370
9
 10
1.16679537296295
 20
0.454939991235733
 40
0.10067717730999
100
AcDbArc
 50
304.132263183594
 51
328.822357177734
  0
ARC
  5
CB
100
AcDbEntity
  8
SEMA2D
100
AcDbCircle
 62
7
  6
_SOLID
370
9
 10
1.19779801368713
 20
0.401973068714142
 40
0.0166109967976809
100
AcDbArc
 50
175.616638183594
 51
228.399032592773
  0
ARC
  5
CC
100
AcDbEntity
  8
SEMA2D
100
AcDbCircle
 62
7
  6
_SOLID
370
9
 10
1.30806469917297
 20
0.401973068714142
 40
0.0166109967976809
100
AcDbArc
 50
311.600952148438
 51
4.38336896896362
  0
ARC
  5
CD
100
AcDbEntity
  8
SEMA2D
100
AcDbCircle
 62
7
  6
_SOLID
370
9
 10
1.29620361328125
 20
0.37030890583992
 40
0.00771356513723731
100
AcDbArc
 50
252.493667602539
 51
304.219604492188
  0
LINE
  5
CE
100
AcDbEntity
  8
SEMA2D
100
AcDbLine
 62
7
  6
_SOLID
370
9
 10
1.21130502223969
 20
0.36440709233284
 11
1.21197938919067
 21
0.362952619791031
  0
ARC
  5
CF
100
AcDbEntity
  8
SEMA2D
100
AcDbCircle
 62
7
  6
_SOLID
370
9
 10
1.20965909957886
 20
0.37030890583992
 40
0.00771356513723731
100
AcDbArc
 50
235.780410766602
 51
287.506317138672
  0
ARC
  5
D0
100
AcDbEntity
  8
SEMA2D
100
AcDbCircle
 62
7
  6
_SOLID
370
9
 10
1.22883152961731
 20
0.421377450227737
 40
0.0620714537799358
100
AcDbArc
 50
193.91357421875
 51
247.743072509766
  0
ARC
  5
D1
100
AcDbEntity
  8
SEMA2D
100
AcDbCircle
 62
7
  6
_SOLID
370
9
 10
1.27703130245209
 20
0.421377450227737
 40
0.0620714537799358
100
AcDbArc
 50
292.256927490234
 51
346.08642578125
  0
ARC
  5
D2
100
AcDbEntity
  8
SEMA2D
100
AcDbCircle
 62
7
  6
_SOLID
370
9
 10
1.31888067722321
 20
0.444022983312607
 40
0.00574844796210527
100
AcDbArc
 50
1.51919221878052
 51
79.5115966796875
  0
ARC
  5
D3
100
AcDbEntity
  8
SEMA2D
100
AcDbCircle
 62
7
  6
_SOLID
370
9
 10
1.1869820356369
 20
0.444022983312607
 40
0.00574844796210527
100
AcDbArc
 50
100.488403320312
 51
178.480804443359
  0
LINE
  5
D4
100
AcDbEntity
  8
SEMA2D
100
AcDbLine
 62
7
  6
_SOLID
370
9
 10
1.16787910461426
 20
0.696016669273377
 11
1.33798360824585
 21
0.696016669273377
  0
LINE
  5
D5
100
AcDbEntity
  8
SEMA2D
100
AcDbLine
 62
7
  6
_SOLID
370
9
 10
1.16787910461426
 20
0.696016669273377
 11
1.16787910461426
 21
0.703016698360443
  0
LINE
  5
D6
100
AcDbEntity
  8
SEMA2D
100
AcDbLine
 62
7
  6
_SOLID
370
9
 10
1.16787910461426
 20
0.696016669273377
 11
1.16787910461426
 21
0.689016699790955
  0
LINE
  5
D7
100
AcDbEntity
  8
SEMA2D
100
AcDbLine
 62
7
  6
_SOLID
370
9
 10
1.16787910461426
 20
0.696016669273377
 11
1.17394125461578
 21
0.699516654014587
  0
LINE
  5
D8
100
AcDbEntity
  8
SEMA2D
100
AcDbLine
 62
7
  6
_SOLID
370
9
 10
1.16787910461426
 20
0.696016669273377
 11
1.16181695461273
 21
0.692516684532166
  0
LINE
  5
D9
100
AcDbEntity
  8
SEMA2D
100
AcDbLine
 62
7
  6
_DOT
370
9
 10
1.16787910461426
 20
0.646016657352447
 11
1.16787910461426
 21
0.696016669273377
  0
LINE
  5
DA
100
AcDbEntity
  8
SEMA2D
100
AcDbLine
 62
7
  6
_DOT
370
9
 10
1.16787910461426
 20
0.646016657352447
 11
1.16787910461426
 21
0.646016657352447
  0
MTEXT
  5
DB
100
AcDbEntity
  8
SEMATEXT
100
AcDbMText
 62
7
 10
1.24593496322632
 20
0.700814187526703
 40
0.00800000037997961
 71
7
  1
{\fArial Narrow;170}
  7
STANDARD
 73
2
  0
LINE
  5
DC
100
AcDbEntity
  8
SEMA2D
100
AcDbLine
 62
7
  6
_SOLID
370
9
 10
1.33798360824585
 20
0.696016669273377
 11
1.33798360824585
 21
0.703016698360443
  0
LINE
  5
DD
100
AcDbEntity
  8
SEMA2D
100
AcDbLine
 62
7
  6
_SOLID
370
9
 10
1.33798360824585
 20
0.696016669273377
 11
1.33798360824585
 21
0.689016699790955
  0
LINE
  5
DE
100
AcDbEntity
  8
SEMA2D
100
AcDbLine
 62
7
  6
_SOLID
370
9
 10
1.33798360824585
 20
0.696016669273377
 11
1.34404575824738
 21
0.699516654014587
  0
LINE
  5
DF
100
AcDbEntity
  8
SEMA2D
100
AcDbLine
 62
7
  6
_SOLID
370
9
 10
1.33798360824585
 20
0.696016669273377
 11
1.33192145824432
 21
0.692516684532166
  0
LINE
  5
E0
100
AcDbEntity
  8
SEMA2D
100
AcDbLine
 62
7
  6
_DOT
370
9
 10
1.33798360824585
 20
0.646016657352447
 11
1.33798360824585
 21
0.696016669273377
  0
LINE
  5
E1
100
AcDbEntity
  8
SEMA2D
100
AcDbLine
 62
7
  6
_DOT
370
9
 10
1.33798360824585
 20
0.646016657352447
 11
1.33798360824585
 21
0.646016657352447
  0
LINE
  5
E2
100
AcDbEntity
  8
SEMA2D
100
AcDbLine
 62
7
  6
_SOLID
370
9
 10
0.982959866523743
 20
0.512650728225708
 11
1.01679539680481
 21
0.512650728225708
  0
LINE
  5
E3
100
AcDbEntity
  8
SEMA2D
100
AcDbLine
 62
7
  6
_SOLID
370
9
 10
0.982959866523743
 20
0.512650728225708
 11
0.982959866523743
 21
0.519650757312775
  0
LINE
  5
E4
100
AcDbEntity
  8
SEMA2D
100
AcDbLine
 62
7
  6
_SOLID
370
9
 10
0.982959866523743
 20
0.512650728225708
 11
0.982959866523743
 21
0.505650758743286
  0
LINE
  5
E5
100
AcDbEntity
  8
SEMA2D
100
AcDbLine
 62
7
  6
_SOLID
370
9
 10
0.982959866523743
 20
0.512650728225708
 11
0.989022016525269
 21
0.516150772571564
  0
LINE
  5
E6
100
AcDbEntity
  8
SEMA2D
100
AcDbLine
 62
7
  6
_SOLID
370
9
 10
0.982959866523743
 20
0.512650728225708
 11
0.976897656917572
 21
0.509150743484497
  0
LINE
  5
E7
100
AcDbEntity
  8
SEMA2D
100
AcDbLine
 62
7
  6
_DOT
370
9
 10
0.982959866523743
 20
0.462650746107101
 11
0.982959866523743
 21
0.512650728225708
  0
LINE
  5
E8
100
AcDbEntity
  8
SEMA2D
100
AcDbLine
 62
7
  6
_DOT
370
9
 10
0.982959866523743
 20
0.462650746107101
 11
0.982959866523743
 21
0.462650746107101
  0
MTEXT
  5
E9
100
AcDbEntity
  8
SEMATEXT
100
AcDbMText
 62
7
 10
0.98733389377594
 20
0.517448246479034
 40
0.00800000037997961
 71
7
  1
{\fArial Narrow;18}
  7
STANDARD
 73
2
  0
LINE
  5
EA
100
AcDbEntity
  8
SEMA2D
100
AcDbLine
 62
7
  6
_SOLID
370
9
 10
1.00103640556335
 20
0.512650728225708
 11
1.00103640556335
 21
0.519650757312775
  0
LINE
  5
EB
100
AcDbEntity
  8
SEMA2D
100
AcDbLine
 62
7
  6
_SOLID
370
9
 10
1.00103640556335
 20
0.512650728225708
 11
1.00103640556335
 21
0.505650758743286
  0
LINE
  5
EC
100
AcDbEntity
  8
SEMA2D
100
AcDbLine
 62
7
  6
_SOLID
370
9
 10
1.00103640556335
 20
0.512650728225708
 11
1.00709855556488
 21
0.516150772571564
  0
LINE
  5
ED
100
AcDbEntity
  8
SEMA2D
100
AcDbLine
 62
7
  6
_SOLID
370
9
 10
1.00103640556335
 20
0.512650728225708
 11
0.994974195957184
 21
0.509150743484497
  0
LINE
  5
EE
100
AcDbEntity
  8
SEMA2D
100
AcDbLine
 62
7
  6
_DOT
370
9
 10
1.00103640556335
 20
0.462650746107101
 11
1.00103640556335
 21
0.512650728225708
  0
LINE
  5
EF
100
AcDbEntity
  8
SEMA2D
100
AcDbLine
 62
7
  6
_DOT
370
9
 10
1.00103640556335
 20
0.462650746107101
 11
1.00103640556335
 21
0.462650746107101
  0
MTEXT
  5
F0
100
AcDbEntity
  8
SEMATEXT
100
AcDbMText
 62
7
 10
1.00425159931183
 20
0.517448246479034
 40
0.00800000037997961
 71
7
  1
{\fArial Narrow;16}
  7
STANDARD
 73
2
  0
LINE
  5
F1
100
AcDbEntity
  8
SEMA2D
100
AcDbLine
 62
7
  6
_SOLID
370
9
 10
1.01679539680481
 20
0.512650728225708
 11
1.01679539680481
 21
0.519650757312775
  0
LINE
  5
F2
100
AcDbEntity
  8
SEMA2D
100
AcDbLine
 62
7
  6
_SOLID
370
9
 10
1.01679539680481
 20
0.512650728225708
 11
1.01679539680481
 21
0.505650758743286
  0
LINE
  5
F3
100
AcDbEntity
  8
SEMA2D
100
AcDbLine
 62
7
  6
_SOLID
370
9
 10
1.01679539680481
 20
0.512650728225708
 11
1.02285754680634
 21
0.516150772571564
  0
LINE
  5
F4
100
AcDbEntity
  8
SEMA2D
100
AcDbLine
 62
7
  6
_SOLID
370
9
 10
1.01679539680481
 20
0.512650728225708
 11
1.01073312759399
 21
0.509150743484497
  0
LINE
  5
F5
100
AcDbEntity
  8
SEMA2D
100
AcDbLine
 62
7
  6
_DOT
370
9
 10
1.01679539680481
 20
0.462650746107101
 11
1.01679539680481
 21
0.512650728225708
  0
LINE
  5
F6
100
AcDbEntity
  8
SEMA2D
100
AcDbLine
 62
7
  6
_DOT
370
9
 10
1.01679539680481
 20
0.512650728225708
 11
1.01679539680481
 21
0.462650746107101
  0
LINE
  5
F7
100
AcDbEntity
  8
SEMA2D
100
AcDbLine
 62
7
  6
_SOLID
370
9
 10
0.932959854602814
 20
0.082650750875473
 11
0.932959854602814
 21
0.462650746107101
  0
LINE
  5
F8
100
AcDbEntity
  8
SEMA2D
100
AcDbLine
 62
7
  6
_SOLID
370
9
 10
0.932959854602814
 20
0.082650750875473
 11
0.925959885120392
 21
0.082650750875473
  0
LINE
  5
F9
100
AcDbEntity
  8
SEMA2D
100
AcDbLine
 62
7
  6
_SOLID
370
9
 10
0.932959854602814
 20
0.082650750875473
 11
0.93995988368988
 21
0.082650750875473
  0
LINE
  5
FA
100
AcDbEntity
  8
SEMA2D
100
AcDbLine
 62
7
  6
_SOLID
370
9
 10
0.932959854602814
 20
0.082650750875473
 11
0.929459869861603
 21
0.0887129306793213
  0
LINE
  5
FB
100
AcDbEntity
  8
SEMA2D
100
AcDbLine
 62
7
  6
_SOLID
370
9
 10
0.932959854602814
 20
0.082650750875473
 11
0.936459839344025
 21
0.0765885710716248
  0
LINE
  5
FC
100
AcDbEntity
  8
SEMA2D
100
AcDbLine
 62
7
  6
_DOT
370
9
 10
0.982959866523743
 20
0.082650750875473
 11
0.932959854602814
 21
0.082650750875473
  0
LINE
  5
FD
100
AcDbEntity
  8
SEMA2D
100
AcDbLine
 62
7
  6
_DOT
370
9
 10
0.982959866523743
 20
0.082650750875473
 11
0.982959866523743
 21
0.082650750875473
  0
MTEXT
  5
FE
100
AcDbEntity
  8
SEMATEXT
100
AcDbMText
 62
7
 10
0.928162336349487
 20
0.264654934406281
 40
0.00800000037997961
 50
90
 71
7
  1
{\fArial Narrow;380}
  7
STANDARD
 73
2
  0
LINE
  5
FF
100
AcDbEntity
  8
SEMA2D
100
AcDbLine
 62
7
  6
_SOLID
370
9
 10
0.932959854602814
 20
0.462650746107101
 11
0.925959885120392
 21
0.462650746107101
  0
LINE
  5
100
100
AcDbEntity
  8
SEMA2D
100
AcDbLine
 62
7
  6
_SOLID
370
9
 10
0.932959854602814
 20
0.462650746107101
 11
0.93995988368988
 21
0.462650746107101
  0
LINE
  5
101
100
AcDbEntity
  8
SEMA2D
100
AcDbLine
 62
7
  6
_SOLID
370
9
 10
0.932959854602814
 20
0.462650746107101
 11
0.929459869861603
 21
0.46871292591095
  0
LINE
  5
102
100
AcDbEntity
  8
SEMA2D
100
AcDbLine
 62
7
  6
_SOLID
370
9
 10
0.932959854602814
 20
0.462650746107101
 11
0.936459839344025
 21
0.456588566303253
  0
LINE
  5
103
100
AcDbEntity
  8
SEMA2D
100
AcDbLine
 62
7
  6
_DOT
370
9
 10
0.982959866523743
 20
0.462650746107101
 11
0.932959854602814
 21
0.462650746107101
  0
LINE
  5
104
100
AcDbEntity
  8
SEMA2D
100
AcDbLine
 62
7
  6
_DOT
370
9
 10
0.982959866523743
 20
0.462650746107101
 11
0.982959866523743
 21
0.462650746107101
  0
LINE
  5
105
100
AcDbEntity
  8
SEMA2D
100
AcDbLine
 62
7
  6
_SOLID
370
9
 10
1.16787910461426
 20
0.512650728225708
 11
1.33798360824585
 21
0.512650728225708
  0
LINE
  5
106
100
AcDbEntity
  8
SEMA2D
100
AcDbLine
 62
7
  6
_SOLID
370
9
 10
1.16787910461426
 20
0.512650728225708
 11
1.16787910461426
 21
0.519650757312775
  0
LINE
  5
107
100
AcDbEntity
  8
SEMA2D
100
AcDbLine
 62
7
  6
_SOLID
370
9
 10
1.16787910461426
 20
0.512650728225708
 11
1.16787910461426
 21
0.505650758743286
  0
LINE
  5
108
100
AcDbEntity
  8
SEMA2D
100
AcDbLine
 62
7
  6
_SOLID
370
9
 10
1.16787910461426
 20
0.512650728225708
 11
1.17394125461578
 21
0.516150772571564
  0
LINE
  5
109
100
AcDbEntity
  8
SEMA2D
100
AcDbLine
 62
7
  6
_SOLID
370
9
 10
1.16787910461426
 20
0.512650728225708
 11
1.16181695461273
 21
0.509150743484497
  0
LINE
  5
10A
100
AcDbEntity
  8
SEMA2D
100
AcDbLine
 62
7
  6
_DOT
370
9
 10
1.16787910461426
 20
0.462650746107101
 11
1.16787910461426
 21
0.512650728225708
  0
LINE
  5
10B
100
AcDbEntity
  8
SEMA2D
100
AcDbLine
 62
7
  6
_DOT
370
9
 10
1.16787910461426
 20
0.462650746107101
 11
1.16787910461426
 21
0.462650746107101
  0
MTEXT
  5
10C
100
AcDbEntity
  8
SEMATEXT
100
AcDbMText
 62
7
 10
1.24593496322632
 20
0.517448246479034
 40
0.00800000037997961
 71
7
  1
{\fArial Narrow;170}
  7
STANDARD
 73
2
  0
LINE
  5
10D
100
AcDbEntity
  8
SEMA2D
100
AcDbLine
 62
7
  6
_SOLID
370
9
 10
1.33798360824585
 20
0.512650728225708
 11
1.33798360824585
 21
0.519650757312775
  0
LINE
  5
10E
100
AcDbEntity
  8
SEMA2D
100
AcDbLine
 62
7
  6
_SOLID
370
9
 10
1.33798360824585
 20
0.512650728225708
 11
1.33798360824585
 21
0.505650758743286
  0
LINE
  5
10F
100
AcDbEntity
  8
SEMA2D
100
AcDbLine
 62
7
  6
_SOLID
370
9
 10
1.33798360824585
 20
0.512650728225708
 11
1.34404575824738
 21
0.516150772571564
  0
LINE
  5
110
100
AcDbEntity
  8
SEMA2D
100
AcDbLine
 62
7
  6
_SOLID
370
9
 10
1.33798360824585
 20
0.512650728225708
 11
1.33192145824432
 21
0.509150743484497
  0
LINE
  5
111
100
AcDbEntity
  8
SEMA2D
100
AcDbLine
 62
7
  6
_DOT
370
9
 10
1.33798360824585
 20
0.462650746107101
 11
1.33798360824585
 21
0.512650728225708
  0
LINE
  5
112
100
AcDbEntity
  8
SEMA2D
100
AcDbLine
 62
7
  6
_DOT
370
9
 10
1.33798360824585
 20
0.462650746107101
 11
1.33798360824585
 21
0.462650746107101
  0
LINE
  5
113
100
AcDbEntity
  8
SEMA2D
100
AcDbLine
 62
7
  6
_SOLID
370
9
 10
1.38798356056213
 20
0.082650750875473
 11
1.38798356056213
 21
0.462650746107101
  0
LINE
  5
114
100
AcDbEntity
  8
SEMA2D
100
AcDbLine
 62
7
  6
_SOLID
370
9
 10
1.38798356056213
 20
0.082650750875473
 11
1.38098359107971
 21
0.082650750875473
  0
LINE
  5
115
100
AcDbEntity
  8
SEMA2D
100
AcDbLine
 62
7
  6
_SOLID
370
9
 10
1.38798356056213
 20
0.082650750875473
 11
1.39498364925385
 21
0.082650750875473
  0
LINE
  5
116
100
AcDbEntity
  8
SEMA2D
100
AcDbLine
 62
7
  6
_SOLID
370
9
 10
1.38798356056213
 20
0.082650750875473
 11
1.38448357582092
 21
0.0887129306793213
  0
LINE
  5
117
100
AcDbEntity
  8
SEMA2D
100
AcDbLine
 62
7
  6
_SOLID
370
9
 10
1.38798356056213
 20
0.082650750875473
 11
1.39148366451263
 21
0.0765885710716248
  0
LINE
  5
118
100
AcDbEntity
  8
SEMA2D
100
AcDbLine
 62
7
  6
_DOT
370
9
 10
1.33798360824585
 20
0.082650750875473
 11
1.38798356056213
 21
0.082650750875473
  0
LINE
  5
119
100
AcDbEntity
  8
SEMA2D
100
AcDbLine
 62
7
  6
_DOT
370
9
 10
1.33798360824585
 20
0.082650750875473
 11
1.33798360824585
 21
0.082650750875473
  0
MTEXT
  5
11A
100
AcDbEntity
  8
SEMATEXT
100
AcDbMText
 62
7
 10
1.38318610191345
 20
0.264654934406281
 40
0.00800000037997961
 50
90
 71
7
  1
{\fArial Narrow;380}
  7
STANDARD
 73
2
  0
LINE
  5
11B
100
AcDbEntity
  8
SEMA2D
100
AcDbLine
 62
7
  6
_SOLID
370
9
 10
1.38798356056213
 20
0.462650746107101
 11
1.38098359107971
 21
0.462650746107101
  0
LINE
  5
11C
100
AcDbEntity
  8
SEMA2D
100
AcDbLine
 62
7
  6
_SOLID
370
9
 10
1.38798356056213
 20
0.462650746107101
 11
1.39498364925385
 21
0.462650746107101
  0
LINE
  5
11D
100
AcDbEntity
  8
SEMA2D
100
AcDbLine
 62
7
  6
_SOLID
370
9
 10
1.38798356056213
 20
0.462650746107101
 11
1.38448357582092
 21
0.46871292591095
  0
LINE
  5
11E
100
AcDbEntity
  8
SEMA2D
100
AcDbLine
 62
7
  6
_SOLID
370
9
 10
1.38798356056213
 20
0.462650746107101
 11
1.39148366451263
 21
0.456588566303253
  0
LINE
  5
11F
100
AcDbEntity
  8
SEMA2D
100
AcDbLine
 62
7
  6
_DOT
370
9
 10
1.33798360824585
 20
0.462650746107101
 11
1.38798356056213
 21
0.462650746107101
  0
LINE
  5
120
100
AcDbEntity
  8
SEMA2D
100
AcDbLine
 62
7
  6
_DOT
370
9
 10
1.33798360824585
 20
0.462650746107101
 11
1.33798360824585
 21
0.462650746107101
  0
LINE
  5
121
100
AcDbEntity
  8
SEMA2D
100
AcDbLine
 62
7
  6
_SOLID
370
9
 10
1.05103635787964
 20
0.0812257528305054
 11
1.05103635787964
 21
0.431225746870041
  0
LINE
  5
122
100
AcDbEntity
  8
SEMA2D
100
AcDbLine
 62
7
  6
_SOLID
370
9
 10
1.05103635787964
 20
0.0812257528305054
 11
1.04403638839722
 21
0.0812257528305054
  0
LINE
  5
123
100
AcDbEntity
  8
SEMA2D
100
AcDbLine
 62
7
  6
_SOLID
370
9
 10
1.05103635787964
 20
0.0812257528305054
 11
1.05803632736206
 21
0.0812257528305054
  0
LINE
  5
124
100
AcDbEntity
  8
SEMA2D
100
AcDbLine
 62
7
  6
_SOLID
370
9
 10
1.05103635787964
 20
0.0812257528305054
 11
1.04753637313843
 21
0.087287925183773
  0
LINE
  5
125
100
AcDbEntity
  8
SEMA2D
100
AcDbLine
 62
7
  6
_SOLID
370
9
 10
1.05103635787964
 20
0.0812257528305054
 11
1.05453634262085
 21
0.0751635730266571
  0
LINE
  5
126
100
AcDbEntity
  8
SEMA2D
100
AcDbLine
 62
7
  6
_DOT
370
9
 10
1.00103640556335
 20
0.0812257528305054
 11
1.05103635787964
 21
0.0812257528305054
  0
LINE
  5
127
100
AcDbEntity
  8
SEMA2D
100
AcDbLine
 62
7
  6
_DOT
370
9
 10
1.00103640556335
 20
0.0812257528305054
 11
1.00103640556335
 21
0.0812257528305054
  0
MTEXT
  5
128
100
AcDbEntity
  8
SEMATEXT
100
AcDbMText
 62
7
 10
1.04623889923096
 20
0.248229920864105
 40
0.00800000037997961
 50
90
 71
7
  1
{\fArial Narrow;350}
  7
STANDARD
 73
2
  0
LINE
  5
129
100
AcDbEntity
  8
SEMA2D
100
AcDbLine
 62
7
  6
_SOLID
370
9
 10
1.05103635787964
 20
0.431225746870041
 11
1.04403638839722
 21
0.431225746870041
  0
LINE
  5
12A
100
AcDbEntity
  8
SEMA2D
100
AcDbLine
 62
7
  6
_SOLID
370
9
 10
1.05103635787964
 20
0.431225746870041
 11
1.05803632736206
 21
0.431225746870041
  0
LINE
  5
12B
100
AcDbEntity
  8
SEMA2D
100
AcDbLine
 62
7
  6
_SOLID
370
9
 10
1.05103635787964
 20
0.431225746870041
 11
1.04753637313843
 21
0.437287926673889
  0
LINE
  5
12C
100
AcDbEntity
  8
SEMA2D
100
AcDbLine
 62
7
  6
_SOLID
370
9
 10
1.05103635787964
 20
0.431225746870041
 11
1.05453634262085
 21
0.425163567066193
  0
LINE
  5
12D
100
AcDbEntity
  8
SEMA2D
100
AcDbLine
 62
7
  6
_DOT
370
9
 10
1.00103640556335
 20
0.431225746870041
 11
1.05103635787964
 21
0.431225746870041
  0
LINE
  5
12E
100
AcDbEntity
  8
SEMA2D
100
AcDbLine
 62
7
  6
_DOT
370
9
 10
1.00103640556335
 20
0.431225746870041
 11
1.00103640556335
 21
0.431225746870041
  0
ENDSEC
  0
SECTION
  2
OBJECTS
  0
DICTIONARY
  5
 13
330
0
100
AcDbDictionary
281
     1
  3
ACAD_GROUP
350
 14
 3
ACAD_MLINESTYLE
350
 16
  3
ACAD_PLOTSETTINGS
350
 17
  3
ACAD_PLOTSTYLENAME
350
 18
  0
DICTIONARY
  5
 14
330
 13
100
AcDbDictionary
281
     1
  0
DICTIONARY
  5
 16
330
 13
100
AcDbDictionary
281
     1
  0
DICTIONARY
  5
 17
102
{ACAD_REACTORS
330
 13
102
}
330
 13
100
AcDbDictionary
281
     1
  0
ACDBDICTIONARYWDFLT
  5
 18
102
{ACAD_REACTORS
330
 13
102
}
330
 13
100
AcDbDictionary
281
     1
  3
Normal
350
 19
100
AcDbDictionaryWithDefault
340
 19
  0
ACDBPLACEHOLDER
  5
 19
102
{ACAD_REACTORS
330
 18
102
}
330
 18
  0
ENDSEC
  0
EOF
