  0
SECTION
  2
HEADER
  9
$ACADVER
  1
AC1015
  9
$HANDSEED
  5
124
  9
$LIMMIN
 10
2.86705946922302
 20
0.232626065611839
  9
$LIMMAX
 10
3.338707447052
 20
0.70672470331192
  9
$MEASUREMENT
 70
1
  0
ENDSEC
  0
SECTION
  2
TABLES
  0
TABLE
  2
VPORT
  5
  1
100
AcDbSymbolTable
  0
ENDTAB
  0
TABLE
  2
LTYPE
  5
  2
100
AcDbSymbolTable
  0
LTYPE
  5
  3
100
AcDbSymbolTableRecord
100
AcDbLinetypeTableRecord
  2
BYBLOCK
 70
     0
  0
LTYPE
  5
  4
100
AcDbSymbolTableRecord
100
AcDbLinetypeTableRecord
  2
BYLAYER
 70
     0
  0
LTYPE
  5
20
100
AcDbSymbolTableRecord
100
AcDbLinetypeTableRecord
  2
_SOLID
  3

 70
0
 72
65
 73
2
 40
5
 49
5
 74
0
 49
0
 74
0
  0
LTYPE
  5
21
100
AcDbSymbolTableRecord
100
AcDbLinetypeTableRecord
  2
_DASH
  3

 70
0
 72
65
 73
2
 40
7
 49
5
 74
0
 49
-2
 74
0
  0
LTYPE
  5
22
100
AcDbSymbolTableRecord
100
AcDbLinetypeTableRecord
  2
_DOT
  3

 70
0
 72
65
 73
2
 40
4
 49
2
 74
0
 49
-2
 74
0
  0
LTYPE
  5
23
100
AcDbSymbolTableRecord
100
AcDbLinetypeTableRecord
  2
_DASHDOT
  3

 70
0
 72
65
 73
4
 40
11
 49
5
 74
0
 49
-2
 74
0
 49
2
 74
0
 49
-2
 74
0
  0
LTYPE
  5
24
100
AcDbSymbolTableRecord
100
AcDbLinetypeTableRecord
  2
_DASHDOTDOT
  3

 70
0
 72
65
 73
6
 40
15
 49
5
 74
0
 49
-2
 74
0
 49
2
 74
0
 49
-2
 74
0
 49
2
 74
0
 49
-2
 74
0
  0
LTYPE
  5
25
100
AcDbSymbolTableRecord
100
AcDbLinetypeTableRecord
  2
ISO128-20-02
  3

 70
0
 72
65
 73
2
 40
15
 49
12
 74
0
 49
-3
 74
0
  0
LTYPE
  5
26
100
AcDbSymbolTableRecord
100
AcDbLinetypeTableRecord
  2
ISO128-20-03
  3

 70
0
 72
65
 73
2
 40
30
 49
12
 74
0
 49
-18
 74
0
  0
LTYPE
  5
27
100
AcDbSymbolTableRecord
100
AcDbLinetypeTableRecord
  2
ISO128-20-04
  3

 70
0
 72
65
 73
4
 40
30
 49
24
 74
0
 49
-3
 74
0
 49
0
 74
0
 49
-3
 74
0
  0
LTYPE
  5
28
100
AcDbSymbolTableRecord
100
AcDbLinetypeTableRecord
  2
ISO128-20-05
  3

 70
0
 72
65
 73
6
 40
33
 49
24
 74
0
 49
-3
 74
0
 49
0
 74
0
 49
-3
 74
0
 49
0
 74
0
 49
-3
 74
0
  0
LTYPE
  5
29
100
AcDbSymbolTableRecord
100
AcDbLinetypeTableRecord
  2
ISO128-20-06
  3

 70
0
 72
65
 73
8
 40
36
 49
24
 74
0
 49
-3
 74
0
 49
0
 74
0
 49
-3
 74
0
 49
0
 74
0
 49
-3
 74
0
 49
0
 74
0
 49
-3
 74
0
  0
LTYPE
  5
2A
100
AcDbSymbolTableRecord
100
AcDbLinetypeTableRecord
  2
ISO128-20-07
  3

 70
0
 72
65
 73
2
 40
3
 49
0
 74
0
 49
-3
 74
0
  0
LTYPE
  5
2B
100
AcDbSymbolTableRecord
100
AcDbLinetypeTableRecord
  2
ISO128-20-08
  3

 70
0
 72
65
 73
4
 40
36
 49
24
 74
0
 49
-3
 74
0
 49
6
 74
0
 49
-3
 74
0
  0
LTYPE
  5
2C
100
AcDbSymbolTableRecord
100
AcDbLinetypeTableRecord
  2
ISO128-20-09
  3

 70
0
 72
65
 73
6
 40
45
 49
24
 74
0
 49
-3
 74
0
 49
6
 74
0
 49
-3
 74
0
 49
6
 74
0
 49
-3
 74
0
  0
LTYPE
  5
2D
100
AcDbSymbolTableRecord
100
AcDbLinetypeTableRecord
  2
ISO128-20-10
  3

 70
0
 72
65
 73
4
 40
18
 49
12
 74
0
 49
-3
 74
0
 49
0
 74
0
 49
-3
 74
0
  0
LTYPE
  5
2E
100
AcDbSymbolTableRecord
100
AcDbLinetypeTableRecord
  2
ISO128-20-11
  3

 70
0
 72
65
 73
6
 40
33
 49
12
 74
0
 49
-3
 74
0
 49
12
 74
0
 49
-3
 74
0
 49
0
 74
0
 49
-3
 74
0
  0
LTYPE
  5
2F
100
AcDbSymbolTableRecord
100
AcDbLinetypeTableRecord
  2
ISO128-20-12
  3

 70
0
 72
65
 73
6
 40
21
 49
12
 74
0
 49
-3
 74
0
 49
0
 74
0
 49
-3
 74
0
 49
0
 74
0
 49
-3
 74
0
  0
LTYPE
  5
30
100
AcDbSymbolTableRecord
100
AcDbLinetypeTableRecord
  2
ISO128-20-13
  3

 70
0
 72
65
 73
8
 40
36
 49
12
 74
0
 49
-3
 74
0
 49
12
 74
0
 49
-3
 74
0
 49
0
 74
0
 49
-3
 74
0
 49
0
 74
0
 49
-3
 74
0
  0
LTYPE
  5
31
100
AcDbSymbolTableRecord
100
AcDbLinetypeTableRecord
  2
ISO128-20-14
  3

 70
0
 72
65
 73
8
 40
24
 49
12
 74
0
 49
-3
 74
0
 49
0
 74
0
 49
-3
 74
0
 49
0
 74
0
 49
-3
 74
0
 49
0
 74
0
 49
-3
 74
0
  0
LTYPE
  5
32
100
AcDbSymbolTableRecord
100
AcDbLinetypeTableRecord
  2
ISO128-20-15
  3

 70
0
 72
65
 73
10
 40
39
 49
12
 74
0
 49
-3
 74
0
 49
12
 74
0
 49
-3
 74
0
 49
0
 74
0
 49
-3
 74
0
 49
0
 74
0
 49
-3
 74
0
 49
0
 74
0
 49
-3
 74
0
  0
ENDTAB
  0
TABLE
  2
LAYER
  5
 1A
330
  0
100
AcDbSymbolTable
  0
LAYER
  5
120
330
 1A
100
AcDbSymbolTableRecord
100
AcDbLayerTableRecord
  2
0
 70
0
 62
7
  6
Continuous
370
-3
390
 19
  0
LAYER
  5
121
330
 1A
100
AcDbSymbolTableRecord
100
AcDbLayerTableRecord
  2
SEMA2D
 70
0
 62
7
  6
Continuous
370
-3
390
 19
  0
LAYER
  5
122
330
 1A
100
AcDbSymbolTableRecord
100
AcDbLayerTableRecord
  2
SEMATEXT
 70
0
 62
7
  6
Continuous
370
-3
390
 19
  0
ENDTAB
  0
TABLE
  2
STYLE
  5
  5
100
AcDbSymbolTable
  0
STYLE
  5
  6
100
AcDbSymbolTableRecord
100
AcDbTextStyleTableRecord
  2
STANDARD
 70
     0
 40
0.0
 41
1.0
 50
0.0
 71
     0
 42
10.0
  3
txt
  4

  0
ENDTAB
  0
TABLE
  2
VIEW
  5
  7
100
AcDbSymbolTable
  0
ENDTAB
  0
TABLE
  2
UCS
  5
  8
100
AcDbSymbolTable
  0
ENDTAB
  0
TABLE
  2
APPID
  5
  9
100
AcDbSymbolTable
  0
APPID
  5
  A
100
AcDbSymbolTableRecord
100
AcDbRegAppTableRecord
  2
ACAD
 70
0
  0
ENDTAB
  0
TABLE
  2
DIMSTYLE
  5
  B
100
AcDbSymbolTable
 70
     1
100
AcDbDimStyleTable
 71
     0
  0
DIMSTYLE
105
 1B
330
B
100
AcDbSymbolTableRecord
100
AcDbDimStyleTableRecord
  2
STANDARD
 70
    0
340
  6
  0
ENDTAB
  0
TABLE
  2
BLOCK_RECORD
  5
  C
100
AcDbSymbolTable
  0
BLOCK_RECORD
  5
  D
100
AcDbSymbolTableRecord
100
AcDbBlockTableRecord
  2
*MODEL_SPACE
  0
BLOCK_RECORD
  5
  E
100
AcDbSymbolTableRecord
100
AcDbBlockTableRecord
  2
*PAPER_SPACE
  0
ENDTAB
  0
ENDSEC
  0
SECTION
  2
BLOCKS
  0
BLOCK
  5
  F
330
  D
100
AcDbEntity
  8
0
100
AcDbBlockBegin
  2
*MODEL_SPACE
 70
     0
  0
ENDBLK
  5
 10
100
AcDbEntity
  8
0
100
AcDbBlockEnd
  0
BLOCK
  5
 11
330
  E
100
AcDbEntity
  8
0
100
AcDbBlockBegin
  2
*PAPER_SPACE
 70
     0
  0
ENDBLK
  5
 12
100
AcDbEntity
  8
0
100
AcDbBlockEnd
  0
ENDSEC
  0
SECTION
  2
ENTITIES
  0
ARC
  5
33
100
AcDbEntity
  8
SEMA2D
100
AcDbCircle
 62
7
  6
_SOLID
370
9
 10
3.17352223396301
 20
0.629800260066986
 40
0.00231750006787479
100
AcDbArc
 50
90
 51
165
  0
ARC
  5
34
100
AcDbEntity
  8
SEMA2D
100
AcDbCircle
 62
7
  6
_SOLID
370
9
 10
3.14099335670471
 20
0.629800260066986
 40
0.00231750006787479
100
AcDbArc
 50
14.9999990463257
 51
90
  0
ARC
  5
35
100
AcDbEntity
  8
SEMA2D
100
AcDbCircle
 62
7
  6
_SOLID
370
9
 10
3.27831482887268
 20
0.633971750736237
 40
0.00185400003101677
100
AcDbArc
 50
270
 51
-3.0000011920929
  0
ARC
  5
36
100
AcDbEntity
  8
SEMA2D
100
AcDbCircle
 62
7
  6
_SOLID
370
9
 10
3.11499571800232
 20
0.633971750736237
 40
0.00185400003101677
100
AcDbArc
 50
183
 51
270
  0
ARC
  5
37
100
AcDbEntity
  8
SEMA2D
100
AcDbCircle
 62
7
  6
_SOLID
370
9
 10
3.25231719017029
 20
0.629800260066986
 40
0.00231750006787479
100
AcDbArc
 50
94.6874923706055
 51
165
  0
ARC
  5
38
100
AcDbEntity
  8
SEMA2D
100
AcDbCircle
 62
7
  6
_SOLID
370
9
 10
3.18081831932068
 20
0.640378654003143
 40
0.00927000027149916
100
AcDbArc
 50
67.4147262573242
 51
112.584060668945
  0
ARC
  5
39
100
AcDbEntity
  8
SEMA2D
100
AcDbCircle
 62
7
  6
_SOLID
370
9
 10
3.16498160362244
 20
0.678451836109161
 40
0.0319655798375607
100
AcDbArc
 50
247.41471862793
 51
292.585266113281
  0
ARC
  5
3A
100
AcDbEntity
  8
SEMA2D
100
AcDbCircle
 62
7
  6
_SOLID
370
9
 10
3.21249198913574
 20
0.640378654003143
 40
0.00927000027149916
100
AcDbArc
 50
67.4157257080078
 51
112.585273742676
  0
ARC
  5
3B
100
AcDbEntity
  8
SEMA2D
100
AcDbCircle
 62
7
  6
_SOLID
370
9
 10
3.1966552734375
 20
0.678451836109161
 40
0.0319655798375607
100
AcDbArc
 50
247.41471862793
 51
292.585266113281
  0
ARC
  5
3C
100
AcDbEntity
  8
SEMA2D
100
AcDbCircle
 62
7
  6
_SOLID
370
9
 10
3.14914464950562
 20
0.640378654003143
 40
0.00927000027149916
100
AcDbArc
 50
67.4155044555664
 51
112.58528137207
  0
ARC
  5
3D
100
AcDbEntity
  8
SEMA2D
100
AcDbCircle
 62
7
  6
_SOLID
370
9
 10
3.13330793380737
 20
0.678451836109161
 40
0.0319655798375607
100
AcDbArc
 50
243.986419677734
 51
292.585205078125
  0
ARC
  5
3E
100
AcDbEntity
  8
SEMA2D
100
AcDbCircle
 62
7
  6
_SOLID
370
9
 10
3.22832894325256
 20
0.678451836109161
 40
0.0319655798375607
100
AcDbArc
 50
247.41471862793
 51
292.585266113281
  0
ARC
  5
3F
100
AcDbEntity
  8
SEMA2D
100
AcDbCircle
 62
7
  6
_SOLID
370
9
 10
3.14941048622131
 20
0.614504754543304
 40
0.00185400003101677
100
AcDbArc
 50
195
 51
270
  0
ARC
  5
40
100
AcDbEntity
  8
SEMA2D
100
AcDbCircle
 62
7
  6
_SOLID
370
9
 10
3.24390006065369
 20
0.614504754543304
 40
0.00185400003101677
100
AcDbArc
 50
270
 51
345
  0
ARC
  5
41
100
AcDbEntity
  8
SEMA2D
100
AcDbCircle
 62
7
  6
_SOLID
370
9
 10
3.21978831291199
 20
0.629800260066986
 40
0.00231750006787479
100
AcDbArc
 50
14.9999990463257
 51
90
  0
ARC
  5
42
100
AcDbEntity
  8
SEMA2D
100
AcDbCircle
 62
7
  6
_SOLID
370
9
 10
3.16510510444641
 20
0.614504754543304
 40
0.00185400003101677
100
AcDbArc
 50
270
 51
345
  0
ARC
  5
43
100
AcDbEntity
  8
SEMA2D
100
AcDbCircle
 62
7
  6
_SOLID
370
9
 10
3.22820544242859
 20
0.614504754543304
 40
0.00185400003101677
100
AcDbArc
 50
195
 51
270
  0
ARC
  5
44
100
AcDbEntity
  8
SEMA2D
100
AcDbCircle
 62
7
  6
_SOLID
370
9
 10
3.26000261306763
 20
0.678451836109161
 40
0.0319655798375607
100
AcDbArc
 50
247.414794921875
 51
296.013580322266
  0
ARC
  5
45
100
AcDbEntity
  8
SEMA2D
100
AcDbCircle
 62
7
  6
_SOLID
370
9
 10
3.24416589736938
 20
0.640378654003143
 40
0.00927000027149916
100
AcDbArc
 50
67.4147262573242
 51
112.584426879883
  0
ARC
  5
46
100
AcDbEntity
  8
SEMA2D
100
AcDbCircle
 62
7
  6
_SOLID
370
9
 10
3.11725544929504
 20
0.645559251308441
 40
0.00463500013574958
100
AcDbArc
 50
63.9864234924316
 51
177
  0
ARC
  5
47
100
AcDbEntity
  8
SEMA2D
100
AcDbCircle
 62
7
  6
_SOLID
370
9
 10
3.27605509757996
 20
0.645559251308441
 40
0.00463500013574958
100
AcDbArc
 50
3.00000047683716
 51
116.013580322266
  0
LINE
  5
48
100
AcDbEntity
  8
SEMA2D
100
AcDbLine
 62
7
  6
_SOLID
370
9
 10
3.1131443977356
 20
0.633874714374542
 11
3.11299347877502
 21
0.636752724647522
  0
LINE
  5
49
100
AcDbEntity
  8
SEMA2D
100
AcDbLine
 62
7
  6
_SOLID
370
9
 10
3.11499571800232
 20
0.633874714374542
 11
3.11484503746033
 21
0.636752724647522
  0
LINE
  5
4A
100
AcDbEntity
  8
SEMA2D
100
AcDbLine
 62
7
  6
_SOLID
370
9
 10
3.1456618309021
 20
0.632117748260498
 11
3.1456618309021
 21
0.63159316778183
  0
LINE
  5
4B
100
AcDbEntity
  8
SEMA2D
100
AcDbLine
 62
7
  6
_SOLID
370
9
 10
3.11499571800232
 20
0.632118165493011
 11
3.11499571800232
 21
0.633874714374542
  0
LINE
  5
4C
100
AcDbEntity
  8
SEMA2D
100
AcDbLine
 62
7
  6
_SOLID
370
9
 10
3.1116030216217
 20
0.636752724647522
 11
3.1116030216217
 21
0.639533758163452
  0
LINE
  5
4D
100
AcDbEntity
  8
SEMA2D
100
AcDbLine
 62
7
  6
_SOLID
370
9
 10
3.14313054084778
 20
0.630778193473816
 11
3.1476194858551
 21
0.614024877548218
  0
LINE
  5
4E
100
AcDbEntity
  8
SEMA2D
100
AcDbLine
 62
7
  6
_SOLID
370
9
 10
3.11229825019836
 20
0.639533758163452
 11
3.11262679100037
 21
0.645801842212677
  0
LINE
  5
4F
100
AcDbEntity
  8
SEMA2D
100
AcDbLine
 62
7
  6
_SOLID
370
9
 10
3.2817075252533
 20
0.639533758163452
 11
3.1116030216217
 21
0.639533758163452
  0
LINE
  5
50
100
AcDbEntity
  8
SEMA2D
100
AcDbLine
 62
7
  6
_SOLID
370
9
 10
3.11725544929504
 20
0.650194227695465
 11
3.27605509757996
 21
0.650194227695465
  0
LINE
  5
51
100
AcDbEntity
  8
SEMA2D
100
AcDbLine
 62
7
  6
_SOLID
370
9
 10
3.22820544242859
 20
0.612650752067566
 11
3.24390006065369
 21
0.612650752067566
  0
LINE
  5
52
100
AcDbEntity
  8
SEMA2D
100
AcDbLine
 62
7
  6
_SOLID
370
9
 10
3.16885375976562
 20
0.632117748260498
 11
3.16885375976562
 21
0.63159316778183
  0
LINE
  5
53
100
AcDbEntity
  8
SEMA2D
100
AcDbLine
 62
7
  6
_SOLID
370
9
 10
3.14941048622131
 20
0.612650752067566
 11
3.16510510444641
 21
0.612650752067566
  0
LINE
  5
54
100
AcDbEntity
  8
SEMA2D
100
AcDbLine
 62
7
  6
_SOLID
370
9
 10
3.16689586639404
 20
0.614024877548218
 11
3.17138504981995
 21
0.630778193473816
  0
LINE
  5
55
100
AcDbEntity
  8
SEMA2D
100
AcDbLine
 62
7
  6
_SOLID
370
9
 10
3.2817075252533
 20
0.636752724647522
 11
3.1116030216217
 21
0.636752724647522
  0
LINE
  5
56
100
AcDbEntity
  8
SEMA2D
100
AcDbLine
 62
7
  6
_SOLID
370
9
 10
3.27831482887268
 20
0.633874714374542
 11
3.11499571800232
 21
0.633874714374542
  0
LINE
  5
57
100
AcDbEntity
  8
SEMA2D
100
AcDbLine
 62
7
  6
_SOLID
370
9
 10
3.27831482887268
 20
0.632117748260498
 11
3.11499571800232
 21
0.632117748260498
  0
LINE
  5
58
100
AcDbEntity
  8
SEMA2D
100
AcDbLine
 62
7
  6
_SOLID
370
9
 10
3.22192549705505
 20
0.630778193473816
 11
3.22641444206238
 21
0.614024877548218
  0
LINE
  5
59
100
AcDbEntity
  8
SEMA2D
100
AcDbLine
 62
7
  6
_SOLID
370
9
 10
3.2456910610199
 20
0.614024877548218
 11
3.25018000602722
 21
0.630778193473816
  0
LINE
  5
5A
100
AcDbEntity
  8
SEMA2D
100
AcDbLine
 62
7
  6
_SOLID
370
9
 10
3.28068375587463
 20
0.645801842212677
 11
3.28101229667664
 21
0.639533758163452
  0
LINE
  5
5B
100
AcDbEntity
  8
SEMA2D
100
AcDbLine
 62
7
  6
_SOLID
370
9
 10
3.2817075252533
 20
0.636752724647522
 11
3.2817075252533
 21
0.639533758163452
  0
LINE
  5
5C
100
AcDbEntity
  8
SEMA2D
100
AcDbLine
 62
7
  6
_SOLID
370
9
 10
3.27831482887268
 20
0.632117748260498
 11
3.27831482887268
 21
0.633874714374542
  0
LINE
  5
5D
100
AcDbEntity
  8
SEMA2D
100
AcDbLine
 62
7
  6
_SOLID
370
9
 10
3.2801661491394
 20
0.633874714374542
 11
3.28031706809998
 21
0.636752724647522
  0
LINE
  5
5E
100
AcDbEntity
  8
SEMA2D
100
AcDbLine
 62
7
  6
_SOLID
370
9
 10
3.27831482887268
 20
0.633874714374542
 11
3.27846550941467
 21
0.636752724647522
  0
LINE
  5
5F
100
AcDbEntity
  8
SEMA2D
100
AcDbLine
 62
7
  6
_SOLID
370
9
 10
3.11229825019836
 20
0.239400744438171
 11
3.11229825019836
 21
0.462650746107101
  0
LINE
  5
60
100
AcDbEntity
  8
SEMA2D
100
AcDbLine
 62
7
  6
_SOLID
370
9
 10
3.1116030216217
 20
0.238688245415688
 11
3.1116030216217
 21
0.462650746107101
  0
LINE
  5
61
100
AcDbEntity
  8
SEMA2D
100
AcDbLine
 62
7
  6
_SOLID
370
9
 10
3.28101229667664
 20
0.239400744438171
 11
3.11229825019836
 21
0.239400744438171
  0
LINE
  5
62
100
AcDbEntity
  8
SEMA2D
100
AcDbLine
 62
7
  6
_SOLID
370
9
 10
3.2817075252533
 20
0.238688245415688
 11
3.1116030216217
 21
0.238688245415688
  0
LINE
  5
63
100
AcDbEntity
  8
SEMA2D
100
AcDbLine
 62
7
  6
_SOLID
370
9
 10
3.11928820610046
 20
0.389510869979858
 11
3.11928820610046
 21
0.243574321269989
  0
LINE
  5
64
100
AcDbEntity
  8
SEMA2D
100
AcDbLine
 62
7
  6
_SOLID
370
9
 10
3.17725825309753
 20
0.24352715909481
 11
3.17725825309753
 21
0.379562377929687
  0
LINE
  5
65
100
AcDbEntity
  8
SEMA2D
100
AcDbLine
 62
7
  6
_SOLID
370
9
 10
3.14558458328247
 20
0.24352715909481
 11
3.14558434486389
 21
0.365471869707108
  0
LINE
  5
66
100
AcDbEntity
  8
SEMA2D
100
AcDbLine
 62
7
  6
_SOLID
370
9
 10
3.15270471572876
 20
0.362338155508041
 11
3.15270495414734
 21
0.24352715909481
  0
LINE
  5
67
100
AcDbEntity
  8
SEMA2D
100
AcDbLine
 62
7
  6
_SOLID
370
9
 10
3.1843786239624
 20
0.24352715909481
 11
3.18437886238098
 21
0.386524587869644
  0
LINE
  5
68
100
AcDbEntity
  8
SEMA2D
100
AcDbLine
 62
7
  6
_SOLID
370
9
 10
3.2817075252533
 20
0.462650746107101
 11
3.2817075252533
 21
0.238688245415688
  0
LINE
  5
69
100
AcDbEntity
  8
SEMA2D
100
AcDbLine
 62
7
  6
_SOLID
370
9
 10
3.28101229667664
 20
0.462650746107101
 11
3.28101229667664
 21
0.239400744438171
  0
LINE
  5
6A
100
AcDbEntity
  8
SEMA2D
100
AcDbLine
 62
7
  6
_SOLID
370
9
 10
3.27402234077454
 20
0.243574321269989
 11
3.27402234077454
 21
0.389510869979858
  0
LINE
  5
6B
100
AcDbEntity
  8
SEMA2D
100
AcDbLine
 62
7
  6
_SOLID
370
9
 10
3.21605229377747
 20
0.24352715909481
 11
3.21605205535889
 21
0.379561811685562
  0
LINE
  5
6C
100
AcDbEntity
  8
SEMA2D
100
AcDbLine
 62
7
  6
_SOLID
370
9
 10
3.2089319229126
 20
0.24352715909481
 11
3.20893168449402
 21
0.386523932218552
  0
LINE
  5
6D
100
AcDbEntity
  8
SEMA2D
100
AcDbLine
 62
7
  6
_SOLID
370
9
 10
3.24060583114624
 20
0.36262521147728
 11
3.24060559272766
 21
0.24352715909481
  0
LINE
  5
6E
100
AcDbEntity
  8
SEMA2D
100
AcDbLine
 62
7
  6
_SOLID
370
9
 10
3.24772596359253
 20
0.24352715909481
 11
3.24772596359253
 21
0.365758985280991
  0
LINE
  5
6F
100
AcDbEntity
  8
SEMA2D
100
AcDbLine
 62
7
  6
_SOLID
370
9
 10
3.12495946884155
 20
0.403242647647858
 11
3.12495946884155
 21
0.445475846529007
  0
LINE
  5
70
100
AcDbEntity
  8
SEMA2D
100
AcDbLine
 62
7
  6
_SOLID
370
9
 10
3.16545724868774
 20
0.449675381183624
 11
3.16545724868774
 21
0.441615432500839
  0
LINE
  5
71
100
AcDbEntity
  8
SEMA2D
100
AcDbLine
 62
7
  6
_SOLID
370
9
 10
3.16700983047485
 20
0.371605008840561
 11
3.16442894935608
 21
0.368960082530975
  0
LINE
  5
72
100
AcDbEntity
  8
SEMA2D
100
AcDbLine
 62
7
  6
_SOLID
370
9
 10
3.17250347137451
 20
0.410809993743897
 11
3.17378687858582
 21
0.423729866743088
  0
LINE
  5
73
100
AcDbEntity
  8
SEMA2D
100
AcDbLine
 62
7
  6
_SOLID
370
9
 10
3.15502882003784
 20
0.36440709233284
 11
3.1304931640625
 21
0.38955157995224
  0
LINE
  5
74
100
AcDbEntity
  8
SEMA2D
100
AcDbLine
 62
7
  6
_SOLID
370
9
 10
3.17248702049255
 20
0.409985184669495
 11
3.17248702049255
 21
0.40474659204483
  0
LINE
  5
75
100
AcDbEntity
  8
SEMA2D
100
AcDbLine
 62
7
  6
_SOLID
370
9
 10
3.16877460479736
 20
0.442980110645294
 11
3.16863894462585
 21
0.441615432500839
  0
LINE
  5
76
100
AcDbEntity
  8
SEMA2D
100
AcDbLine
 62
7
  6
_SOLID
370
9
 10
3.13794779777527
 20
0.423729866743088
 11
3.13923120498657
 21
0.410809993743897
  0
LINE
  5
77
100
AcDbEntity
  8
SEMA2D
100
AcDbLine
 62
7
  6
_SOLID
370
9
 10
3.13824725151062
 20
0.441615432500839
 11
3.13923120498657
 21
0.431710004806519
  0
LINE
  5
78
100
AcDbEntity
  8
SEMA2D
100
AcDbLine
 62
7
  6
_SOLID
370
9
 10
3.13924741744995
 20
0.409985184669495
 11
3.13924741744995
 21
0.40474659204483
  0
LINE
  5
79
100
AcDbEntity
  8
SEMA2D
100
AcDbLine
 62
7
  6
_SOLID
370
9
 10
3.13924741744995
 20
0.425382673740387
 11
3.13924741744995
 21
0.430885165929794
  0
LINE
  5
7A
100
AcDbEntity
  8
SEMA2D
100
AcDbLine
 62
7
  6
_SOLID
370
9
 10
3.1490581035614
 20
0.449675381183624
 11
3.1490581035614
 21
0.441615432500839
  0
LINE
  5
7B
100
AcDbEntity
  8
SEMA2D
100
AcDbLine
 62
7
  6
_SOLID
370
9
 10
3.25407934188843
 20
0.431710004806519
 11
3.13923120498657
 21
0.431710004806519
  0
LINE
  5
7C
100
AcDbEntity
  8
SEMA2D
100
AcDbLine
 62
7
  6
_SOLID
370
9
 10
3.13924741744995
 20
0.430885165929794
 11
3.25406312942505
 21
0.430885165929794
  0
LINE
  5
7D
100
AcDbEntity
  8
SEMA2D
100
AcDbLine
 62
7
  6
_SOLID
370
9
 10
3.25406312942505
 20
0.425382673740387
 11
3.13924741744995
 21
0.425382673740387
  0
LINE
  5
7E
100
AcDbEntity
  8
SEMA2D
100
AcDbLine
 62
7
  6
_SOLID
370
9
 10
3.13923120498657
 20
0.410809993743897
 11
3.17250347137451
 21
0.410809993743897
  0
LINE
  5
7F
100
AcDbEntity
  8
SEMA2D
100
AcDbLine
 62
7
  6
_SOLID
370
9
 10
3.25407934188843
 20
0.410809993743897
 11
3.22080707550049
 21
0.410809993743897
  0
LINE
  5
80
100
AcDbEntity
  8
SEMA2D
100
AcDbLine
 62
7
  6
_SOLID
370
9
 10
3.22082328796387
 20
0.409985184669495
 11
3.25406312942505
 21
0.409985184669495
  0
LINE
  5
81
100
AcDbEntity
  8
SEMA2D
100
AcDbLine
 62
7
  6
_SOLID
370
9
 10
3.13924741744995
 20
0.409985184669495
 11
3.17248702049255
 21
0.409985184669495
  0
LINE
  5
82
100
AcDbEntity
  8
SEMA2D
100
AcDbLine
 62
7
  6
_SOLID
370
9
 10
3.25536274909973
 20
0.42372989654541
 11
3.21952366828918
 21
0.42372989654541
  0
LINE
  5
83
100
AcDbEntity
  8
SEMA2D
100
AcDbLine
 62
7
  6
_SOLID
370
9
 10
3.17372870445251
 20
0.423729866743088
 11
3.13800597190857
 21
0.423729866743088
  0
LINE
  5
84
100
AcDbEntity
  8
SEMA2D
100
AcDbLine
 62
7
  6
_SOLID
370
9
 10
3.26835107803345
 20
0.444175362586975
 11
3.26835107803345
 21
0.403242647647858
  0
LINE
  5
85
100
AcDbEntity
  8
SEMA2D
100
AcDbLine
 62
7
  6
_SOLID
370
9
 10
3.2809534072876
 20
0.46246263384819
 11
3.11229825019836
 21
0.46246263384819
  0
LINE
  5
86
100
AcDbEntity
  8
SEMA2D
100
AcDbLine
 62
7
  6
_SOLID
370
9
 10
3.1116030216217
 20
0.462650746107101
 11
3.2817075252533
 21
0.462650746107101
  0
LINE
  5
87
100
AcDbEntity
  8
SEMA2D
100
AcDbLine
 62
7
  6
_SOLID
370
9
 10
3.28101229667664
 20
0.459375828504562
 11
3.11229825019836
 21
0.459375828504562
  0
LINE
  5
88
100
AcDbEntity
  8
SEMA2D
100
AcDbLine
 62
7
  6
_SOLID
370
9
 10
3.16545724868774
 20
0.449675381183624
 11
3.22785305976868
 21
0.449675381183624
  0
LINE
  5
89
100
AcDbEntity
  8
SEMA2D
100
AcDbLine
 62
7
  6
_SOLID
370
9
 10
3.12965941429138
 20
0.449675381183624
 11
3.1490581035614
 21
0.449675381183624
  0
LINE
  5
8A
100
AcDbEntity
  8
SEMA2D
100
AcDbLine
 62
7
  6
_SOLID
370
9
 10
3.2442524433136
 20
0.449675381183624
 11
3.26365113258362
 21
0.449675381183624
  0
LINE
  5
8B
100
AcDbEntity
  8
SEMA2D
100
AcDbLine
 62
7
  6
_SOLID
370
9
 10
3.22467136383057
 20
0.441615432500839
 11
3.25506329536438
 21
0.441615432500839
  0
LINE
  5
8C
100
AcDbEntity
  8
SEMA2D
100
AcDbLine
 62
7
  6
_SOLID
370
9
 10
3.22453594207764
 20
0.442980110645294
 11
3.16877460479736
 21
0.442980110645294
  0
LINE
  5
8D
100
AcDbEntity
  8
SEMA2D
100
AcDbLine
 62
7
  6
_SOLID
370
9
 10
3.16863894462585
 20
0.441615432500839
 11
3.13824725151062
 21
0.441615432500839
  0
LINE
  5
8E
100
AcDbEntity
  8
SEMA2D
100
AcDbLine
 62
7
  6
_SOLID
370
9
 10
3.22082328796387
 20
0.409985184669495
 11
3.22082328796387
 21
0.40474659204483
  0
LINE
  5
8F
100
AcDbEntity
  8
SEMA2D
100
AcDbLine
 62
7
  6
_SOLID
370
9
 10
3.22785305976868
 20
0.449675381183624
 11
3.22785305976868
 21
0.441615432500839
  0
LINE
  5
90
100
AcDbEntity
  8
SEMA2D
100
AcDbLine
 62
7
  6
_SOLID
370
9
 10
3.22467136383057
 20
0.441615432500839
 11
3.22453594207764
 21
0.442980110645294
  0
LINE
  5
91
100
AcDbEntity
  8
SEMA2D
100
AcDbLine
 62
7
  6
_SOLID
370
9
 10
3.2628173828125
 20
0.38955157995224
 11
3.23845744132996
 21
0.364587366580963
  0
LINE
  5
92
100
AcDbEntity
  8
SEMA2D
100
AcDbLine
 62
7
  6
_SOLID
370
9
 10
3.21952366828918
 20
0.42372989654541
 11
3.22080707550049
 21
0.410809993743897
  0
LINE
  5
93
100
AcDbEntity
  8
SEMA2D
100
AcDbLine
 62
7
  6
_SOLID
370
9
 10
3.2083306312561
 20
0.407310456037521
 11
3.2083306312561
 21
0.411350756883621
  0
LINE
  5
94
100
AcDbEntity
  8
SEMA2D
100
AcDbLine
 62
7
  6
_SOLID
370
9
 10
3.1849799156189
 20
0.411350756883621
 11
3.1849799156189
 21
0.407310456037521
  0
LINE
  5
95
100
AcDbEntity
  8
SEMA2D
100
AcDbLine
 62
7
  6
_SOLID
370
9
 10
3.16442894935608
 20
0.368960082530975
 11
3.15493726730347
 21
0.378687262535095
  0
LINE
  5
96
100
AcDbEntity
  8
SEMA2D
100
AcDbLine
 62
7
  6
_SOLID
370
9
 10
3.23837327957153
 20
0.378686875104904
 11
3.22888159751892
 21
0.368960082530975
  0
LINE
  5
97
100
AcDbEntity
  8
SEMA2D
100
AcDbLine
 62
7
  6
_SOLID
370
9
 10
3.23828148841858
 20
0.36440709233284
 11
3.23760724067688
 21
0.362952619791031
  0
LINE
  5
98
100
AcDbEntity
  8
SEMA2D
100
AcDbLine
 62
7
  6
_SOLID
370
9
 10
3.17248702049255
 20
0.40474659204483
 11
3.13924741744995
 21
0.40474659204483
  0
LINE
  5
99
100
AcDbEntity
  8
SEMA2D
100
AcDbLine
 62
7
  6
_SOLID
370
9
 10
3.25406312942505
 20
0.40474659204483
 11
3.22082328796387
 21
0.40474659204483
  0
LINE
  5
9A
100
AcDbEntity
  8
SEMA2D
100
AcDbLine
 62
7
  6
_SOLID
370
9
 10
3.22630071640015
 20
0.371605008840561
 11
3.22888159751892
 21
0.368960082530975
  0
LINE
  5
9B
100
AcDbEntity
  8
SEMA2D
100
AcDbLine
 62
7
  6
_SOLID
370
9
 10
3.2442524433136
 20
0.449675381183624
 11
3.2442524433136
 21
0.441615432500839
  0
LINE
  5
9C
100
AcDbEntity
  8
SEMA2D
100
AcDbLine
 62
7
  6
_SOLID
370
9
 10
3.25407934188843
 20
0.410809993743897
 11
3.25536274909973
 21
0.42372989654541
  0
LINE
  5
9D
100
AcDbEntity
  8
SEMA2D
100
AcDbLine
 62
7
  6
_SOLID
370
9
 10
3.25407934188843
 20
0.431710004806519
 11
3.25506329536438
 21
0.441615432500839
  0
LINE
  5
9E
100
AcDbEntity
  8
SEMA2D
100
AcDbLine
 62
7
  6
_SOLID
370
9
 10
3.25406312942505
 20
0.409985184669495
 11
3.25406312942505
 21
0.40474659204483
  0
LINE
  5
9F
100
AcDbEntity
  8
SEMA2D
100
AcDbLine
 62
7
  6
_SOLID
370
9
 10
3.25406312942505
 20
0.430885165929794
 11
3.25406312942505
 21
0.425382673740387
  0
ARC
  5
A0
100
AcDbEntity
  8
SEMA2D
100
AcDbCircle
 62
7
  6
_SOLID
370
9
 10
3.1966552734375
 20
0.41163557767868
 40
0.0116788744926453
100
AcDbArc
 50
358.602478027344
 51
181.397537231445
  0
ARC
  5
A1
100
AcDbEntity
  8
SEMA2D
100
AcDbCircle
 62
7
  6
_SOLID
370
9
 10
3.11099720001221
 20
0.454884737730026
 40
0.087958924472332
100
AcDbArc
 50
299.970245361328
 51
327.256866455078
  0
ARC
  5
A2
100
AcDbEntity
  8
SEMA2D
100
AcDbCircle
 62
7
  6
_SOLID
370
9
 10
3.28229022026062
 20
0.454859018325806
 40
0.0879254639148712
100
AcDbArc
 50
212.736907958984
 51
240.034484863281
  0
ARC
  5
A3
100
AcDbEntity
  8
SEMA2D
100
AcDbCircle
 62
7
  6
_SOLID
370
9
 10
3.28277635574341
 20
0.454925924539566
 40
0.10065720975399
100
AcDbArc
 50
211.175155639648
 51
235.870223999023
  0
ARC
  5
A4
100
AcDbEntity
  8
SEMA2D
100
AcDbCircle
 62
7
  6
_SOLID
370
9
 10
3.11051917076111
 20
0.454939991235733
 40
0.10067717730999
100
AcDbArc
 50
304.132263183594
 51
328.822357177734
  0
ARC
  5
A5
100
AcDbEntity
  8
SEMA2D
100
AcDbCircle
 62
7
  6
_SOLID
370
9
 10
3.14152193069458
 20
0.401973068714142
 40
0.0166109967976809
100
AcDbArc
 50
175.616638183594
 51
228.399032592773
  0
ARC
  5
A6
100
AcDbEntity
  8
SEMA2D
100
AcDbCircle
 62
7
  6
_SOLID
370
9
 10
3.25178861618042
 20
0.401973068714142
 40
0.0166109967976809
100
AcDbArc
 50
311.600952148438
 51
4.38336896896362
  0
ARC
  5
A7
100
AcDbEntity
  8
SEMA2D
100
AcDbCircle
 62
7
  6
_SOLID
370
9
 10
3.2399275302887
 20
0.37030890583992
 40
0.00771356513723731
100
AcDbArc
 50
252.493667602539
 51
304.219604492188
  0
LINE
  5
A8
100
AcDbEntity
  8
SEMA2D
100
AcDbLine
 62
7
  6
_SOLID
370
9
 10
3.15502882003784
 20
0.36440709233284
 11
3.15570330619812
 21
0.362952619791031
  0
ARC
  5
A9
100
AcDbEntity
  8
SEMA2D
100
AcDbCircle
 62
7
  6
_SOLID
370
9
 10
3.1533830165863
 20
0.37030890583992
 40
0.00771356513723731
100
AcDbArc
 50
235.780410766602
 51
287.506317138672
  0
ARC
  5
AA
100
AcDbEntity
  8
SEMA2D
100
AcDbCircle
 62
7
  6
_SOLID
370
9
 10
3.17255544662476
 20
0.421377450227737
 40
0.0620714537799358
100
AcDbArc
 50
193.91357421875
 51
247.743072509766
  0
ARC
  5
AB
100
AcDbEntity
  8
SEMA2D
100
AcDbCircle
 62
7
  6
_SOLID
370
9
 10
3.22075510025024
 20
0.421377450227737
 40
0.0620714537799358
100
AcDbArc
 50
292.256927490234
 51
346.08642578125
  0
ARC
  5
AC
100
AcDbEntity
  8
SEMA2D
100
AcDbCircle
 62
7
  6
_SOLID
370
9
 10
3.26260447502136
 20
0.444022983312607
 40
0.00574844796210527
100
AcDbArc
 50
1.51919221878052
 51
79.5115966796875
  0
ARC
  5
AD
100
AcDbEntity
  8
SEMA2D
100
AcDbCircle
 62
7
  6
_SOLID
370
9
 10
3.13070583343506
 20
0.444022983312607
 40
0.00574844796210527
100
AcDbArc
 50
100.488403320312
 51
178.480804443359
  0
LINE
  5
AE
100
AcDbEntity
  8
SEMA2D
100
AcDbLine
 62
7
  6
_SOLID
370
9
 10
2.96007084846497
 20
0.444991618394852
 11
2.94213604927063
 21
0.441750764846802
  0
LINE
  5
AF
100
AcDbEntity
  8
SEMA2D
100
AcDbLine
 62
7
  6
_SOLID
370
9
 10
2.96160292625427
 20
0.446862757205963
 11
2.96160292625427
 21
0.454066842794418
  0
LINE
  5
B0
100
AcDbEntity
  8
SEMA2D
100
AcDbLine
 62
7
  6
_SOLID
370
9
 10
2.94213604927063
 20
0.457533329725265
 11
2.94213604927063
 21
0.24036218225956
  0
LINE
  5
B1
100
AcDbEntity
  8
SEMA2D
100
AcDbLine
 62
7
  6
_SOLID
370
9
 10
2.93472003936768
 20
0.462650746107101
 11
2.93472003936768
 21
0.238688245415688
  0
LINE
  5
B2
100
AcDbEntity
  8
SEMA2D
100
AcDbLine
 62
7
  6
_SOLID
370
9
 10
2.93359899520874
 20
0.462650746107101
 11
2.93359899520874
 21
0.46246263384819
  0
LINE
  5
B3
100
AcDbEntity
  8
SEMA2D
100
AcDbLine
 62
7
  6
_SOLID
370
9
 10
2.93750095367432
 20
0.238688245415688
 11
2.93750095367432
 21
0.462650746107101
  0
LINE
  5
B4
100
AcDbEntity
  8
SEMA2D
100
AcDbLine
 62
7
  6
_SOLID
370
9
 10
2.92802381515503
 20
0.459709733724594
 11
2.92680788040161
 21
0.459375828504562
  0
LINE
  5
B5
100
AcDbEntity
  8
SEMA2D
100
AcDbLine
 62
7
  6
_SOLID
370
9
 10
2.94213604927063
 20
0.457533329725265
 11
2.93889164924622
 21
0.459453016519546
  0
LINE
  5
B6
100
AcDbEntity
  8
SEMA2D
100
AcDbLine
 62
7
  6
_SOLID
370
9
 10
2.93008494377136
 20
0.462650746107101
 11
2.93008494377136
 21
0.462462663650513
  0
LINE
  5
B7
100
AcDbEntity
  8
SEMA2D
100
AcDbLine
 62
7
  6
_SOLID
370
9
 10
2.94213604927063
 20
0.24036218225956
 11
2.93750095367432
 21
0.240113243460655
  0
LINE
  5
B8
100
AcDbEntity
  8
SEMA2D
100
AcDbLine
 62
7
  6
_SOLID
370
9
 10
2.9284520149231
 20
0.459814548492432
 11
2.9284520149231
 21
0.239737391471863
  0
LINE
  5
B9
100
AcDbEntity
  8
SEMA2D
100
AcDbLine
 62
7
  6
_SOLID
370
9
 10
2.92405939102173
 20
0.455705314874649
 11
2.92405939102173
 21
0.243579372763634
  0
LINE
  5
BA
100
AcDbEntity
  8
SEMA2D
100
AcDbLine
 62
7
  6
_SOLID
370
9
 10
2.93750095367432
 20
0.238688245415688
 11
2.93472003936768
 21
0.238688245415688
  0
LINE
  5
BB
100
AcDbEntity
  8
SEMA2D
100
AcDbLine
 62
7
  6
_SOLID
370
9
 10
2.92757368087769
 20
0.239784568548203
 11
2.93472003936768
 21
0.239400744438171
  0
LINE
  5
BC
100
AcDbEntity
  8
SEMA2D
100
AcDbLine
 62
7
  6
_SOLID
370
9
 10
2.93359899520874
 20
0.46246263384819
 11
2.93008494377136
 21
0.46246263384819
  0
LINE
  5
BD
100
AcDbEntity
  8
SEMA2D
100
AcDbLine
 62
7
  6
_SOLID
370
9
 10
2.93008494377136
 20
0.462650746107101
 11
2.93750095367432
 21
0.462650746107101
  0
LINE
  5
BE
100
AcDbEntity
  8
SEMA2D
100
AcDbLine
 62
7
  6
_SOLID
370
9
 10
2.96000695228577
 20
0.455948323011398
 11
2.94037294387817
 21
0.458776205778122
  0
ARC
  5
BF
100
AcDbEntity
  8
SEMA2D
100
AcDbCircle
 62
7
  6
_SOLID
370
9
 10
2.92765784263611
 20
0.462131828069687
 40
0.00244956579990685
100
AcDbArc
 50
278.590209960938
 51
7.76135635375977
  0
ARC
  5
C0
100
AcDbEntity
  8
SEMA2D
100
AcDbCircle
 62
7
  6
_SOLID
370
9
 10
2.92822957038879
 20
0.455447196960449
 40
0.00417797826230526
100
AcDbArc
 50
109.894149780273
 51
176.457809448242
  0
ARC
  5
C1
100
AcDbEntity
  8
SEMA2D
100
AcDbCircle
 62
7
  6
_SOLID
370
9
 10
2.94098782539368
 20
0.462233573198318
 40
0.00351162720471621
100
AcDbArc
 50
173.177322387695
 51
259.916412353516
  0
ARC
  5
C2
100
AcDbEntity
  8
SEMA2D
100
AcDbCircle
 62
7
  6
_SOLID
370
9
 10
2.95980668067932
 20
0.454160809516907
 40
0.00179870030842721
100
AcDbArc
 50
-2.99541306495666
 51
83.6073532104492
  0
ARC
  5
C3
100
AcDbEntity
  8
SEMA2D
100
AcDbCircle
 62
7
  6
_SOLID
370
9
 10
2.95886468887329
 20
0.447541981935501
 40
0.00282118236646056
100
AcDbArc
 50
295.310974121094
 51
346.06884765625
  0
ARC
  5
C4
100
AcDbEntity
  8
SEMA2D
100
AcDbCircle
 62
7
  6
_SOLID
370
9
 10
2.92781448364258
 20
0.24353215098381
 40
0.00375531986355782
100
AcDbArc
 50
179.231399536133
 51
266.321380615234
  0
LINE
  5
C5
100
AcDbEntity
  8
SEMA2D
100
AcDbLine
 62
7
  6
_SOLID
370
9
 10
3.1116030216217
 20
0.699724674224854
 11
3.2817075252533
 21
0.699724674224854
  0
LINE
  5
C6
100
AcDbEntity
  8
SEMA2D
100
AcDbLine
 62
7
  6
_SOLID
370
9
 10
3.1116030216217
 20
0.699724674224854
 11
3.1116030216217
 21
0.70672470331192
  0
LINE
  5
C7
100
AcDbEntity
  8
SEMA2D
100
AcDbLine
 62
7
  6
_SOLID
370
9
 10
3.1116030216217
 20
0.699724674224854
 11
3.1116030216217
 21
0.692724704742432
  0
LINE
  5
C8
100
AcDbEntity
  8
SEMA2D
100
AcDbLine
 62
7
  6
_SOLID
370
9
 10
3.1116030216217
 20
0.699724674224854
 11
3.11766529083252
 21
0.703224658966065
  0
LINE
  5
C9
100
AcDbEntity
  8
SEMA2D
100
AcDbLine
 62
7
  6
_SOLID
370
9
 10
3.1116030216217
 20
0.699724674224854
 11
3.10554075241089
 21
0.696224689483643
  0
LINE
  5
CA
100
AcDbEntity
  8
SEMA2D
100
AcDbLine
 62
7
  6
_DOT
370
9
 10
3.1116030216217
 20
0.649724662303925
 11
3.1116030216217
 21
0.699724674224854
  0
LINE
  5
CB
100
AcDbEntity
  8
SEMA2D
100
AcDbLine
 62
7
  6
_DOT
370
9
 10
3.1116030216217
 20
0.649724662303925
 11
3.1116030216217
 21
0.649724662303925
  0
MTEXT
  5
CC
100
AcDbEntity
  8
SEMATEXT
100
AcDbMText
 62
7
 10
3.1891667842865
 20
0.704577207565308
 40
0.00800000037997961
 71
7
  1
{\fArial Narrow;170}
  7
STANDARD
 73
2
  0
LINE
  5
CD
100
AcDbEntity
  8
SEMA2D
100
AcDbLine
 62
7
  6
_SOLID
370
9
 10
3.2817075252533
 20
0.699724674224854
 11
3.2817075252533
 21
0.70672470331192
  0
LINE
  5
CE
100
AcDbEntity
  8
SEMA2D
100
AcDbLine
 62
7
  6
_SOLID
370
9
 10
3.2817075252533
 20
0.699724674224854
 11
3.2817075252533
 21
0.692724704742432
  0
LINE
  5
CF
100
AcDbEntity
  8
SEMA2D
100
AcDbLine
 62
7
  6
_SOLID
370
9
 10
3.2817075252533
 20
0.699724674224854
 11
3.28776979446411
 21
0.703224658966065
  0
LINE
  5
D0
100
AcDbEntity
  8
SEMA2D
100
AcDbLine
 62
7
  6
_SOLID
370
9
 10
3.2817075252533
 20
0.699724674224854
 11
3.27564525604248
 21
0.696224689483643
  0
LINE
  5
D1
100
AcDbEntity
  8
SEMA2D
100
AcDbLine
 62
7
  6
_DOT
370
9
 10
3.2817075252533
 20
0.649724662303925
 11
3.2817075252533
 21
0.699724674224854
  0
LINE
  5
D2
100
AcDbEntity
  8
SEMA2D
100
AcDbLine
 62
7
  6
_DOT
370
9
 10
3.2817075252533
 20
0.649724662303925
 11
3.2817075252533
 21
0.649724662303925
  0
LINE
  5
D3
100
AcDbEntity
  8
SEMA2D
100
AcDbLine
 62
7
  6
_SOLID
370
9
 10
3.1116030216217
 20
0.512650728225708
 11
3.2817075252533
 21
0.512650728225708
  0
LINE
  5
D4
100
AcDbEntity
  8
SEMA2D
100
AcDbLine
 62
7
  6
_SOLID
370
9
 10
3.1116030216217
 20
0.512650728225708
 11
3.1116030216217
 21
0.519650757312775
  0
LINE
  5
D5
100
AcDbEntity
  8
SEMA2D
100
AcDbLine
 62
7
  6
_SOLID
370
9
 10
3.1116030216217
 20
0.512650728225708
 11
3.1116030216217
 21
0.505650758743286
  0
LINE
  5
D6
100
AcDbEntity
  8
SEMA2D
100
AcDbLine
 62
7
  6
_SOLID
370
9
 10
3.1116030216217
 20
0.512650728225708
 11
3.11766529083252
 21
0.516150772571564
  0
LINE
  5
D7
100
AcDbEntity
  8
SEMA2D
100
AcDbLine
 62
7
  6
_SOLID
370
9
 10
3.1116030216217
 20
0.512650728225708
 11
3.10554075241089
 21
0.509150743484497
  0
LINE
  5
D8
100
AcDbEntity
  8
SEMA2D
100
AcDbLine
 62
7
  6
_DOT
370
9
 10
3.1116030216217
 20
0.462650746107101
 11
3.1116030216217
 21
0.512650728225708
  0
LINE
  5
D9
100
AcDbEntity
  8
SEMA2D
100
AcDbLine
 62
7
  6
_DOT
370
9
 10
3.1116030216217
 20
0.462650746107101
 11
3.1116030216217
 21
0.462650746107101
  0
MTEXT
  5
DA
100
AcDbEntity
  8
SEMATEXT
100
AcDbMText
 62
7
 10
3.1891667842865
 20
0.517503261566162
 40
0.00800000037997961
 71
7
  1
{\fArial Narrow;170}
  7
STANDARD
 73
2
  0
LINE
  5
DB
100
AcDbEntity
  8
SEMA2D
100
AcDbLine
 62
7
  6
_SOLID
370
9
 10
3.2817075252533
 20
0.512650728225708
 11
3.2817075252533
 21
0.519650757312775
  0
LINE
  5
DC
100
AcDbEntity
  8
SEMA2D
100
AcDbLine
 62
7
  6
_SOLID
370
9
 10
3.2817075252533
 20
0.512650728225708
 11
3.2817075252533
 21
0.505650758743286
  0
LINE
  5
DD
100
AcDbEntity
  8
SEMA2D
100
AcDbLine
 62
7
  6
_SOLID
370
9
 10
3.2817075252533
 20
0.512650728225708
 11
3.28776979446411
 21
0.516150772571564
  0
LINE
  5
DE
100
AcDbEntity
  8
SEMA2D
100
AcDbLine
 62
7
  6
_SOLID
370
9
 10
3.2817075252533
 20
0.512650728225708
 11
3.27564525604248
 21
0.509150743484497
  0
LINE
  5
DF
100
AcDbEntity
  8
SEMA2D
100
AcDbLine
 62
7
  6
_DOT
370
9
 10
3.2817075252533
 20
0.462650746107101
 11
3.2817075252533
 21
0.512650728225708
  0
LINE
  5
E0
100
AcDbEntity
  8
SEMA2D
100
AcDbLine
 62
7
  6
_DOT
370
9
 10
3.2817075252533
 20
0.462650746107101
 11
3.2817075252533
 21
0.462650746107101
  0
LINE
  5
E1
100
AcDbEntity
  8
SEMA2D
100
AcDbLine
 62
7
  6
_SOLID
370
9
 10
2.92405939102173
 20
0.512462615966797
 11
2.96160292625427
 21
0.512462615966797
  0
LINE
  5
E2
100
AcDbEntity
  8
SEMA2D
100
AcDbLine
 62
7
  6
_SOLID
370
9
 10
2.92405939102173
 20
0.512462615966797
 11
2.92405939102173
 21
0.519462645053864
  0
LINE
  5
E3
100
AcDbEntity
  8
SEMA2D
100
AcDbLine
 62
7
  6
_SOLID
370
9
 10
2.92405939102173
 20
0.512462615966797
 11
2.92405939102173
 21
0.505462646484375
  0
LINE
  5
E4
100
AcDbEntity
  8
SEMA2D
100
AcDbLine
 62
7
  6
_SOLID
370
9
 10
2.92405939102173
 20
0.512462615966797
 11
2.93012166023254
 21
0.515962660312653
  0
LINE
  5
E5
100
AcDbEntity
  8
SEMA2D
100
AcDbLine
 62
7
  6
_SOLID
370
9
 10
2.92405939102173
 20
0.512462615966797
 11
2.91799736022949
 21
0.508962631225586
  0
LINE
  5
E6
100
AcDbEntity
  8
SEMA2D
100
AcDbLine
 62
7
  6
_DOT
370
9
 10
2.92405939102173
 20
0.46246263384819
 11
2.92405939102173
 21
0.512462615966797
  0
LINE
  5
E7
100
AcDbEntity
  8
SEMA2D
100
AcDbLine
 62
7
  6
_DOT
370
9
 10
2.92405939102173
 20
0.46246263384819
 11
2.92405939102173
 21
0.46246263384819
  0
MTEXT
  5
E8
100
AcDbEntity
  8
SEMATEXT
100
AcDbMText
 62
7
 10
2.92810535430908
 20
0.517315149307251
 40
0.00800000037997961
 71
7
  1
{\fArial Narrow;18}
  7
STANDARD
 73
2
  0
LINE
  5
E9
100
AcDbEntity
  8
SEMA2D
100
AcDbLine
 62
7
  6
_SOLID
370
9
 10
2.94213604927063
 20
0.512462615966797
 11
2.94213604927063
 21
0.519462645053864
  0
LINE
  5
EA
100
AcDbEntity
  8
SEMA2D
100
AcDbLine
 62
7
  6
_SOLID
370
9
 10
2.94213604927063
 20
0.512462615966797
 11
2.94213604927063
 21
0.505462646484375
  0
LINE
  5
EB
100
AcDbEntity
  8
SEMA2D
100
AcDbLine
 62
7
  6
_SOLID
370
9
 10
2.94213604927063
 20
0.512462615966797
 11
2.94819808006287
 21
0.515962660312653
  0
LINE
  5
EC
100
AcDbEntity
  8
SEMA2D
100
AcDbLine
 62
7
  6
_SOLID
370
9
 10
2.94213604927063
 20
0.512462615966797
 11
2.93607378005981
 21
0.508962631225586
  0
LINE
  5
ED
100
AcDbEntity
  8
SEMA2D
100
AcDbLine
 62
7
  6
_DOT
370
9
 10
2.94213604927063
 20
0.46246263384819
 11
2.94213604927063
 21
0.512462615966797
  0
LINE
  5
EE
100
AcDbEntity
  8
SEMA2D
100
AcDbLine
 62
7
  6
_DOT
370
9
 10
2.94213604927063
 20
0.46246263384819
 11
2.94213604927063
 21
0.46246263384819
  0
MTEXT
  5
EF
100
AcDbEntity
  8
SEMATEXT
100
AcDbMText
 62
7
 10
2.94687724113464
 20
0.517315149307251
 40
0.00800000037997961
 71
7
  1
{\fArial Narrow;19}
  7
STANDARD
 73
2
  0
LINE
  5
F0
100
AcDbEntity
  8
SEMA2D
100
AcDbLine
 62
7
  6
_SOLID
370
9
 10
2.96160292625427
 20
0.512462615966797
 11
2.96160292625427
 21
0.519462645053864
  0
LINE
  5
F1
100
AcDbEntity
  8
SEMA2D
100
AcDbLine
 62
7
  6
_SOLID
370
9
 10
2.96160292625427
 20
0.512462615966797
 11
2.96160292625427
 21
0.505462646484375
  0
LINE
  5
F2
100
AcDbEntity
  8
SEMA2D
100
AcDbLine
 62
7
  6
_SOLID
370
9
 10
2.96160292625427
 20
0.512462615966797
 11
2.96766519546509
 21
0.515962660312653
  0
LINE
  5
F3
100
AcDbEntity
  8
SEMA2D
100
AcDbLine
 62
7
  6
_SOLID
370
9
 10
2.96160292625427
 20
0.512462615966797
 11
2.95554089546204
 21
0.508962631225586
  0
LINE
  5
F4
100
AcDbEntity
  8
SEMA2D
100
AcDbLine
 62
7
  6
_DOT
370
9
 10
2.96160292625427
 20
0.46246263384819
 11
2.96160292625427
 21
0.512462615966797
  0
LINE
  5
F5
100
AcDbEntity
  8
SEMA2D
100
AcDbLine
 62
7
  6
_DOT
370
9
 10
2.96160292625427
 20
0.512462615966797
 11
2.96160292625427
 21
0.46246263384819
  0
LINE
  5
F6
100
AcDbEntity
  8
SEMA2D
100
AcDbLine
 62
7
  6
_SOLID
370
9
 10
2.87405967712402
 20
0.238688245415688
 11
2.87405967712402
 21
0.46246263384819
  0
LINE
  5
F7
100
AcDbEntity
  8
SEMA2D
100
AcDbLine
 62
7
  6
_SOLID
370
9
 10
2.87405967712402
 20
0.238688245415688
 11
2.86705946922302
 21
0.238688245415688
  0
LINE
  5
F8
100
AcDbEntity
  8
SEMA2D
100
AcDbLine
 62
7
  6
_SOLID
370
9
 10
2.87405967712402
 20
0.238688245415688
 11
2.88105964660645
 21
0.238688245415688
  0
LINE
  5
F9
100
AcDbEntity
  8
SEMA2D
100
AcDbLine
 62
7
  6
_SOLID
370
9
 10
2.87405967712402
 20
0.238688245415688
 11
2.87055969238281
 21
0.244750425219536
  0
LINE
  5
FA
100
AcDbEntity
  8
SEMA2D
100
AcDbLine
 62
7
  6
_SOLID
370
9
 10
2.87405967712402
 20
0.238688245415688
 11
2.87755966186523
 21
0.232626065611839
  0
LINE
  5
FB
100
AcDbEntity
  8
SEMA2D
100
AcDbLine
 62
7
  6
_DOT
370
9
 10
2.92405962944031
 20
0.238688245415688
 11
2.87405967712402
 21
0.238688245415688
  0
LINE
  5
FC
100
AcDbEntity
  8
SEMA2D
100
AcDbLine
 62
7
  6
_DOT
370
9
 10
2.92405962944031
 20
0.238688245415688
 11
2.92405962944031
 21
0.238688245415688
  0
MTEXT
  5
FD
100
AcDbEntity
  8
SEMATEXT
100
AcDbMText
 62
7
 10
2.86920714378357
 20
0.342338174581528
 40
0.00800000037997961
 50
90
 71
7
  1
{\fArial Narrow;224}
  7
STANDARD
 73
2
  0
LINE
  5
FE
100
AcDbEntity
  8
SEMA2D
100
AcDbLine
 62
7
  6
_SOLID
370
9
 10
2.87405967712402
 20
0.46246263384819
 11
2.86705946922302
 21
0.46246263384819
  0
LINE
  5
FF
100
AcDbEntity
  8
SEMA2D
100
AcDbLine
 62
7
  6
_SOLID
370
9
 10
2.87405967712402
 20
0.46246263384819
 11
2.88105964660645
 21
0.46246263384819
  0
LINE
  5
100
100
AcDbEntity
  8
SEMA2D
100
AcDbLine
 62
7
  6
_SOLID
370
9
 10
2.87405967712402
 20
0.46246263384819
 11
2.87055969238281
 21
0.468524813652039
  0
LINE
  5
101
100
AcDbEntity
  8
SEMA2D
100
AcDbLine
 62
7
  6
_SOLID
370
9
 10
2.87405967712402
 20
0.46246263384819
 11
2.87755966186523
 21
0.456400454044342
  0
LINE
  5
102
100
AcDbEntity
  8
SEMA2D
100
AcDbLine
 62
7
  6
_DOT
370
9
 10
2.92405962944031
 20
0.46246263384819
 11
2.87405967712402
 21
0.46246263384819
  0
LINE
  5
103
100
AcDbEntity
  8
SEMA2D
100
AcDbLine
 62
7
  6
_DOT
370
9
 10
2.92405962944031
 20
0.46246263384819
 11
2.92405962944031
 21
0.46246263384819
  0
LINE
  5
104
100
AcDbEntity
  8
SEMA2D
100
AcDbLine
 62
7
  6
_SOLID
370
9
 10
3.33170747756958
 20
0.238688245415688
 11
3.33170747756958
 21
0.462650746107101
  0
LINE
  5
105
100
AcDbEntity
  8
SEMA2D
100
AcDbLine
 62
7
  6
_SOLID
370
9
 10
3.33170747756958
 20
0.238688245415688
 11
3.32470750808716
 21
0.238688245415688
  0
LINE
  5
106
100
AcDbEntity
  8
SEMA2D
100
AcDbLine
 62
7
  6
_SOLID
370
9
 10
3.33170747756958
 20
0.238688245415688
 11
3.338707447052
 21
0.238688245415688
  0
LINE
  5
107
100
AcDbEntity
  8
SEMA2D
100
AcDbLine
 62
7
  6
_SOLID
370
9
 10
3.33170747756958
 20
0.238688245415688
 11
3.32820749282837
 21
0.244750425219536
  0
LINE
  5
108
100
AcDbEntity
  8
SEMA2D
100
AcDbLine
 62
7
  6
_SOLID
370
9
 10
3.33170747756958
 20
0.238688245415688
 11
3.33520746231079
 21
0.232626065611839
  0
LINE
  5
109
100
AcDbEntity
  8
SEMA2D
100
AcDbLine
 62
7
  6
_DOT
370
9
 10
3.2817075252533
 20
0.238688245415688
 11
3.33170747756958
 21
0.238688245415688
  0
LINE
  5
10A
100
AcDbEntity
  8
SEMA2D
100
AcDbLine
 62
7
  6
_DOT
370
9
 10
3.2817075252533
 20
0.238688245415688
 11
3.2817075252533
 21
0.238688245415688
  0
MTEXT
  5
10B
100
AcDbEntity
  8
SEMATEXT
100
AcDbMText
 62
7
 10
3.32685494422913
 20
0.342432230710983
 40
0.00800000037997961
 50
90
 71
7
  1
{\fArial Narrow;224}
  7
STANDARD
 73
2
  0
LINE
  5
10C
100
AcDbEntity
  8
SEMA2D
100
AcDbLine
 62
7
  6
_SOLID
370
9
 10
3.33170747756958
 20
0.462650746107101
 11
3.32470750808716
 21
0.462650746107101
  0
LINE
  5
10D
100
AcDbEntity
  8
SEMA2D
100
AcDbLine
 62
7
  6
_SOLID
370
9
 10
3.33170747756958
 20
0.462650746107101
 11
3.338707447052
 21
0.462650746107101
  0
LINE
  5
10E
100
AcDbEntity
  8
SEMA2D
100
AcDbLine
 62
7
  6
_SOLID
370
9
 10
3.33170747756958
 20
0.462650746107101
 11
3.32820749282837
 21
0.46871292591095
  0
LINE
  5
10F
100
AcDbEntity
  8
SEMA2D
100
AcDbLine
 62
7
  6
_SOLID
370
9
 10
3.33170747756958
 20
0.462650746107101
 11
3.33520746231079
 21
0.456588566303253
  0
LINE
  5
110
100
AcDbEntity
  8
SEMA2D
100
AcDbLine
 62
7
  6
_DOT
370
9
 10
3.2817075252533
 20
0.462650746107101
 11
3.33170747756958
 21
0.462650746107101
  0
LINE
  5
111
100
AcDbEntity
  8
SEMA2D
100
AcDbLine
 62
7
  6
_DOT
370
9
 10
3.2817075252533
 20
0.462650746107101
 11
3.2817075252533
 21
0.462650746107101
  0
LINE
  5
112
100
AcDbEntity
  8
SEMA2D
100
AcDbLine
 62
7
  6
_SOLID
370
9
 10
2.99213600158691
 20
0.238688245415688
 11
2.99213600158691
 21
0.440688252449036
  0
LINE
  5
113
100
AcDbEntity
  8
SEMA2D
100
AcDbLine
 62
7
  6
_SOLID
370
9
 10
2.99213600158691
 20
0.238688245415688
 11
2.98513603210449
 21
0.238688245415688
  0
LINE
  5
114
100
AcDbEntity
  8
SEMA2D
100
AcDbLine
 62
7
  6
_SOLID
370
9
 10
2.99213600158691
 20
0.238688245415688
 11
2.99913597106934
 21
0.238688245415688
  0
LINE
  5
115
100
AcDbEntity
  8
SEMA2D
100
AcDbLine
 62
7
  6
_SOLID
370
9
 10
2.99213600158691
 20
0.238688245415688
 11
2.9886360168457
 21
0.244750425219536
  0
LINE
  5
116
100
AcDbEntity
  8
SEMA2D
100
AcDbLine
 62
7
  6
_SOLID
370
9
 10
2.99213600158691
 20
0.238688245415688
 11
2.99563598632812
 21
0.232626065611839
  0
LINE
  5
117
100
AcDbEntity
  8
SEMA2D
100
AcDbLine
 62
7
  6
_DOT
370
9
 10
2.94213604927063
 20
0.238688245415688
 11
2.99213600158691
 21
0.238688245415688
  0
LINE
  5
118
100
AcDbEntity
  8
SEMA2D
100
AcDbLine
 62
7
  6
_DOT
370
9
 10
2.94213604927063
 20
0.238688245415688
 11
2.94213604927063
 21
0.238688245415688
  0
MTEXT
  5
119
100
AcDbEntity
  8
SEMATEXT
100
AcDbMText
 62
7
 10
2.98728346824646
 20
0.331450968980789
 40
0.00800000037997961
 50
90
 71
7
  1
{\fArial Narrow;202}
  7
STANDARD
 73
2
  0
LINE
  5
11A
100
AcDbEntity
  8
SEMA2D
100
AcDbLine
 62
7
  6
_SOLID
370
9
 10
2.99213600158691
 20
0.440688252449036
 11
2.98513603210449
 21
0.440688252449036
  0
LINE
  5
11B
100
AcDbEntity
  8
SEMA2D
100
AcDbLine
 62
7
  6
_SOLID
370
9
 10
2.99213600158691
 20
0.440688252449036
 11
2.99913597106934
 21
0.440688252449036
  0
LINE
  5
11C
100
AcDbEntity
  8
SEMA2D
100
AcDbLine
 62
7
  6
_SOLID
370
9
 10
2.99213600158691
 20
0.440688252449036
 11
2.9886360168457
 21
0.446750432252884
  0
LINE
  5
11D
100
AcDbEntity
  8
SEMA2D
100
AcDbLine
 62
7
  6
_SOLID
370
9
 10
2.99213600158691
 20
0.440688252449036
 11
2.99563598632812
 21
0.434626072645187
  0
LINE
  5
11E
100
AcDbEntity
  8
SEMA2D
100
AcDbLine
 62
7
  6
_DOT
370
9
 10
2.94213604927063
 20
0.440688252449036
 11
2.99213600158691
 21
0.440688252449036
  0
LINE
  5
11F
100
AcDbEntity
  8
SEMA2D
100
AcDbLine
 62
7
  6
_DOT
370
9
 10
2.99213600158691
 20
0.440688252449036
 11
2.94213604927063
 21
0.440688252449036
  0
ENDSEC
  0
SECTION
  2
OBJECTS
  0
DICTIONARY
  5
 13
330
0
100
AcDbDictionary
281
     1
  3
ACAD_GROUP
350
 14
 3
ACAD_MLINESTYLE
350
 16
  3
ACAD_PLOTSETTINGS
350
 17
  3
ACAD_PLOTSTYLENAME
350
 18
  0
DICTIONARY
  5
 14
330
 13
100
AcDbDictionary
281
     1
  0
DICTIONARY
  5
 16
330
 13
100
AcDbDictionary
281
     1
  0
DICTIONARY
  5
 17
102
{ACAD_REACTORS
330
 13
102
}
330
 13
100
AcDbDictionary
281
     1
  0
ACDBDICTIONARYWDFLT
  5
 18
102
{ACAD_REACTORS
330
 13
102
}
330
 13
100
AcDbDictionary
281
     1
  3
Normal
350
 19
100
AcDbDictionaryWithDefault
340
 19
  0
ACDBPLACEHOLDER
  5
 19
102
{ACAD_REACTORS
330
 18
102
}
330
 18
  0
ENDSEC
  0
EOF
