  0
SECTION
  2
HEADER
  9
$ACADVER
  1
AC1015
  9
$HANDSEED
  5
108
  9
$LIMMIN
 10
3.81472945213318
 20
0.206400454044342
  9
$LIMMAX
 10
4.338707447052
 20
0.707194268703461
  9
$MEASUREMENT
 70
1
  0
ENDSEC
  0
SECTION
  2
TABLES
  0
TABLE
  2
VPORT
  5
  1
100
AcDbSymbolTable
  0
ENDTAB
  0
TABLE
  2
LTYPE
  5
  2
100
AcDbSymbolTable
  0
LTYPE
  5
  3
100
AcDbSymbolTableRecord
100
AcDbLinetypeTableRecord
  2
BYBLOCK
 70
     0
  0
LTYPE
  5
  4
100
AcDbSymbolTableRecord
100
AcDbLinetypeTableRecord
  2
BYLAYER
 70
     0
  0
LTYPE
  5
20
100
AcDbSymbolTableRecord
100
AcDbLinetypeTableRecord
  2
_SOLID
  3

 70
0
 72
65
 73
2
 40
5
 49
5
 74
0
 49
0
 74
0
  0
LTYPE
  5
21
100
AcDbSymbolTableRecord
100
AcDbLinetypeTableRecord
  2
_DASH
  3

 70
0
 72
65
 73
2
 40
7
 49
5
 74
0
 49
-2
 74
0
  0
LTYPE
  5
22
100
AcDbSymbolTableRecord
100
AcDbLinetypeTableRecord
  2
_DOT
  3

 70
0
 72
65
 73
2
 40
4
 49
2
 74
0
 49
-2
 74
0
  0
LTYPE
  5
23
100
AcDbSymbolTableRecord
100
AcDbLinetypeTableRecord
  2
_DASHDOT
  3

 70
0
 72
65
 73
4
 40
11
 49
5
 74
0
 49
-2
 74
0
 49
2
 74
0
 49
-2
 74
0
  0
LTYPE
  5
24
100
AcDbSymbolTableRecord
100
AcDbLinetypeTableRecord
  2
_DASHDOTDOT
  3

 70
0
 72
65
 73
6
 40
15
 49
5
 74
0
 49
-2
 74
0
 49
2
 74
0
 49
-2
 74
0
 49
2
 74
0
 49
-2
 74
0
  0
LTYPE
  5
25
100
AcDbSymbolTableRecord
100
AcDbLinetypeTableRecord
  2
ISO128-20-02
  3

 70
0
 72
65
 73
2
 40
15
 49
12
 74
0
 49
-3
 74
0
  0
LTYPE
  5
26
100
AcDbSymbolTableRecord
100
AcDbLinetypeTableRecord
  2
ISO128-20-03
  3

 70
0
 72
65
 73
2
 40
30
 49
12
 74
0
 49
-18
 74
0
  0
LTYPE
  5
27
100
AcDbSymbolTableRecord
100
AcDbLinetypeTableRecord
  2
ISO128-20-04
  3

 70
0
 72
65
 73
4
 40
30
 49
24
 74
0
 49
-3
 74
0
 49
0
 74
0
 49
-3
 74
0
  0
LTYPE
  5
28
100
AcDbSymbolTableRecord
100
AcDbLinetypeTableRecord
  2
ISO128-20-05
  3

 70
0
 72
65
 73
6
 40
33
 49
24
 74
0
 49
-3
 74
0
 49
0
 74
0
 49
-3
 74
0
 49
0
 74
0
 49
-3
 74
0
  0
LTYPE
  5
29
100
AcDbSymbolTableRecord
100
AcDbLinetypeTableRecord
  2
ISO128-20-06
  3

 70
0
 72
65
 73
8
 40
36
 49
24
 74
0
 49
-3
 74
0
 49
0
 74
0
 49
-3
 74
0
 49
0
 74
0
 49
-3
 74
0
 49
0
 74
0
 49
-3
 74
0
  0
LTYPE
  5
2A
100
AcDbSymbolTableRecord
100
AcDbLinetypeTableRecord
  2
ISO128-20-07
  3

 70
0
 72
65
 73
2
 40
3
 49
0
 74
0
 49
-3
 74
0
  0
LTYPE
  5
2B
100
AcDbSymbolTableRecord
100
AcDbLinetypeTableRecord
  2
ISO128-20-08
  3

 70
0
 72
65
 73
4
 40
36
 49
24
 74
0
 49
-3
 74
0
 49
6
 74
0
 49
-3
 74
0
  0
LTYPE
  5
2C
100
AcDbSymbolTableRecord
100
AcDbLinetypeTableRecord
  2
ISO128-20-09
  3

 70
0
 72
65
 73
6
 40
45
 49
24
 74
0
 49
-3
 74
0
 49
6
 74
0
 49
-3
 74
0
 49
6
 74
0
 49
-3
 74
0
  0
LTYPE
  5
2D
100
AcDbSymbolTableRecord
100
AcDbLinetypeTableRecord
  2
ISO128-20-10
  3

 70
0
 72
65
 73
4
 40
18
 49
12
 74
0
 49
-3
 74
0
 49
0
 74
0
 49
-3
 74
0
  0
LTYPE
  5
2E
100
AcDbSymbolTableRecord
100
AcDbLinetypeTableRecord
  2
ISO128-20-11
  3

 70
0
 72
65
 73
6
 40
33
 49
12
 74
0
 49
-3
 74
0
 49
12
 74
0
 49
-3
 74
0
 49
0
 74
0
 49
-3
 74
0
  0
LTYPE
  5
2F
100
AcDbSymbolTableRecord
100
AcDbLinetypeTableRecord
  2
ISO128-20-12
  3

 70
0
 72
65
 73
6
 40
21
 49
12
 74
0
 49
-3
 74
0
 49
0
 74
0
 49
-3
 74
0
 49
0
 74
0
 49
-3
 74
0
  0
LTYPE
  5
30
100
AcDbSymbolTableRecord
100
AcDbLinetypeTableRecord
  2
ISO128-20-13
  3

 70
0
 72
65
 73
8
 40
36
 49
12
 74
0
 49
-3
 74
0
 49
12
 74
0
 49
-3
 74
0
 49
0
 74
0
 49
-3
 74
0
 49
0
 74
0
 49
-3
 74
0
  0
LTYPE
  5
31
100
AcDbSymbolTableRecord
100
AcDbLinetypeTableRecord
  2
ISO128-20-14
  3

 70
0
 72
65
 73
8
 40
24
 49
12
 74
0
 49
-3
 74
0
 49
0
 74
0
 49
-3
 74
0
 49
0
 74
0
 49
-3
 74
0
 49
0
 74
0
 49
-3
 74
0
  0
LTYPE
  5
32
100
AcDbSymbolTableRecord
100
AcDbLinetypeTableRecord
  2
ISO128-20-15
  3

 70
0
 72
65
 73
10
 40
39
 49
12
 74
0
 49
-3
 74
0
 49
12
 74
0
 49
-3
 74
0
 49
0
 74
0
 49
-3
 74
0
 49
0
 74
0
 49
-3
 74
0
 49
0
 74
0
 49
-3
 74
0
  0
ENDTAB
  0
TABLE
  2
LAYER
  5
 1A
330
  0
100
AcDbSymbolTable
  0
LAYER
  5
104
330
 1A
100
AcDbSymbolTableRecord
100
AcDbLayerTableRecord
  2
0
 70
0
 62
7
  6
Continuous
370
-3
390
 19
  0
LAYER
  5
105
330
 1A
100
AcDbSymbolTableRecord
100
AcDbLayerTableRecord
  2
SEMA2D
 70
0
 62
7
  6
Continuous
370
-3
390
 19
  0
LAYER
  5
106
330
 1A
100
AcDbSymbolTableRecord
100
AcDbLayerTableRecord
  2
SEMATEXT
 70
0
 62
7
  6
Continuous
370
-3
390
 19
  0
ENDTAB
  0
TABLE
  2
STYLE
  5
  5
100
AcDbSymbolTable
  0
STYLE
  5
  6
100
AcDbSymbolTableRecord
100
AcDbTextStyleTableRecord
  2
STANDARD
 70
     0
 40
0.0
 41
1.0
 50
0.0
 71
     0
 42
10.0
  3
txt
  4

  0
ENDTAB
  0
TABLE
  2
VIEW
  5
  7
100
AcDbSymbolTable
  0
ENDTAB
  0
TABLE
  2
UCS
  5
  8
100
AcDbSymbolTable
  0
ENDTAB
  0
TABLE
  2
APPID
  5
  9
100
AcDbSymbolTable
  0
APPID
  5
  A
100
AcDbSymbolTableRecord
100
AcDbRegAppTableRecord
  2
ACAD
 70
0
  0
ENDTAB
  0
TABLE
  2
DIMSTYLE
  5
  B
100
AcDbSymbolTable
 70
     1
100
AcDbDimStyleTable
 71
     0
  0
DIMSTYLE
105
 1B
330
B
100
AcDbSymbolTableRecord
100
AcDbDimStyleTableRecord
  2
STANDARD
 70
    0
340
  6
  0
ENDTAB
  0
TABLE
  2
BLOCK_RECORD
  5
  C
100
AcDbSymbolTable
  0
BLOCK_RECORD
  5
  D
100
AcDbSymbolTableRecord
100
AcDbBlockTableRecord
  2
*MODEL_SPACE
  0
BLOCK_RECORD
  5
  E
100
AcDbSymbolTableRecord
100
AcDbBlockTableRecord
  2
*PAPER_SPACE
  0
ENDTAB
  0
ENDSEC
  0
SECTION
  2
BLOCKS
  0
BLOCK
  5
  F
330
  D
100
AcDbEntity
  8
0
100
AcDbBlockBegin
  2
*MODEL_SPACE
 70
     0
  0
ENDBLK
  5
 10
100
AcDbEntity
  8
0
100
AcDbBlockEnd
  0
BLOCK
  5
 11
330
  E
100
AcDbEntity
  8
0
100
AcDbBlockBegin
  2
*PAPER_SPACE
 70
     0
  0
ENDBLK
  5
 12
100
AcDbEntity
  8
0
100
AcDbBlockEnd
  0
ENDSEC
  0
SECTION
  2
ENTITIES
  0
ARC
  5
33
100
AcDbEntity
  8
SEMA2D
100
AcDbCircle
 62
7
  6
_SOLID
370
9
 10
4.17352199554443
 20
0.629800260066986
 40
0.00231750006787479
100
AcDbArc
 50
90
 51
165
  0
ARC
  5
34
100
AcDbEntity
  8
SEMA2D
100
AcDbCircle
 62
7
  6
_SOLID
370
9
 10
4.14099311828613
 20
0.629800260066986
 40
0.00231750006787479
100
AcDbArc
 50
14.9999990463257
 51
90
  0
ARC
  5
35
100
AcDbEntity
  8
SEMA2D
100
AcDbCircle
 62
7
  6
_SOLID
370
9
 10
4.2783145904541
 20
0.633971750736237
 40
0.00185400003101677
100
AcDbArc
 50
270
 51
-3.0000011920929
  0
ARC
  5
36
100
AcDbEntity
  8
SEMA2D
100
AcDbCircle
 62
7
  6
_SOLID
370
9
 10
4.1149959564209
 20
0.633971750736237
 40
0.00185400003101677
100
AcDbArc
 50
183
 51
270
  0
ARC
  5
37
100
AcDbEntity
  8
SEMA2D
100
AcDbCircle
 62
7
  6
_SOLID
370
9
 10
4.25231742858887
 20
0.629800260066986
 40
0.00231750006787479
100
AcDbArc
 50
94.6874923706055
 51
165
  0
ARC
  5
38
100
AcDbEntity
  8
SEMA2D
100
AcDbCircle
 62
7
  6
_SOLID
370
9
 10
4.18081855773926
 20
0.640378654003143
 40
0.00927000027149916
100
AcDbArc
 50
67.4147262573242
 51
112.584060668945
  0
ARC
  5
39
100
AcDbEntity
  8
SEMA2D
100
AcDbCircle
 62
7
  6
_SOLID
370
9
 10
4.16498136520386
 20
0.678451836109161
 40
0.0319655798375607
100
AcDbArc
 50
247.41471862793
 51
292.585266113281
  0
ARC
  5
3A
100
AcDbEntity
  8
SEMA2D
100
AcDbCircle
 62
7
  6
_SOLID
370
9
 10
4.21249198913574
 20
0.640378654003143
 40
0.00927000027149916
100
AcDbArc
 50
67.4157257080078
 51
112.585273742676
  0
ARC
  5
3B
100
AcDbEntity
  8
SEMA2D
100
AcDbCircle
 62
7
  6
_SOLID
370
9
 10
4.1966552734375
 20
0.678451836109161
 40
0.0319655798375607
100
AcDbArc
 50
247.41471862793
 51
292.585266113281
  0
ARC
  5
3C
100
AcDbEntity
  8
SEMA2D
100
AcDbCircle
 62
7
  6
_SOLID
370
9
 10
4.14914464950562
 20
0.640378654003143
 40
0.00927000027149916
100
AcDbArc
 50
67.4155044555664
 51
112.58528137207
  0
ARC
  5
3D
100
AcDbEntity
  8
SEMA2D
100
AcDbCircle
 62
7
  6
_SOLID
370
9
 10
4.13330793380737
 20
0.678451836109161
 40
0.0319655798375607
100
AcDbArc
 50
243.986419677734
 51
292.585205078125
  0
ARC
  5
3E
100
AcDbEntity
  8
SEMA2D
100
AcDbCircle
 62
7
  6
_SOLID
370
9
 10
4.22832918167114
 20
0.678451836109161
 40
0.0319655798375607
100
AcDbArc
 50
247.41471862793
 51
292.585266113281
  0
ARC
  5
3F
100
AcDbEntity
  8
SEMA2D
100
AcDbCircle
 62
7
  6
_SOLID
370
9
 10
4.14941024780273
 20
0.614504754543304
 40
0.00185400003101677
100
AcDbArc
 50
195
 51
270
  0
ARC
  5
40
100
AcDbEntity
  8
SEMA2D
100
AcDbCircle
 62
7
  6
_SOLID
370
9
 10
4.24390029907227
 20
0.614504754543304
 40
0.00185400003101677
100
AcDbArc
 50
270
 51
345
  0
ARC
  5
41
100
AcDbEntity
  8
SEMA2D
100
AcDbCircle
 62
7
  6
_SOLID
370
9
 10
4.21978807449341
 20
0.629800260066986
 40
0.00231750006787479
100
AcDbArc
 50
14.9999990463257
 51
90
  0
ARC
  5
42
100
AcDbEntity
  8
SEMA2D
100
AcDbCircle
 62
7
  6
_SOLID
370
9
 10
4.16510534286499
 20
0.614504754543304
 40
0.00185400003101677
100
AcDbArc
 50
270
 51
345
  0
ARC
  5
43
100
AcDbEntity
  8
SEMA2D
100
AcDbCircle
 62
7
  6
_SOLID
370
9
 10
4.22820520401001
 20
0.614504754543304
 40
0.00185400003101677
100
AcDbArc
 50
195
 51
270
  0
ARC
  5
44
100
AcDbEntity
  8
SEMA2D
100
AcDbCircle
 62
7
  6
_SOLID
370
9
 10
4.26000261306763
 20
0.678451836109161
 40
0.0319655798375607
100
AcDbArc
 50
247.414794921875
 51
296.013580322266
  0
ARC
  5
45
100
AcDbEntity
  8
SEMA2D
100
AcDbCircle
 62
7
  6
_SOLID
370
9
 10
4.24416589736938
 20
0.640378654003143
 40
0.00927000027149916
100
AcDbArc
 50
67.4147262573242
 51
112.584426879883
  0
ARC
  5
46
100
AcDbEntity
  8
SEMA2D
100
AcDbCircle
 62
7
  6
_SOLID
370
9
 10
4.11725521087646
 20
0.645559251308441
 40
0.00463500013574958
100
AcDbArc
 50
63.9864234924316
 51
177
  0
ARC
  5
47
100
AcDbEntity
  8
SEMA2D
100
AcDbCircle
 62
7
  6
_SOLID
370
9
 10
4.27605533599854
 20
0.645559251308441
 40
0.00463500013574958
100
AcDbArc
 50
3.00000047683716
 51
116.013580322266
  0
LINE
  5
48
100
AcDbEntity
  8
SEMA2D
100
AcDbLine
 62
7
  6
_SOLID
370
9
 10
4.1131443977356
 20
0.633874714374542
 11
4.1129937171936
 21
0.636752724647522
  0
LINE
  5
49
100
AcDbEntity
  8
SEMA2D
100
AcDbLine
 62
7
  6
_SOLID
370
9
 10
4.1149959564209
 20
0.633874714374542
 11
4.11484479904175
 21
0.636752724647522
  0
LINE
  5
4A
100
AcDbEntity
  8
SEMA2D
100
AcDbLine
 62
7
  6
_SOLID
370
9
 10
4.1456618309021
 20
0.632117748260498
 11
4.1456618309021
 21
0.63159316778183
  0
LINE
  5
4B
100
AcDbEntity
  8
SEMA2D
100
AcDbLine
 62
7
  6
_SOLID
370
9
 10
4.1149959564209
 20
0.632118165493011
 11
4.1149959564209
 21
0.633874714374542
  0
LINE
  5
4C
100
AcDbEntity
  8
SEMA2D
100
AcDbLine
 62
7
  6
_SOLID
370
9
 10
4.11160278320313
 20
0.636752724647522
 11
4.11160278320313
 21
0.639533758163452
  0
LINE
  5
4D
100
AcDbEntity
  8
SEMA2D
100
AcDbLine
 62
7
  6
_SOLID
370
9
 10
4.1431303024292
 20
0.630778193473816
 11
4.14761972427368
 21
0.614024877548218
  0
LINE
  5
4E
100
AcDbEntity
  8
SEMA2D
100
AcDbLine
 62
7
  6
_SOLID
370
9
 10
4.11229848861694
 20
0.639533758163452
 11
4.11262655258179
 21
0.645801842212677
  0
LINE
  5
4F
100
AcDbEntity
  8
SEMA2D
100
AcDbLine
 62
7
  6
_SOLID
370
9
 10
4.28170728683472
 20
0.639533758163452
 11
4.11160278320313
 21
0.639533758163452
  0
LINE
  5
50
100
AcDbEntity
  8
SEMA2D
100
AcDbLine
 62
7
  6
_SOLID
370
9
 10
4.11725521087646
 20
0.650194227695465
 11
4.27605533599854
 21
0.650194227695465
  0
LINE
  5
51
100
AcDbEntity
  8
SEMA2D
100
AcDbLine
 62
7
  6
_SOLID
370
9
 10
4.22820520401001
 20
0.612650752067566
 11
4.24390029907227
 21
0.612650752067566
  0
LINE
  5
52
100
AcDbEntity
  8
SEMA2D
100
AcDbLine
 62
7
  6
_SOLID
370
9
 10
4.16885375976562
 20
0.632117748260498
 11
4.16885375976562
 21
0.63159316778183
  0
LINE
  5
53
100
AcDbEntity
  8
SEMA2D
100
AcDbLine
 62
7
  6
_SOLID
370
9
 10
4.14941024780273
 20
0.612650752067566
 11
4.16510534286499
 21
0.612650752067566
  0
LINE
  5
54
100
AcDbEntity
  8
SEMA2D
100
AcDbLine
 62
7
  6
_SOLID
370
9
 10
4.16689586639404
 20
0.614024877548218
 11
4.17138481140137
 21
0.630778193473816
  0
LINE
  5
55
100
AcDbEntity
  8
SEMA2D
100
AcDbLine
 62
7
  6
_SOLID
370
9
 10
4.28170728683472
 20
0.636752724647522
 11
4.11160278320313
 21
0.636752724647522
  0
LINE
  5
56
100
AcDbEntity
  8
SEMA2D
100
AcDbLine
 62
7
  6
_SOLID
370
9
 10
4.2783145904541
 20
0.633874714374542
 11
4.1149959564209
 21
0.633874714374542
  0
LINE
  5
57
100
AcDbEntity
  8
SEMA2D
100
AcDbLine
 62
7
  6
_SOLID
370
9
 10
4.2783145904541
 20
0.632117748260498
 11
4.1149959564209
 21
0.632117748260498
  0
LINE
  5
58
100
AcDbEntity
  8
SEMA2D
100
AcDbLine
 62
7
  6
_SOLID
370
9
 10
4.22192573547363
 20
0.630778193473816
 11
4.22641468048096
 21
0.614024877548218
  0
LINE
  5
59
100
AcDbEntity
  8
SEMA2D
100
AcDbLine
 62
7
  6
_SOLID
370
9
 10
4.24569082260132
 20
0.614024877548218
 11
4.25017976760864
 21
0.630778193473816
  0
LINE
  5
5A
100
AcDbEntity
  8
SEMA2D
100
AcDbLine
 62
7
  6
_SOLID
370
9
 10
4.28068399429321
 20
0.645801842212677
 11
4.28101205825806
 21
0.639533758163452
  0
LINE
  5
5B
100
AcDbEntity
  8
SEMA2D
100
AcDbLine
 62
7
  6
_SOLID
370
9
 10
4.28170728683472
 20
0.636752724647522
 11
4.28170728683472
 21
0.639533758163452
  0
LINE
  5
5C
100
AcDbEntity
  8
SEMA2D
100
AcDbLine
 62
7
  6
_SOLID
370
9
 10
4.2783145904541
 20
0.632117748260498
 11
4.2783145904541
 21
0.633874714374542
  0
LINE
  5
5D
100
AcDbEntity
  8
SEMA2D
100
AcDbLine
 62
7
  6
_SOLID
370
9
 10
4.2801661491394
 20
0.633874714374542
 11
4.2803168296814
 21
0.636752724647522
  0
LINE
  5
5E
100
AcDbEntity
  8
SEMA2D
100
AcDbLine
 62
7
  6
_SOLID
370
9
 10
4.2783145904541
 20
0.633874714374542
 11
4.27846574783325
 21
0.636752724647522
  0
LINE
  5
5F
100
AcDbEntity
  8
SEMA2D
100
AcDbLine
 62
7
  6
_SOLID
370
9
 10
3.93718552589417
 20
0.213887631893158
 11
3.94182062149048
 21
0.214136570692062
  0
LINE
  5
60
100
AcDbEntity
  8
SEMA2D
100
AcDbLine
 62
7
  6
_SOLID
370
9
 10
3.94182062149048
 20
0.265395969152451
 11
3.92374396324158
 21
0.265395969152451
  0
LINE
  5
61
100
AcDbEntity
  8
SEMA2D
100
AcDbLine
 62
7
  6
_SOLID
370
9
 10
3.93440461158752
 20
0.21246263384819
 11
3.93718552589417
 21
0.21246263384819
  0
LINE
  5
62
100
AcDbEntity
  8
SEMA2D
100
AcDbLine
 62
7
  6
_SOLID
370
9
 10
3.9309675693512
 20
0.213359713554382
 11
3.93440461158752
 21
0.213175132870674
  0
LINE
  5
63
100
AcDbEntity
  8
SEMA2D
100
AcDbLine
 62
7
  6
_SOLID
370
9
 10
3.92745208740234
 20
0.265395969152451
 11
3.92745208740234
 21
0.214615419507027
  0
LINE
  5
64
100
AcDbEntity
  8
SEMA2D
100
AcDbLine
 62
7
  6
_SOLID
370
9
 10
3.92428970336914
 20
0.258293867111206
 11
3.92428970336914
 21
0.218681514263153
  0
ARC
  5
65
100
AcDbEntity
  8
SEMA2D
100
AcDbCircle
 62
7
  6
_SOLID
370
9
 10
3.91682267189026
 20
0.219861313700676
 40
0.0110475700348616
100
AcDbArc
 50
16.409107208252
 51
35.7974700927734
  0
ARC
  5
66
100
AcDbEntity
  8
SEMA2D
100
AcDbCircle
 62
7
  6
_SOLID
370
9
 10
3.9306972026825
 20
0.230436563491821
 40
0.00640839710831642
100
AcDbArc
 50
181.066833496094
 51
219.930633544922
  0
ARC
  5
67
100
AcDbEntity
  8
SEMA2D
100
AcDbCircle
 62
7
  6
_SOLID
370
9
 10
3.87971210479736
 20
0.240360483527184
 40
0.0477608069777489
100
AcDbArc
 50
1.69659268856049
 51
14.9809732437134
  0
ARC
  5
68
100
AcDbEntity
  8
SEMA2D
100
AcDbCircle
 62
7
  6
_SOLID
370
9
 10
3.93210697174072
 20
0.261264771223068
 40
0.00836279056966305
100
AcDbArc
 50
180.230316162109
 51
200.808853149414
  0
ARC
  5
69
100
AcDbEntity
  8
SEMA2D
100
AcDbCircle
 62
7
  6
_SOLID
370
9
 10
3.81472945213318
 20
0.224692195653915
 40
0.11459705978632
100
AcDbArc
 50
14.1499166488647
 51
17.0505886077881
  0
ARC
  5
6A
100
AcDbEntity
  8
SEMA2D
100
AcDbCircle
 62
7
  6
_SOLID
370
9
 10
3.92847919464111
 20
0.218724563717842
 40
0.00418959558010101
100
AcDbArc
 50
180.564926147461
 51
249.915634155273
  0
ARC
  5
6B
100
AcDbEntity
  8
SEMA2D
100
AcDbCircle
 62
7
  6
_SOLID
370
9
 10
3.93117547035217
 20
0.217085003852844
 40
0.00373107497580349
100
AcDbArc
 50
244.056594848633
 51
266.808776855469
  0
LINE
  5
6C
100
AcDbEntity
  8
SEMA2D
100
AcDbLine
 62
7
  6
_SOLID
370
9
 10
3.92704033851624
 20
0.214789733290672
 11
3.92954301834106
 21
0.213729932904243
  0
LINE
  5
6D
100
AcDbEntity
  8
SEMA2D
100
AcDbLine
 62
7
  6
_SOLID
370
9
 10
3.93718552589417
 20
0.21246263384819
 11
3.93718552589417
 21
0.213887631893158
  0
LINE
  5
6E
100
AcDbEntity
  8
SEMA2D
100
AcDbLine
 62
7
  6
_SOLID
370
9
 10
3.93440461158752
 20
0.21246263384819
 11
3.93440461158752
 21
0.213175132870674
  0
LINE
  5
6F
100
AcDbEntity
  8
SEMA2D
100
AcDbLine
 62
7
  6
_SOLID
370
9
 10
3.95975542068481
 20
0.444991618394852
 11
3.94182062149048
 21
0.441750764846802
  0
LINE
  5
70
100
AcDbEntity
  8
SEMA2D
100
AcDbLine
 62
7
  6
_SOLID
370
9
 10
3.96128749847412
 20
0.446862757205963
 11
3.96128749847412
 21
0.454066842794418
  0
LINE
  5
71
100
AcDbEntity
  8
SEMA2D
100
AcDbLine
 62
7
  6
_SOLID
370
9
 10
3.94182062149048
 20
0.457533329725265
 11
3.94182062149048
 21
0.214136570692062
  0
LINE
  5
72
100
AcDbEntity
  8
SEMA2D
100
AcDbLine
 62
7
  6
_SOLID
370
9
 10
3.93440461158752
 20
0.462650746107101
 11
3.93440461158752
 21
0.265395969152451
  0
LINE
  5
73
100
AcDbEntity
  8
SEMA2D
100
AcDbLine
 62
7
  6
_SOLID
370
9
 10
3.93718552589417
 20
0.265395969152451
 11
3.93718552589417
 21
0.462650746107101
  0
LINE
  5
74
100
AcDbEntity
  8
SEMA2D
100
AcDbLine
 62
7
  6
_SOLID
370
9
 10
3.92770838737488
 20
0.459709733724594
 11
3.92649221420288
 21
0.459375828504562
  0
LINE
  5
75
100
AcDbEntity
  8
SEMA2D
100
AcDbLine
 62
7
  6
_SOLID
370
9
 10
3.94182062149048
 20
0.457533329725265
 11
3.93857598304749
 21
0.459453016519546
  0
LINE
  5
76
100
AcDbEntity
  8
SEMA2D
100
AcDbLine
 62
7
  6
_SOLID
370
9
 10
3.92374396324158
 20
0.455705314874649
 11
3.92374396324158
 21
0.261231154203415
  0
LINE
  5
77
100
AcDbEntity
  8
SEMA2D
100
AcDbLine
 62
7
  6
_SOLID
370
9
 10
3.92976951599121
 20
0.462650746107101
 11
3.93718552589417
 21
0.462650746107101
  0
LINE
  5
78
100
AcDbEntity
  8
SEMA2D
100
AcDbLine
 62
7
  6
_SOLID
370
9
 10
3.95969152450562
 20
0.455948323011398
 11
3.94005751609802
 21
0.458776205778122
  0
ARC
  5
79
100
AcDbEntity
  8
SEMA2D
100
AcDbCircle
 62
7
  6
_SOLID
370
9
 10
3.92734241485596
 20
0.462131828069687
 40
0.00244956579990685
100
AcDbArc
 50
278.590209960938
 51
7.76135635375977
  0
ARC
  5
7A
100
AcDbEntity
  8
SEMA2D
100
AcDbCircle
 62
7
  6
_SOLID
370
9
 10
3.94067239761353
 20
0.462233573198318
 40
0.00351162720471621
100
AcDbArc
 50
173.177322387695
 51
259.916412353516
  0
LINE
  5
7B
100
AcDbEntity
  8
SEMA2D
100
AcDbLine
 62
7
  6
_SOLID
370
9
 10
3.92976951599121
 20
0.462650746107101
 11
3.92976951599121
 21
0.46246263384819
  0
ARC
  5
7C
100
AcDbEntity
  8
SEMA2D
100
AcDbCircle
 62
7
  6
_SOLID
370
9
 10
3.92714762687683
 20
0.456021010875702
 40
0.00341823254711926
100
AcDbArc
 50
101.052848815918
 51
185.299102783203
  0
ARC
  5
7D
100
AcDbEntity
  8
SEMA2D
100
AcDbCircle
 62
7
  6
_SOLID
370
9
 10
3.95958089828491
 20
0.45423686504364
 40
0.00171504309400916
100
AcDbArc
 50
354.310089111328
 51
90
  0
ARC
  5
7E
100
AcDbEntity
  8
SEMA2D
100
AcDbCircle
 62
7
  6
_SOLID
370
9
 10
3.95958423614502
 20
0.446694642305374
 40
0.0017116196686402
100
AcDbArc
 50
275.743408203125
 51
5.63641405105591
  0
LINE
  5
7F
100
AcDbEntity
  8
SEMA2D
100
AcDbLine
 62
7
  6
_SOLID
370
9
 10
4.11229848861694
 20
0.264159083366394
 11
4.11229848861694
 21
0.461938261985779
  0
LINE
  5
80
100
AcDbEntity
  8
SEMA2D
100
AcDbLine
 62
7
  6
_SOLID
370
9
 10
4.11160278320313
 20
0.264159083366394
 11
4.11160278320313
 21
0.462650746107101
  0
LINE
  5
81
100
AcDbEntity
  8
SEMA2D
100
AcDbLine
 62
7
  6
_SOLID
370
9
 10
4.11928844451904
 20
0.42765074968338
 11
4.11928844451904
 21
0.259167522192001
  0
LINE
  5
82
100
AcDbEntity
  8
SEMA2D
100
AcDbLine
 62
7
  6
_SOLID
370
9
 10
4.17725801467895
 20
0.217815637588501
 11
4.17725849151611
 21
0.42765074968338
  0
LINE
  5
83
100
AcDbEntity
  8
SEMA2D
100
AcDbLine
 62
7
  6
_SOLID
370
9
 10
4.1843786239624
 20
0.217078283429146
 11
4.1843786239624
 21
0.42765074968338
  0
LINE
  5
84
100
AcDbEntity
  8
SEMA2D
100
AcDbLine
 62
7
  6
_SOLID
370
9
 10
4.14558458328247
 20
0.230349153280258
 11
4.14558458328247
 21
0.42765074968338
  0
LINE
  5
85
100
AcDbEntity
  8
SEMA2D
100
AcDbLine
 62
7
  6
_SOLID
370
9
 10
4.15270471572876
 20
0.42765074968338
 11
4.15270471572876
 21
0.227833077311516
  0
LINE
  5
86
100
AcDbEntity
  8
SEMA2D
100
AcDbLine
 62
7
  6
_SOLID
370
9
 10
4.24060583114624
 20
0.42765074968338
 11
4.24060583114624
 21
0.227833077311516
  0
LINE
  5
87
100
AcDbEntity
  8
SEMA2D
100
AcDbLine
 62
7
  6
_SOLID
370
9
 10
4.24772596359253
 20
0.230349153280258
 11
4.24772596359253
 21
0.42765074968338
  0
LINE
  5
88
100
AcDbEntity
  8
SEMA2D
100
AcDbLine
 62
7
  6
_SOLID
370
9
 10
4.21605205535889
 20
0.217815637588501
 11
4.21605205535889
 21
0.42765074968338
  0
LINE
  5
89
100
AcDbEntity
  8
SEMA2D
100
AcDbLine
 62
7
  6
_SOLID
370
9
 10
4.2089319229126
 20
0.217078283429146
 11
4.2089319229126
 21
0.42765074968338
  0
LINE
  5
8A
100
AcDbEntity
  8
SEMA2D
100
AcDbLine
 62
7
  6
_SOLID
370
9
 10
4.27402210235596
 20
0.259167522192001
 11
4.27402210235596
 21
0.42765074968338
  0
LINE
  5
8B
100
AcDbEntity
  8
SEMA2D
100
AcDbLine
 62
7
  6
_SOLID
370
9
 10
4.28101205825806
 20
0.461938261985779
 11
4.28101205825806
 21
0.264159083366394
  0
LINE
  5
8C
100
AcDbEntity
  8
SEMA2D
100
AcDbLine
 62
7
  6
_SOLID
370
9
 10
4.28170728683472
 20
0.462650746107101
 11
4.28170728683472
 21
0.264159083366394
  0
ARC
  5
8D
100
AcDbEntity
  8
SEMA2D
100
AcDbCircle
 62
7
  6
_SOLID
370
9
 10
4.12690258026123
 20
0.26541194319725
 40
0.0146042350679636
100
AcDbArc
 50
180.073928833008
 51
213.657485961914
  0
ARC
  5
8E
100
AcDbEntity
  8
SEMA2D
100
AcDbCircle
 62
7
  6
_SOLID
370
9
 10
4.12914323806763
 20
0.266081601381302
 40
0.0175535101443529
100
AcDbArc
 50
182.247894287109
 51
211.483856201172
  0
ARC
  5
8F
100
AcDbEntity
  8
SEMA2D
100
AcDbCircle
 62
7
  6
_SOLID
370
9
 10
4.19694471359253
 20
0.311769664287567
 40
0.0985978469252586
100
AcDbArc
 50
213.522308349609
 51
270
  0
ARC
  5
90
100
AcDbEntity
  8
SEMA2D
100
AcDbCircle
 62
7
  6
_SOLID
370
9
 10
4.19708204269409
 20
0.312005698680878
 40
0.0995432734489441
100
AcDbArc
 50
213.603561401367
 51
269.883026123047
  0
ARC
  5
91
100
AcDbEntity
  8
SEMA2D
100
AcDbCircle
 62
7
  6
_SOLID
370
9
 10
4.26640796661377
 20
0.265410631895065
 40
0.0146042350679636
100
AcDbArc
 50
326.342498779297
 51
-0.0739309415221214
  0
ARC
  5
92
100
AcDbEntity
  8
SEMA2D
100
AcDbCircle
 62
7
  6
_SOLID
370
9
 10
4.26416778564453
 20
0.266080290079117
 40
0.0175535101443529
100
AcDbArc
 50
328.516143798828
 51
357.752105712891
  0
ARC
  5
93
100
AcDbEntity
  8
SEMA2D
100
AcDbCircle
 62
7
  6
_SOLID
370
9
 10
4.19636583328247
 20
0.311768352985382
 40
0.0985978469252586
100
AcDbArc
 50
270.297882080078
 51
326.477691650391
  0
ARC
  5
94
100
AcDbEntity
  8
SEMA2D
100
AcDbCircle
 62
7
  6
_SOLID
370
9
 10
4.19622898101807
 20
0.312004387378693
 40
0.0995432734489441
100
AcDbArc
 50
270.374084472656
 51
326.396423339844
  0
LINE
  5
95
100
AcDbEntity
  8
SEMA2D
100
AcDbLine
 62
7
  6
_SOLID
370
9
 10
4.19160318374634
 20
0.42765074968338
 11
4.11229848861694
 21
0.42765074968338
  0
LINE
  5
96
100
AcDbEntity
  8
SEMA2D
100
AcDbLine
 62
7
  6
_SOLID
370
9
 10
4.28101205825806
 20
0.42765074968338
 11
4.20160293579102
 21
0.42765074968338
  0
LINE
  5
97
100
AcDbEntity
  8
SEMA2D
100
AcDbLine
 62
7
  6
_SOLID
370
9
 10
4.19160318374634
 20
0.435650736093521
 11
4.11229848861694
 21
0.435650736093521
  0
LINE
  5
98
100
AcDbEntity
  8
SEMA2D
100
AcDbLine
 62
7
  6
_SOLID
370
9
 10
4.28101205825806
 20
0.435650736093521
 11
4.20160293579102
 21
0.435650736093521
  0
LINE
  5
99
100
AcDbEntity
  8
SEMA2D
100
AcDbLine
 62
7
  6
_SOLID
370
9
 10
4.19160318374634
 20
0.42765074968338
 11
4.19160318374634
 21
0.435650736093521
  0
LINE
  5
9A
100
AcDbEntity
  8
SEMA2D
100
AcDbLine
 62
7
  6
_SOLID
370
9
 10
4.20160293579102
 20
0.42765074968338
 11
4.20160293579102
 21
0.435650736093521
  0
LINE
  5
9B
100
AcDbEntity
  8
SEMA2D
100
AcDbLine
 62
7
  6
_SOLID
370
9
 10
4.11160278320313
 20
0.462650746107101
 11
4.28170728683472
 21
0.462650746107101
  0
LINE
  5
9C
100
AcDbEntity
  8
SEMA2D
100
AcDbLine
 62
7
  6
_SOLID
370
9
 10
4.28101205825806
 20
0.461938261985779
 11
4.11229848861694
 21
0.461938261985779
  0
LINE
  5
9D
100
AcDbEntity
  8
SEMA2D
100
AcDbLine
 62
7
  6
_SOLID
370
9
 10
4.12460279464722
 20
0.435650736093521
 11
4.12460279464722
 21
0.450650751590729
  0
LINE
  5
9E
100
AcDbEntity
  8
SEMA2D
100
AcDbLine
 62
7
  6
_SOLID
370
9
 10
4.12460279464722
 20
0.450650751590729
 11
4.14660310745239
 21
0.450650751590729
  0
LINE
  5
9F
100
AcDbEntity
  8
SEMA2D
100
AcDbLine
 62
7
  6
_SOLID
370
9
 10
4.14660310745239
 20
0.450650751590729
 11
4.14660310745239
 21
0.442650735378265
  0
LINE
  5
A0
100
AcDbEntity
  8
SEMA2D
100
AcDbLine
 62
7
  6
_SOLID
370
9
 10
4.14660310745239
 20
0.442650735378265
 11
4.16660308837891
 21
0.442650735378265
  0
LINE
  5
A1
100
AcDbEntity
  8
SEMA2D
100
AcDbLine
 62
7
  6
_SOLID
370
9
 10
4.16660308837891
 20
0.442650735378265
 11
4.16660308837891
 21
0.450650751590729
  0
LINE
  5
A2
100
AcDbEntity
  8
SEMA2D
100
AcDbLine
 62
7
  6
_SOLID
370
9
 10
4.26850318908691
 20
0.435650736093521
 11
4.26850318908691
 21
0.450650751590729
  0
LINE
  5
A3
100
AcDbEntity
  8
SEMA2D
100
AcDbLine
 62
7
  6
_SOLID
370
9
 10
4.26850318908691
 20
0.450650751590729
 11
4.24650287628174
 21
0.450650751590729
  0
LINE
  5
A4
100
AcDbEntity
  8
SEMA2D
100
AcDbLine
 62
7
  6
_SOLID
370
9
 10
4.24650287628174
 20
0.450650751590729
 11
4.24650287628174
 21
0.442650735378265
  0
LINE
  5
A5
100
AcDbEntity
  8
SEMA2D
100
AcDbLine
 62
7
  6
_SOLID
370
9
 10
4.24650287628174
 20
0.442650735378265
 11
4.22650289535522
 21
0.442650735378265
  0
LINE
  5
A6
100
AcDbEntity
  8
SEMA2D
100
AcDbLine
 62
7
  6
_SOLID
370
9
 10
4.22650289535522
 20
0.442650735378265
 11
4.22650289535522
 21
0.450650751590729
  0
LINE
  5
A7
100
AcDbEntity
  8
SEMA2D
100
AcDbLine
 62
7
  6
_SOLID
370
9
 10
4.16660308837891
 20
0.450650751590729
 11
4.22650289535522
 21
0.450650751590729
  0
LINE
  5
A8
100
AcDbEntity
  8
SEMA2D
100
AcDbLine
 62
7
  6
_SOLID
370
9
 10
4.28101205825806
 20
0.459238260984421
 11
4.11229848861694
 21
0.459238260984421
  0
LINE
  5
A9
100
AcDbEntity
  8
SEMA2D
100
AcDbLine
 62
7
  6
_SOLID
370
9
 10
4.11160278320313
 20
0.700194239616394
 11
4.28170728683472
 21
0.700194239616394
  0
LINE
  5
AA
100
AcDbEntity
  8
SEMA2D
100
AcDbLine
 62
7
  6
_SOLID
370
9
 10
4.11160278320313
 20
0.700194239616394
 11
4.11160278320313
 21
0.707194268703461
  0
LINE
  5
AB
100
AcDbEntity
  8
SEMA2D
100
AcDbLine
 62
7
  6
_SOLID
370
9
 10
4.11160278320313
 20
0.700194239616394
 11
4.11160278320313
 21
0.693194270133972
  0
LINE
  5
AC
100
AcDbEntity
  8
SEMA2D
100
AcDbLine
 62
7
  6
_SOLID
370
9
 10
4.11160278320313
 20
0.700194239616394
 11
4.11766529083252
 21
0.703694224357605
  0
LINE
  5
AD
100
AcDbEntity
  8
SEMA2D
100
AcDbLine
 62
7
  6
_SOLID
370
9
 10
4.11160278320313
 20
0.700194239616394
 11
4.10554075241089
 21
0.696694254875183
  0
LINE
  5
AE
100
AcDbEntity
  8
SEMA2D
100
AcDbLine
 62
7
  6
_DOT
370
9
 10
4.11160278320313
 20
0.650194227695465
 11
4.11160278320313
 21
0.700194239616394
  0
LINE
  5
AF
100
AcDbEntity
  8
SEMA2D
100
AcDbLine
 62
7
  6
_DOT
370
9
 10
4.11160278320313
 20
0.650194227695465
 11
4.11160278320313
 21
0.650194227695465
  0
MTEXT
  5
B0
100
AcDbEntity
  8
SEMATEXT
100
AcDbMText
 62
7
 10
4.1887354850769
 20
0.705326199531555
 40
0.00800000037997961
 71
7
  1
{\fArial Narrow;170}
  7
STANDARD
 73
2
  0
LINE
  5
B1
100
AcDbEntity
  8
SEMA2D
100
AcDbLine
 62
7
  6
_SOLID
370
9
 10
4.28170728683472
 20
0.700194239616394
 11
4.28170728683472
 21
0.707194268703461
  0
LINE
  5
B2
100
AcDbEntity
  8
SEMA2D
100
AcDbLine
 62
7
  6
_SOLID
370
9
 10
4.28170728683472
 20
0.700194239616394
 11
4.28170728683472
 21
0.693194270133972
  0
LINE
  5
B3
100
AcDbEntity
  8
SEMA2D
100
AcDbLine
 62
7
  6
_SOLID
370
9
 10
4.28170728683472
 20
0.700194239616394
 11
4.28776979446411
 21
0.703694224357605
  0
LINE
  5
B4
100
AcDbEntity
  8
SEMA2D
100
AcDbLine
 62
7
  6
_SOLID
370
9
 10
4.28170728683472
 20
0.700194239616394
 11
4.27564525604248
 21
0.696694254875183
  0
LINE
  5
B5
100
AcDbEntity
  8
SEMA2D
100
AcDbLine
 62
7
  6
_DOT
370
9
 10
4.28170728683472
 20
0.650194227695465
 11
4.28170728683472
 21
0.700194239616394
  0
LINE
  5
B6
100
AcDbEntity
  8
SEMA2D
100
AcDbLine
 62
7
  6
_DOT
370
9
 10
4.28170728683472
 20
0.650194227695465
 11
4.28170728683472
 21
0.650194227695465
  0
LINE
  5
B7
100
AcDbEntity
  8
SEMA2D
100
AcDbLine
 62
7
  6
_SOLID
370
9
 10
3.92374396324158
 20
0.512462615966797
 11
3.96128749847412
 21
0.512462615966797
  0
LINE
  5
B8
100
AcDbEntity
  8
SEMA2D
100
AcDbLine
 62
7
  6
_SOLID
370
9
 10
3.92374396324158
 20
0.512462615966797
 11
3.92374396324158
 21
0.519462645053864
  0
LINE
  5
B9
100
AcDbEntity
  8
SEMA2D
100
AcDbLine
 62
7
  6
_SOLID
370
9
 10
3.92374396324158
 20
0.512462615966797
 11
3.92374396324158
 21
0.505462646484375
  0
LINE
  5
BA
100
AcDbEntity
  8
SEMA2D
100
AcDbLine
 62
7
  6
_SOLID
370
9
 10
3.92374396324158
 20
0.512462615966797
 11
3.92980623245239
 21
0.515962660312653
  0
LINE
  5
BB
100
AcDbEntity
  8
SEMA2D
100
AcDbLine
 62
7
  6
_SOLID
370
9
 10
3.92374396324158
 20
0.512462615966797
 11
3.91768193244934
 21
0.508962631225586
  0
LINE
  5
BC
100
AcDbEntity
  8
SEMA2D
100
AcDbLine
 62
7
  6
_DOT
370
9
 10
3.92374396324158
 20
0.46246263384819
 11
3.92374396324158
 21
0.512462615966797
  0
LINE
  5
BD
100
AcDbEntity
  8
SEMA2D
100
AcDbLine
 62
7
  6
_DOT
370
9
 10
3.92374396324158
 20
0.46246263384819
 11
3.92374396324158
 21
0.46246263384819
  0
MTEXT
  5
BE
100
AcDbEntity
  8
SEMATEXT
100
AcDbMText
 62
7
 10
3.92750263214111
 20
0.517594575881958
 40
0.00800000037997961
 71
7
  1
{\fArial Narrow;18}
  7
STANDARD
 73
2
  0
LINE
  5
BF
100
AcDbEntity
  8
SEMA2D
100
AcDbLine
 62
7
  6
_SOLID
370
9
 10
3.94182062149048
 20
0.512462615966797
 11
3.94182062149048
 21
0.519462645053864
  0
LINE
  5
C0
100
AcDbEntity
  8
SEMA2D
100
AcDbLine
 62
7
  6
_SOLID
370
9
 10
3.94182062149048
 20
0.512462615966797
 11
3.94182062149048
 21
0.505462646484375
  0
LINE
  5
C1
100
AcDbEntity
  8
SEMA2D
100
AcDbLine
 62
7
  6
_SOLID
370
9
 10
3.94182062149048
 20
0.512462615966797
 11
3.94788265228271
 21
0.515962660312653
  0
LINE
  5
C2
100
AcDbEntity
  8
SEMA2D
100
AcDbLine
 62
7
  6
_SOLID
370
9
 10
3.94182062149048
 20
0.512462615966797
 11
3.93575835227966
 21
0.508962631225586
  0
LINE
  5
C3
100
AcDbEntity
  8
SEMA2D
100
AcDbLine
 62
7
  6
_DOT
370
9
 10
3.94182062149048
 20
0.46246263384819
 11
3.94182062149048
 21
0.512462615966797
  0
LINE
  5
C4
100
AcDbEntity
  8
SEMA2D
100
AcDbLine
 62
7
  6
_DOT
370
9
 10
3.94182062149048
 20
0.46246263384819
 11
3.94182062149048
 21
0.46246263384819
  0
MTEXT
  5
C5
100
AcDbEntity
  8
SEMATEXT
100
AcDbMText
 62
7
 10
3.9462742805481
 20
0.517594575881958
 40
0.00800000037997961
 71
7
  1
{\fArial Narrow;19}
  7
STANDARD
 73
2
  0
LINE
  5
C6
100
AcDbEntity
  8
SEMA2D
100
AcDbLine
 62
7
  6
_SOLID
370
9
 10
3.96128749847412
 20
0.512462615966797
 11
3.96128749847412
 21
0.519462645053864
  0
LINE
  5
C7
100
AcDbEntity
  8
SEMA2D
100
AcDbLine
 62
7
  6
_SOLID
370
9
 10
3.96128749847412
 20
0.512462615966797
 11
3.96128749847412
 21
0.505462646484375
  0
LINE
  5
C8
100
AcDbEntity
  8
SEMA2D
100
AcDbLine
 62
7
  6
_SOLID
370
9
 10
3.96128749847412
 20
0.512462615966797
 11
3.96734976768494
 21
0.515962660312653
  0
LINE
  5
C9
100
AcDbEntity
  8
SEMA2D
100
AcDbLine
 62
7
  6
_SOLID
370
9
 10
3.96128749847412
 20
0.512462615966797
 11
3.95522546768188
 21
0.508962631225586
  0
LINE
  5
CA
100
AcDbEntity
  8
SEMA2D
100
AcDbLine
 62
7
  6
_DOT
370
9
 10
3.96128749847412
 20
0.46246263384819
 11
3.96128749847412
 21
0.512462615966797
  0
LINE
  5
CB
100
AcDbEntity
  8
SEMA2D
100
AcDbLine
 62
7
  6
_DOT
370
9
 10
3.96128749847412
 20
0.512462615966797
 11
3.96128749847412
 21
0.46246263384819
  0
LINE
  5
CC
100
AcDbEntity
  8
SEMA2D
100
AcDbLine
 62
7
  6
_SOLID
370
9
 10
4.11160278320313
 20
0.512462615966797
 11
4.28170728683472
 21
0.512462615966797
  0
LINE
  5
CD
100
AcDbEntity
  8
SEMA2D
100
AcDbLine
 62
7
  6
_SOLID
370
9
 10
4.11160278320313
 20
0.512462615966797
 11
4.11160278320313
 21
0.519462645053864
  0
LINE
  5
CE
100
AcDbEntity
  8
SEMA2D
100
AcDbLine
 62
7
  6
_SOLID
370
9
 10
4.11160278320313
 20
0.512462615966797
 11
4.11160278320313
 21
0.505462646484375
  0
LINE
  5
CF
100
AcDbEntity
  8
SEMA2D
100
AcDbLine
 62
7
  6
_SOLID
370
9
 10
4.11160278320313
 20
0.512462615966797
 11
4.11766529083252
 21
0.515962660312653
  0
LINE
  5
D0
100
AcDbEntity
  8
SEMA2D
100
AcDbLine
 62
7
  6
_SOLID
370
9
 10
4.11160278320313
 20
0.512462615966797
 11
4.10554075241089
 21
0.508962631225586
  0
LINE
  5
D1
100
AcDbEntity
  8
SEMA2D
100
AcDbLine
 62
7
  6
_DOT
370
9
 10
4.11160278320313
 20
0.462650746107101
 11
4.11160278320313
 21
0.512462615966797
  0
LINE
  5
D2
100
AcDbEntity
  8
SEMA2D
100
AcDbLine
 62
7
  6
_DOT
370
9
 10
4.11160278320313
 20
0.462650746107101
 11
4.11160278320313
 21
0.462650746107101
  0
MTEXT
  5
D3
100
AcDbEntity
  8
SEMATEXT
100
AcDbMText
 62
7
 10
4.1887354850769
 20
0.517594575881958
 40
0.00800000037997961
 71
7
  1
{\fArial Narrow;170}
  7
STANDARD
 73
2
  0
LINE
  5
D4
100
AcDbEntity
  8
SEMA2D
100
AcDbLine
 62
7
  6
_SOLID
370
9
 10
4.28170728683472
 20
0.512462615966797
 11
4.28170728683472
 21
0.519462645053864
  0
LINE
  5
D5
100
AcDbEntity
  8
SEMA2D
100
AcDbLine
 62
7
  6
_SOLID
370
9
 10
4.28170728683472
 20
0.512462615966797
 11
4.28170728683472
 21
0.505462646484375
  0
LINE
  5
D6
100
AcDbEntity
  8
SEMA2D
100
AcDbLine
 62
7
  6
_SOLID
370
9
 10
4.28170728683472
 20
0.512462615966797
 11
4.28776979446411
 21
0.515962660312653
  0
LINE
  5
D7
100
AcDbEntity
  8
SEMA2D
100
AcDbLine
 62
7
  6
_SOLID
370
9
 10
4.28170728683472
 20
0.512462615966797
 11
4.27564525604248
 21
0.508962631225586
  0
LINE
  5
D8
100
AcDbEntity
  8
SEMA2D
100
AcDbLine
 62
7
  6
_DOT
370
9
 10
4.28170728683472
 20
0.462650746107101
 11
4.28170728683472
 21
0.512462615966797
  0
LINE
  5
D9
100
AcDbEntity
  8
SEMA2D
100
AcDbLine
 62
7
  6
_DOT
370
9
 10
4.28170728683472
 20
0.462650746107101
 11
4.28170728683472
 21
0.462650746107101
  0
LINE
  5
DA
100
AcDbEntity
  8
SEMA2D
100
AcDbLine
 62
7
  6
_SOLID
370
9
 10
4.33170747756958
 20
0.21246263384819
 11
4.33170747756958
 21
0.462650746107101
  0
LINE
  5
DB
100
AcDbEntity
  8
SEMA2D
100
AcDbLine
 62
7
  6
_SOLID
370
9
 10
4.33170747756958
 20
0.21246263384819
 11
4.32470750808716
 21
0.21246263384819
  0
LINE
  5
DC
100
AcDbEntity
  8
SEMA2D
100
AcDbLine
 62
7
  6
_SOLID
370
9
 10
4.33170747756958
 20
0.21246263384819
 11
4.338707447052
 21
0.21246263384819
  0
LINE
  5
DD
100
AcDbEntity
  8
SEMA2D
100
AcDbLine
 62
7
  6
_SOLID
370
9
 10
4.33170747756958
 20
0.21246263384819
 11
4.32820749282837
 21
0.218524813652039
  0
LINE
  5
DE
100
AcDbEntity
  8
SEMA2D
100
AcDbLine
 62
7
  6
_SOLID
370
9
 10
4.33170747756958
 20
0.21246263384819
 11
4.33520746231079
 21
0.206400454044342
  0
LINE
  5
DF
100
AcDbEntity
  8
SEMA2D
100
AcDbLine
 62
7
  6
_DOT
370
9
 10
4.28170728683472
 20
0.21246263384819
 11
4.33170747756958
 21
0.21246263384819
  0
LINE
  5
E0
100
AcDbEntity
  8
SEMA2D
100
AcDbLine
 62
7
  6
_DOT
370
9
 10
4.28170728683472
 20
0.21246263384819
 11
4.28170728683472
 21
0.21246263384819
  0
MTEXT
  5
E1
100
AcDbEntity
  8
SEMATEXT
100
AcDbMText
 62
7
 10
4.326575756073
 20
0.328845083713532
 40
0.00800000037997961
 50
90
 71
7
  1
{\fArial Narrow;250}
  7
STANDARD
 73
2
  0
LINE
  5
E2
100
AcDbEntity
  8
SEMA2D
100
AcDbLine
 62
7
  6
_SOLID
370
9
 10
4.33170747756958
 20
0.462650746107101
 11
4.32470750808716
 21
0.462650746107101
  0
LINE
  5
E3
100
AcDbEntity
  8
SEMA2D
100
AcDbLine
 62
7
  6
_SOLID
370
9
 10
4.33170747756958
 20
0.462650746107101
 11
4.338707447052
 21
0.462650746107101
  0
LINE
  5
E4
100
AcDbEntity
  8
SEMA2D
100
AcDbLine
 62
7
  6
_SOLID
370
9
 10
4.33170747756958
 20
0.462650746107101
 11
4.32820749282837
 21
0.46871292591095
  0
LINE
  5
E5
100
AcDbEntity
  8
SEMA2D
100
AcDbLine
 62
7
  6
_SOLID
370
9
 10
4.33170747756958
 20
0.462650746107101
 11
4.33520746231079
 21
0.456588566303253
  0
LINE
  5
E6
100
AcDbEntity
  8
SEMA2D
100
AcDbLine
 62
7
  6
_DOT
370
9
 10
4.28170728683472
 20
0.462650746107101
 11
4.33170747756958
 21
0.462650746107101
  0
LINE
  5
E7
100
AcDbEntity
  8
SEMA2D
100
AcDbLine
 62
7
  6
_DOT
370
9
 10
4.28170728683472
 20
0.462650746107101
 11
4.28170728683472
 21
0.462650746107101
  0
LINE
  5
E8
100
AcDbEntity
  8
SEMA2D
100
AcDbLine
 62
7
  6
_SOLID
370
9
 10
3.87374401092529
 20
0.21246263384819
 11
3.87374401092529
 21
0.462650746107101
  0
LINE
  5
E9
100
AcDbEntity
  8
SEMA2D
100
AcDbLine
 62
7
  6
_SOLID
370
9
 10
3.87374401092529
 20
0.21246263384819
 11
3.86674404144287
 21
0.21246263384819
  0
LINE
  5
EA
100
AcDbEntity
  8
SEMA2D
100
AcDbLine
 62
7
  6
_SOLID
370
9
 10
3.87374401092529
 20
0.21246263384819
 11
3.88074398040771
 21
0.21246263384819
  0
LINE
  5
EB
100
AcDbEntity
  8
SEMA2D
100
AcDbLine
 62
7
  6
_SOLID
370
9
 10
3.87374401092529
 20
0.21246263384819
 11
3.87024402618408
 21
0.218524813652039
  0
LINE
  5
EC
100
AcDbEntity
  8
SEMA2D
100
AcDbLine
 62
7
  6
_SOLID
370
9
 10
3.87374401092529
 20
0.21246263384819
 11
3.8772439956665
 21
0.206400454044342
  0
LINE
  5
ED
100
AcDbEntity
  8
SEMA2D
100
AcDbLine
 62
7
  6
_DOT
370
9
 10
3.92374396324158
 20
0.21246263384819
 11
3.87374401092529
 21
0.21246263384819
  0
LINE
  5
EE
100
AcDbEntity
  8
SEMA2D
100
AcDbLine
 62
7
  6
_DOT
370
9
 10
3.92374396324158
 20
0.21246263384819
 11
3.92374396324158
 21
0.21246263384819
  0
MTEXT
  5
EF
100
AcDbEntity
  8
SEMATEXT
100
AcDbMText
 62
7
 10
3.86861205101013
 20
0.328845083713532
 40
0.00800000037997961
 50
90
 71
7
  1
{\fArial Narrow;250}
  7
STANDARD
 73
2
  0
LINE
  5
F0
100
AcDbEntity
  8
SEMA2D
100
AcDbLine
 62
7
  6
_SOLID
370
9
 10
3.87374401092529
 20
0.462650746107101
 11
3.86674404144287
 21
0.462650746107101
  0
LINE
  5
F1
100
AcDbEntity
  8
SEMA2D
100
AcDbLine
 62
7
  6
_SOLID
370
9
 10
3.87374401092529
 20
0.462650746107101
 11
3.88074398040771
 21
0.462650746107101
  0
LINE
  5
F2
100
AcDbEntity
  8
SEMA2D
100
AcDbLine
 62
7
  6
_SOLID
370
9
 10
3.87374401092529
 20
0.462650746107101
 11
3.87024402618408
 21
0.46871292591095
  0
LINE
  5
F3
100
AcDbEntity
  8
SEMA2D
100
AcDbLine
 62
7
  6
_SOLID
370
9
 10
3.87374401092529
 20
0.462650746107101
 11
3.8772439956665
 21
0.456588566303253
  0
LINE
  5
F4
100
AcDbEntity
  8
SEMA2D
100
AcDbLine
 62
7
  6
_DOT
370
9
 10
3.92374396324158
 20
0.462650746107101
 11
3.87374401092529
 21
0.462650746107101
  0
LINE
  5
F5
100
AcDbEntity
  8
SEMA2D
100
AcDbLine
 62
7
  6
_DOT
370
9
 10
3.92374396324158
 20
0.462650746107101
 11
3.92374396324158
 21
0.462650746107101
  0
LINE
  5
F6
100
AcDbEntity
  8
SEMA2D
100
AcDbLine
 62
7
  6
_SOLID
370
9
 10
3.99182057380676
 20
0.21246263384819
 11
3.99182057380676
 21
0.442462623119354
  0
LINE
  5
F7
100
AcDbEntity
  8
SEMA2D
100
AcDbLine
 62
7
  6
_SOLID
370
9
 10
3.99182057380676
 20
0.21246263384819
 11
3.98482060432434
 21
0.21246263384819
  0
LINE
  5
F8
100
AcDbEntity
  8
SEMA2D
100
AcDbLine
 62
7
  6
_SOLID
370
9
 10
3.99182057380676
 20
0.21246263384819
 11
3.99882054328918
 21
0.21246263384819
  0
LINE
  5
F9
100
AcDbEntity
  8
SEMA2D
100
AcDbLine
 62
7
  6
_SOLID
370
9
 10
3.99182057380676
 20
0.21246263384819
 11
3.98832058906555
 21
0.218524813652039
  0
LINE
  5
FA
100
AcDbEntity
  8
SEMA2D
100
AcDbLine
 62
7
  6
_SOLID
370
9
 10
3.99182057380676
 20
0.21246263384819
 11
3.99532055854797
 21
0.206400454044342
  0
LINE
  5
FB
100
AcDbEntity
  8
SEMA2D
100
AcDbLine
 62
7
  6
_DOT
370
9
 10
3.94182062149048
 20
0.21246263384819
 11
3.99182057380676
 21
0.21246263384819
  0
LINE
  5
FC
100
AcDbEntity
  8
SEMA2D
100
AcDbLine
 62
7
  6
_DOT
370
9
 10
3.94182062149048
 20
0.21246263384819
 11
3.94182062149048
 21
0.21246263384819
  0
MTEXT
  5
FD
100
AcDbEntity
  8
SEMATEXT
100
AcDbMText
 62
7
 10
3.9866886138916
 20
0.318751037120819
 40
0.00800000037997961
 50
90
 71
7
  1
{\fArial Narrow;230}
  7
STANDARD
 73
2
  0
LINE
  5
FE
100
AcDbEntity
  8
SEMA2D
100
AcDbLine
 62
7
  6
_SOLID
370
9
 10
3.99182057380676
 20
0.442462623119354
 11
3.98482060432434
 21
0.442462623119354
  0
LINE
  5
FF
100
AcDbEntity
  8
SEMA2D
100
AcDbLine
 62
7
  6
_SOLID
370
9
 10
3.99182057380676
 20
0.442462623119354
 11
3.99882054328918
 21
0.442462623119354
  0
LINE
  5
100
100
AcDbEntity
  8
SEMA2D
100
AcDbLine
 62
7
  6
_SOLID
370
9
 10
3.99182057380676
 20
0.442462623119354
 11
3.98832058906555
 21
0.448524802923202
  0
LINE
  5
101
100
AcDbEntity
  8
SEMA2D
100
AcDbLine
 62
7
  6
_SOLID
370
9
 10
3.99182057380676
 20
0.442462623119354
 11
3.99532055854797
 21
0.436400443315506
  0
LINE
  5
102
100
AcDbEntity
  8
SEMA2D
100
AcDbLine
 62
7
  6
_DOT
370
9
 10
3.94182062149048
 20
0.442462623119354
 11
3.99182057380676
 21
0.442462623119354
  0
LINE
  5
103
100
AcDbEntity
  8
SEMA2D
100
AcDbLine
 62
7
  6
_DOT
370
9
 10
3.94182062149048
 20
0.442462623119354
 11
3.94182062149048
 21
0.442462623119354
  0
ENDSEC
  0
SECTION
  2
OBJECTS
  0
DICTIONARY
  5
 13
330
0
100
AcDbDictionary
281
     1
  3
ACAD_GROUP
350
 14
 3
ACAD_MLINESTYLE
350
 16
  3
ACAD_PLOTSETTINGS
350
 17
  3
ACAD_PLOTSTYLENAME
350
 18
  0
DICTIONARY
  5
 14
330
 13
100
AcDbDictionary
281
     1
  0
DICTIONARY
  5
 16
330
 13
100
AcDbDictionary
281
     1
  0
DICTIONARY
  5
 17
102
{ACAD_REACTORS
330
 13
102
}
330
 13
100
AcDbDictionary
281
     1
  0
ACDBDICTIONARYWDFLT
  5
 18
102
{ACAD_REACTORS
330
 13
102
}
330
 13
100
AcDbDictionary
281
     1
  3
Normal
350
 19
100
AcDbDictionaryWithDefault
340
 19
  0
ACDBPLACEHOLDER
  5
 19
102
{ACAD_REACTORS
330
 18
102
}
330
 18
  0
ENDSEC
  0
EOF
