  0
SECTION
  2
HEADER
  9
$ACADVER
  1
AC1015
  9
$HANDSEED
  5
130
  9
$LIMMIN
 10
-0.0840616747736931
 20
-0.0184114277362823
  9
$LIMMAX
 10
0.390799134969711
 20
0.707194268703461
  9
$MEASUREMENT
 70
1
  0
ENDSEC
  0
SECTION
  2
TABLES
  0
TABLE
  2
VPORT
  5
  1
100
AcDbSymbolTable
  0
ENDTAB
  0
TABLE
  2
LTYPE
  5
  2
100
AcDbSymbolTable
  0
LTYPE
  5
  3
100
AcDbSymbolTableRecord
100
AcDbLinetypeTableRecord
  2
BYBLOCK
 70
     0
  0
LTYPE
  5
  4
100
AcDbSymbolTableRecord
100
AcDbLinetypeTableRecord
  2
BYLAYER
 70
     0
  0
LTYPE
  5
20
100
AcDbSymbolTableRecord
100
AcDbLinetypeTableRecord
  2
_SOLID
  3

 70
0
 72
65
 73
2
 40
5
 49
5
 74
0
 49
0
 74
0
  0
LTYPE
  5
21
100
AcDbSymbolTableRecord
100
AcDbLinetypeTableRecord
  2
_DASH
  3

 70
0
 72
65
 73
2
 40
7
 49
5
 74
0
 49
-2
 74
0
  0
LTYPE
  5
22
100
AcDbSymbolTableRecord
100
AcDbLinetypeTableRecord
  2
_DOT
  3

 70
0
 72
65
 73
2
 40
4
 49
2
 74
0
 49
-2
 74
0
  0
LTYPE
  5
23
100
AcDbSymbolTableRecord
100
AcDbLinetypeTableRecord
  2
_DASHDOT
  3

 70
0
 72
65
 73
4
 40
11
 49
5
 74
0
 49
-2
 74
0
 49
2
 74
0
 49
-2
 74
0
  0
LTYPE
  5
24
100
AcDbSymbolTableRecord
100
AcDbLinetypeTableRecord
  2
_DASHDOTDOT
  3

 70
0
 72
65
 73
6
 40
15
 49
5
 74
0
 49
-2
 74
0
 49
2
 74
0
 49
-2
 74
0
 49
2
 74
0
 49
-2
 74
0
  0
LTYPE
  5
25
100
AcDbSymbolTableRecord
100
AcDbLinetypeTableRecord
  2
ISO128-20-02
  3

 70
0
 72
65
 73
2
 40
15
 49
12
 74
0
 49
-3
 74
0
  0
LTYPE
  5
26
100
AcDbSymbolTableRecord
100
AcDbLinetypeTableRecord
  2
ISO128-20-03
  3

 70
0
 72
65
 73
2
 40
30
 49
12
 74
0
 49
-18
 74
0
  0
LTYPE
  5
27
100
AcDbSymbolTableRecord
100
AcDbLinetypeTableRecord
  2
ISO128-20-04
  3

 70
0
 72
65
 73
4
 40
30
 49
24
 74
0
 49
-3
 74
0
 49
0
 74
0
 49
-3
 74
0
  0
LTYPE
  5
28
100
AcDbSymbolTableRecord
100
AcDbLinetypeTableRecord
  2
ISO128-20-05
  3

 70
0
 72
65
 73
6
 40
33
 49
24
 74
0
 49
-3
 74
0
 49
0
 74
0
 49
-3
 74
0
 49
0
 74
0
 49
-3
 74
0
  0
LTYPE
  5
29
100
AcDbSymbolTableRecord
100
AcDbLinetypeTableRecord
  2
ISO128-20-06
  3

 70
0
 72
65
 73
8
 40
36
 49
24
 74
0
 49
-3
 74
0
 49
0
 74
0
 49
-3
 74
0
 49
0
 74
0
 49
-3
 74
0
 49
0
 74
0
 49
-3
 74
0
  0
LTYPE
  5
2A
100
AcDbSymbolTableRecord
100
AcDbLinetypeTableRecord
  2
ISO128-20-07
  3

 70
0
 72
65
 73
2
 40
3
 49
0
 74
0
 49
-3
 74
0
  0
LTYPE
  5
2B
100
AcDbSymbolTableRecord
100
AcDbLinetypeTableRecord
  2
ISO128-20-08
  3

 70
0
 72
65
 73
4
 40
36
 49
24
 74
0
 49
-3
 74
0
 49
6
 74
0
 49
-3
 74
0
  0
LTYPE
  5
2C
100
AcDbSymbolTableRecord
100
AcDbLinetypeTableRecord
  2
ISO128-20-09
  3

 70
0
 72
65
 73
6
 40
45
 49
24
 74
0
 49
-3
 74
0
 49
6
 74
0
 49
-3
 74
0
 49
6
 74
0
 49
-3
 74
0
  0
LTYPE
  5
2D
100
AcDbSymbolTableRecord
100
AcDbLinetypeTableRecord
  2
ISO128-20-10
  3

 70
0
 72
65
 73
4
 40
18
 49
12
 74
0
 49
-3
 74
0
 49
0
 74
0
 49
-3
 74
0
  0
LTYPE
  5
2E
100
AcDbSymbolTableRecord
100
AcDbLinetypeTableRecord
  2
ISO128-20-11
  3

 70
0
 72
65
 73
6
 40
33
 49
12
 74
0
 49
-3
 74
0
 49
12
 74
0
 49
-3
 74
0
 49
0
 74
0
 49
-3
 74
0
  0
LTYPE
  5
2F
100
AcDbSymbolTableRecord
100
AcDbLinetypeTableRecord
  2
ISO128-20-12
  3

 70
0
 72
65
 73
6
 40
21
 49
12
 74
0
 49
-3
 74
0
 49
0
 74
0
 49
-3
 74
0
 49
0
 74
0
 49
-3
 74
0
  0
LTYPE
  5
30
100
AcDbSymbolTableRecord
100
AcDbLinetypeTableRecord
  2
ISO128-20-13
  3

 70
0
 72
65
 73
8
 40
36
 49
12
 74
0
 49
-3
 74
0
 49
12
 74
0
 49
-3
 74
0
 49
0
 74
0
 49
-3
 74
0
 49
0
 74
0
 49
-3
 74
0
  0
LTYPE
  5
31
100
AcDbSymbolTableRecord
100
AcDbLinetypeTableRecord
  2
ISO128-20-14
  3

 70
0
 72
65
 73
8
 40
24
 49
12
 74
0
 49
-3
 74
0
 49
0
 74
0
 49
-3
 74
0
 49
0
 74
0
 49
-3
 74
0
 49
0
 74
0
 49
-3
 74
0
  0
LTYPE
  5
32
100
AcDbSymbolTableRecord
100
AcDbLinetypeTableRecord
  2
ISO128-20-15
  3

 70
0
 72
65
 73
10
 40
39
 49
12
 74
0
 49
-3
 74
0
 49
12
 74
0
 49
-3
 74
0
 49
0
 74
0
 49
-3
 74
0
 49
0
 74
0
 49
-3
 74
0
 49
0
 74
0
 49
-3
 74
0
  0
ENDTAB
  0
TABLE
  2
LAYER
  5
 1A
330
  0
100
AcDbSymbolTable
  0
LAYER
  5
12C
330
 1A
100
AcDbSymbolTableRecord
100
AcDbLayerTableRecord
  2
0
 70
0
 62
7
  6
Continuous
370
-3
390
 19
  0
LAYER
  5
12D
330
 1A
100
AcDbSymbolTableRecord
100
AcDbLayerTableRecord
  2
SEMA2D
 70
0
 62
7
  6
Continuous
370
-3
390
 19
  0
LAYER
  5
12E
330
 1A
100
AcDbSymbolTableRecord
100
AcDbLayerTableRecord
  2
SEMATEXT
 70
0
 62
7
  6
Continuous
370
-3
390
 19
  0
ENDTAB
  0
TABLE
  2
STYLE
  5
  5
100
AcDbSymbolTable
  0
STYLE
  5
  6
100
AcDbSymbolTableRecord
100
AcDbTextStyleTableRecord
  2
STANDARD
 70
     0
 40
0.0
 41
1.0
 50
0.0
 71
     0
 42
10.0
  3
txt
  4

  0
ENDTAB
  0
TABLE
  2
VIEW
  5
  7
100
AcDbSymbolTable
  0
ENDTAB
  0
TABLE
  2
UCS
  5
  8
100
AcDbSymbolTable
  0
ENDTAB
  0
TABLE
  2
APPID
  5
  9
100
AcDbSymbolTable
  0
APPID
  5
  A
100
AcDbSymbolTableRecord
100
AcDbRegAppTableRecord
  2
ACAD
 70
0
  0
ENDTAB
  0
TABLE
  2
DIMSTYLE
  5
  B
100
AcDbSymbolTable
 70
     1
100
AcDbDimStyleTable
 71
     0
  0
DIMSTYLE
105
 1B
330
B
100
AcDbSymbolTableRecord
100
AcDbDimStyleTableRecord
  2
STANDARD
 70
    0
340
  6
  0
ENDTAB
  0
TABLE
  2
BLOCK_RECORD
  5
  C
100
AcDbSymbolTable
  0
BLOCK_RECORD
  5
  D
100
AcDbSymbolTableRecord
100
AcDbBlockTableRecord
  2
*MODEL_SPACE
  0
BLOCK_RECORD
  5
  E
100
AcDbSymbolTableRecord
100
AcDbBlockTableRecord
  2
*PAPER_SPACE
  0
ENDTAB
  0
ENDSEC
  0
SECTION
  2
BLOCKS
  0
BLOCK
  5
  F
330
  D
100
AcDbEntity
  8
0
100
AcDbBlockBegin
  2
*MODEL_SPACE
 70
     0
  0
ENDBLK
  5
 10
100
AcDbEntity
  8
0
100
AcDbBlockEnd
  0
BLOCK
  5
 11
330
  E
100
AcDbEntity
  8
0
100
AcDbBlockBegin
  2
*PAPER_SPACE
 70
     0
  0
ENDBLK
  5
 12
100
AcDbEntity
  8
0
100
AcDbBlockEnd
  0
ENDSEC
  0
SECTION
  2
ENTITIES
  0
LINE
  5
33
100
AcDbEntity
  8
SEMA2D
100
AcDbLine
 62
7
  6
_SOLID
370
9
 10
-0.0134662929922342
 20
0.0398715883493423
 11
-0.0197343695908785
 21
0.0398715883493423
  0
LINE
  5
34
100
AcDbEntity
  8
SEMA2D
100
AcDbLine
 62
7
  6
_SOLID
370
9
 10
-0.0106852930039167
 20
0.0317963734269142
 11
-0.0134662929922342
 21
0.0317963734269142
  0
LINE
  5
35
100
AcDbEntity
  8
SEMA2D
100
AcDbLine
 62
7
  6
_SOLID
370
9
 10
-0.0169031471014023
 20
-0.0121646635234356
 11
-0.0134662929922342
 21
-0.0123492497950792
  0
LINE
  5
36
100
AcDbEntity
  8
SEMA2D
100
AcDbLine
 62
7
  6
_SOLID
370
9
 10
-0.0134662929922342
 20
-0.0123492497950792
 11
-0.0106852930039167
 21
-0.0123492497950792
  0
LINE
  5
37
100
AcDbEntity
  8
SEMA2D
100
AcDbLine
 62
7
  6
_SOLID
370
9
 10
-0.0106852930039167
 20
-0.0116367498412728
 11
-0.00605029286816716
 21
-0.0113878129050136
  0
LINE
  5
38
100
AcDbEntity
  8
SEMA2D
100
AcDbLine
 62
7
  6
_SOLID
370
9
 10
0.0134167075157166
 20
0.439262747764587
 11
0.0134167075157166
 21
0.453718572854996
  0
LINE
  5
39
100
AcDbEntity
  8
SEMA2D
100
AcDbLine
 62
7
  6
_SOLID
370
9
 10
0.0118846511468291
 20
0.437391638755798
 11
-0.00605029286816716
 21
0.434150755405426
  0
LINE
  5
3A
100
AcDbEntity
  8
SEMA2D
100
AcDbLine
 62
7
  6
_SOLID
370
9
 10
-0.0134662929922342
 20
0.462650746107101
 11
-0.0223698243498802
 21
0.462172567844391
  0
LINE
  5
3B
100
AcDbEntity
  8
SEMA2D
100
AcDbLine
 62
7
  6
_SOLID
370
9
 10
0.0123276738449931
 20
0.455449312925339
 11
-0.000469236401841044
 21
0.461389571428299
  0
LINE
  5
3C
100
AcDbEntity
  8
SEMA2D
100
AcDbLine
 62
7
  6
_SOLID
370
9
 10
-0.0106852930039167
 20
0.462650746107101
 11
-0.0134662929922342
 21
0.462650746107101
  0
LINE
  5
3D
100
AcDbEntity
  8
SEMA2D
100
AcDbLine
 62
7
  6
_SOLID
370
9
 10
-0.0106852930039167
 20
0.461938261985779
 11
-0.000469236401841044
 21
0.461389571428299
  0
LINE
  5
3E
100
AcDbEntity
  8
SEMA2D
100
AcDbLine
 62
7
  6
_SOLID
370
9
 10
-0.0241267923265696
 20
0.460275173187256
 11
-0.0241267923265696
 21
0.0357072167098522
  0
LINE
  5
3F
100
AcDbEntity
  8
SEMA2D
100
AcDbLine
 62
7
  6
_SOLID
370
9
 10
-0.0228702612221241
 20
-0.00647185975685716
 11
-0.0228702630847692
 21
0.00199831393547356
  0
LINE
  5
40
100
AcDbEntity
  8
SEMA2D
100
AcDbLine
 62
7
  6
_SOLID
370
9
 10
-0.0235811918973923
 20
0.0327694937586784
 11
-0.0235811918973923
 21
-0.0068428311496973
  0
LINE
  5
41
100
AcDbEntity
  8
SEMA2D
100
AcDbLine
 62
7
  6
_SOLID
370
9
 10
-0.0106852930039167
 20
0.462650746107101
 11
-0.0106852930039167
 21
-0.0123492320999503
  0
LINE
  5
42
100
AcDbEntity
  8
SEMA2D
100
AcDbLine
 62
7
  6
_SOLID
370
9
 10
-0.00605029286816716
 20
0.461689323186874
 11
-0.00605029286816716
 21
-0.0113878129050136
  0
LINE
  5
43
100
AcDbEntity
  8
SEMA2D
100
AcDbLine
 62
7
  6
_SOLID
370
9
 10
-0.0228702705353498
 20
0.00606165174394846
 11
-0.0228702686727047
 21
0.0303573906421661
  0
LINE
  5
44
100
AcDbEntity
  8
SEMA2D
100
AcDbLine
 62
7
  6
_SOLID
370
9
 10
-0.0197343695908785
 20
0.460416704416275
 11
-0.0197343695908785
 21
0.0398715883493423
  0
LINE
  5
45
100
AcDbEntity
  8
SEMA2D
100
AcDbLine
 62
7
  6
_SOLID
370
9
 10
-0.0134662929922342
 20
0.462650746107101
 11
-0.0134662929922342
 21
-0.0123492497950792
  0
ARC
  5
46
100
AcDbEntity
  8
SEMA2D
100
AcDbCircle
 62
7
  6
_SOLID
370
9
 10
-0.0222199466079474
 20
0.460271596908569
 40
0.00190684944391251
100
AcDbArc
 50
90
 51
179.893203735352
  0
ARC
  5
47
100
AcDbEntity
  8
SEMA2D
100
AcDbCircle
 62
7
  6
_SOLID
370
9
 10
0.011796148493886
 20
0.453906863927841
 40
0.00163145991973579
100
AcDbArc
 50
353.372833251953
 51
70.9861221313477
  0
ARC
  5
48
100
AcDbEntity
  8
SEMA2D
100
AcDbCircle
 62
7
  6
_SOLID
370
9
 10
0.0116748129948974
 20
0.439126223325729
 40
0.00174723728559911
100
AcDbArc
 50
276.897674560547
 51
4.48213720321655
  0
ARC
  5
49
100
AcDbEntity
  8
SEMA2D
100
AcDbCircle
 62
7
  6
_SOLID
370
9
 10
-0.0317416340112686
 20
-0.00595339201390743
 40
0.0117969159036875
100
AcDbArc
 50
16.8970928192139
 51
37.896369934082
  0
ARC
  5
4A
100
AcDbEntity
  8
SEMA2D
100
AcDbCircle
 62
7
  6
_SOLID
370
9
 10
-0.0175898000597954
 20
0.00482012936845422
 40
0.00599113991484046
100
AcDbArc
 50
180.260940551758
 51
216.070205688477
  0
ARC
  5
4B
100
AcDbEntity
  8
SEMA2D
100
AcDbCircle
 62
7
  6
_SOLID
370
9
 10
-0.00986242853105068
 20
0.036657877266407
 40
0.0142958573997021
100
AcDbArc
 50
183.813995361328
 51
200.973480224609
  0
ARC
  5
4C
100
AcDbEntity
  8
SEMA2D
100
AcDbCircle
 62
7
  6
_SOLID
370
9
 10
-0.0840616747736931
 20
0.0126289492473006
 40
0.0637458264827728
100
AcDbArc
 50
3.25662040710449
 51
18.4182224273682
  0
ARC
  5
4D
100
AcDbEntity
  8
SEMA2D
100
AcDbCircle
 62
7
  6
_SOLID
370
9
 10
-0.0193811897188425
 20
-0.00679237302392721
 40
0.00420022290199995
100
AcDbArc
 50
180.665145874023
 51
249.815383911133
  0
ARC
  5
4E
100
AcDbEntity
  8
SEMA2D
100
AcDbCircle
 62
7
  6
_SOLID
370
9
 10
-0.0167056489735842
 20
-0.00852253753691912
 40
0.00364747666753829
100
AcDbArc
 50
246.439605712891
 51
266.896148681641
  0
LINE
  5
4F
100
AcDbEntity
  8
SEMA2D
100
AcDbLine
 62
7
  6
_SOLID
370
9
 10
-0.0208304617553949
 20
-0.0107346419245005
 11
-0.0181636027991772
 21
-0.0118659576401114
  0
ARC
  5
50
100
AcDbEntity
  8
SEMA2D
100
AcDbCircle
 62
7
  6
_SOLID
370
9
 10
0.226028248667717
 20
0.629336774349213
 40
0.00278099998831749
100
AcDbArc
 50
90
 51
165
  0
ARC
  5
51
100
AcDbEntity
  8
SEMA2D
100
AcDbCircle
 62
7
  6
_SOLID
370
9
 10
0.192788034677506
 20
0.629336774349213
 40
0.00278099998831749
100
AcDbArc
 50
15.0000009536743
 51
90
  0
ARC
  5
52
100
AcDbEntity
  8
SEMA2D
100
AcDbCircle
 62
7
  6
_SOLID
370
9
 10
0.304823249578476
 20
0.629336774349213
 40
0.00278099998831749
100
AcDbArc
 50
90
 51
165
  0
ARC
  5
53
100
AcDbEntity
  8
SEMA2D
100
AcDbCircle
 62
7
  6
_SOLID
370
9
 10
0.248805642127991
 20
0.678451836109161
 40
0.0319655798375607
100
AcDbArc
 50
247.414764404297
 51
292.585235595703
  0
ARC
  5
54
100
AcDbEntity
  8
SEMA2D
100
AcDbCircle
 62
7
  6
_SOLID
370
9
 10
0.232968777418137
 20
0.640378654003143
 40
0.00927000027149916
100
AcDbArc
 50
67.4138336181641
 51
112.584205627441
  0
ARC
  5
55
100
AcDbEntity
  8
SEMA2D
100
AcDbCircle
 62
7
  6
_SOLID
370
9
 10
0.264642506837845
 20
0.640378654003143
 40
0.00927000027149916
100
AcDbArc
 50
67.4156112670898
 51
112.586318969727
  0
ARC
  5
56
100
AcDbEntity
  8
SEMA2D
100
AcDbCircle
 62
7
  6
_SOLID
370
9
 10
0.296316206455231
 20
0.640378654003143
 40
0.00927000027149916
100
AcDbArc
 50
67.4144592285156
 51
112.584716796875
  0
ARC
  5
57
100
AcDbEntity
  8
SEMA2D
100
AcDbCircle
 62
7
  6
_SOLID
370
9
 10
0.280479341745377
 20
0.678451836109161
 40
0.0319655798375607
100
AcDbArc
 50
247.414749145508
 51
292.585266113281
  0
ARC
  5
58
100
AcDbEntity
  8
SEMA2D
100
AcDbCircle
 62
7
  6
_SOLID
370
9
 10
0.185458213090897
 20
0.678451836109161
 40
0.0319655798375607
100
AcDbArc
 50
243.986419677734
 51
292.585296630859
  0
ARC
  5
59
100
AcDbEntity
  8
SEMA2D
100
AcDbCircle
 62
7
  6
_SOLID
370
9
 10
0.217131927609444
 20
0.678451836109161
 40
0.0319655798375607
100
AcDbArc
 50
247.414733886719
 51
292.585235595703
  0
ARC
  5
5A
100
AcDbEntity
  8
SEMA2D
100
AcDbCircle
 62
7
  6
_SOLID
370
9
 10
0.201295077800751
 20
0.640378654003143
 40
0.00927000027149916
100
AcDbArc
 50
67.4151840209961
 51
112.585563659668
  0
ARC
  5
5B
100
AcDbEntity
  8
SEMA2D
100
AcDbCircle
 62
7
  6
_SOLID
370
9
 10
0.296050518751144
 20
0.614504754543304
 40
0.00185400003101677
100
AcDbArc
 50
270
 51
345
  0
ARC
  5
5C
100
AcDbEntity
  8
SEMA2D
100
AcDbCircle
 62
7
  6
_SOLID
370
9
 10
0.280355751514435
 20
0.614504754543304
 40
0.00185400003101677
100
AcDbArc
 50
195
 51
270
  0
ARC
  5
5D
100
AcDbEntity
  8
SEMA2D
100
AcDbCircle
 62
7
  6
_SOLID
370
9
 10
0.217255517840385
 20
0.614504754543304
 40
0.00185400003101677
100
AcDbArc
 50
270
 51
345
  0
ARC
  5
5E
100
AcDbEntity
  8
SEMA2D
100
AcDbCircle
 62
7
  6
_SOLID
370
9
 10
0.271583020687103
 20
0.629336774349213
 40
0.00278099998831749
100
AcDbArc
 50
15.0000009536743
 51
90
  0
ARC
  5
5F
100
AcDbEntity
  8
SEMA2D
100
AcDbCircle
 62
7
  6
_SOLID
370
9
 10
0.201560765504837
 20
0.614504754543304
 40
0.00185400003101677
100
AcDbArc
 50
195
 51
270
  0
ARC
  5
60
100
AcDbEntity
  8
SEMA2D
100
AcDbCircle
 62
7
  6
_SOLID
370
9
 10
0.328205496072769
 20
0.645559251308441
 40
0.00463500013574958
100
AcDbArc
 50
3.00000047683716
 51
116.013580322266
  0
ARC
  5
61
100
AcDbEntity
  8
SEMA2D
100
AcDbCircle
 62
7
  6
_SOLID
370
9
 10
0.312153071165085
 20
0.678451836109161
 40
0.0319655798375607
100
AcDbArc
 50
247.414703369141
 51
296.013580322266
  0
ARC
  5
62
100
AcDbEntity
  8
SEMA2D
100
AcDbCircle
 62
7
  6
_SOLID
370
9
 10
0.169405788183212
 20
0.645559251308441
 40
0.00463500013574958
100
AcDbArc
 50
63.9864196777344
 51
177
  0
ARC
  5
63
100
AcDbEntity
  8
SEMA2D
100
AcDbCircle
 62
7
  6
_SOLID
370
9
 10
0.330465108156204
 20
0.633971750736237
 40
0.00185400003101677
100
AcDbArc
 50
270
 51
-3.0000011920929
  0
ARC
  5
64
100
AcDbEntity
  8
SEMA2D
100
AcDbCircle
 62
7
  6
_SOLID
370
9
 10
0.167146176099777
 20
0.633971750736237
 40
0.00185400003101677
100
AcDbArc
 50
183
 51
270
  0
LINE
  5
65
100
AcDbEntity
  8
SEMA2D
100
AcDbLine
 62
7
  6
_SOLID
370
9
 10
0.330017358064652
 20
0.633874714374542
 11
0.330141633749008
 21
0.636752724647522
  0
LINE
  5
66
100
AcDbEntity
  8
SEMA2D
100
AcDbLine
 62
7
  6
_SOLID
370
9
 10
0.333162635564804
 20
0.636752724647522
 11
0.333162635564804
 21
0.639533758163452
  0
LINE
  5
67
100
AcDbEntity
  8
SEMA2D
100
AcDbLine
 62
7
  6
_SOLID
370
9
 10
0.332467377185822
 20
0.636752724647522
 11
0.332316547632217
 21
0.633874714374542
  0
LINE
  5
68
100
AcDbEntity
  8
SEMA2D
100
AcDbLine
 62
7
  6
_SOLID
370
9
 10
0.195398807525635
 20
0.630338191986084
 11
0.199769929051399
 21
0.614024877548218
  0
LINE
  5
69
100
AcDbEntity
  8
SEMA2D
100
AcDbLine
 62
7
  6
_SOLID
370
9
 10
0.223343089222908
 20
0.63006055355072
 11
0.219046339392662
 21
0.614024877548218
  0
LINE
  5
6A
100
AcDbEntity
  8
SEMA2D
100
AcDbLine
 62
7
  6
_SOLID
370
9
 10
0.217255517840385
 20
0.612650752067566
 11
0.201560765504837
 21
0.612650752067566
  0
LINE
  5
6B
100
AcDbEntity
  8
SEMA2D
100
AcDbLine
 62
7
  6
_SOLID
370
9
 10
0.280355751514435
 20
0.612650752067566
 11
0.296050518751144
 21
0.612650752067566
  0
LINE
  5
6C
100
AcDbEntity
  8
SEMA2D
100
AcDbLine
 62
7
  6
_SOLID
370
9
 10
0.164777129888535
 20
0.645801842212677
 11
0.164448633790016
 21
0.639533758163452
  0
LINE
  5
6D
100
AcDbEntity
  8
SEMA2D
100
AcDbLine
 62
7
  6
_SOLID
370
9
 10
0.167593911290169
 20
0.633874714374542
 11
0.167469635605812
 21
0.636752724647522
  0
LINE
  5
6E
100
AcDbEntity
  8
SEMA2D
100
AcDbLine
 62
7
  6
_SOLID
370
9
 10
0.165143892168999
 20
0.636752724647522
 11
0.165294721722603
 21
0.633874714374542
  0
LINE
  5
6F
100
AcDbEntity
  8
SEMA2D
100
AcDbLine
 62
7
  6
_SOLID
370
9
 10
0.164448633790016
 20
0.636752724647522
 11
0.164448633790016
 21
0.639533758163452
  0
LINE
  5
70
100
AcDbEntity
  8
SEMA2D
100
AcDbLine
 62
7
  6
_SOLID
370
9
 10
0.166896805167198
 20
0.636752724647522
 11
0.166896805167198
 21
0.639533758163452
  0
LINE
  5
71
100
AcDbEntity
  8
SEMA2D
100
AcDbLine
 62
7
  6
_SOLID
370
9
 10
0.278564929962158
 20
0.614024877548218
 11
0.274268180131912
 21
0.63006055355072
  0
LINE
  5
72
100
AcDbEntity
  8
SEMA2D
100
AcDbLine
 62
7
  6
_SOLID
370
9
 10
0.328205496072769
 20
0.650194227695465
 11
0.169405788183212
 21
0.650194227695465
  0
LINE
  5
73
100
AcDbEntity
  8
SEMA2D
100
AcDbLine
 62
7
  6
_SOLID
370
9
 10
0.297841340303421
 20
0.614024877548218
 11
0.302212476730347
 21
0.630338191986084
  0
LINE
  5
74
100
AcDbEntity
  8
SEMA2D
100
AcDbLine
 62
7
  6
_SOLID
370
9
 10
0.333162635564804
 20
0.639533758163452
 11
0.332834154367447
 21
0.645801842212677
  0
LINE
  5
75
100
AcDbEntity
  8
SEMA2D
100
AcDbLine
 62
7
  6
_SOLID
370
9
 10
0.330714464187622
 20
0.636752724647522
 11
0.330714464187622
 21
0.639533758163452
  0
LINE
  5
76
100
AcDbEntity
  8
SEMA2D
100
AcDbLine
 62
7
  6
_SOLID
370
9
 10
0.333162635564804
 20
0.636752724647522
 11
0.164448633790016
 21
0.636752724647522
  0
LINE
  5
77
100
AcDbEntity
  8
SEMA2D
100
AcDbLine
 62
7
  6
_SOLID
370
9
 10
0.332316547632217
 20
0.633874714374542
 11
0.165294721722603
 21
0.633874714374542
  0
LINE
  5
78
100
AcDbEntity
  8
SEMA2D
100
AcDbLine
 62
7
  6
_SOLID
370
9
 10
0.333162635564804
 20
0.639533758163452
 11
0.164448633790016
 21
0.639533758163452
  0
LINE
  5
79
100
AcDbEntity
  8
SEMA2D
100
AcDbLine
 62
7
  6
_SOLID
370
9
 10
0.330465108156204
 20
0.632117748260498
 11
0.167146176099777
 21
0.632117748260498
  0
LINE
  5
7A
100
AcDbEntity
  8
SEMA2D
100
AcDbLine
 62
7
  6
_SOLID
370
9
 10
0.333162635564804
 20
0.0398715883493423
 11
0.332834154367447
 21
0.0398715883493423
  0
LINE
  5
7B
100
AcDbEntity
  8
SEMA2D
100
AcDbLine
 62
7
  6
_SOLID
370
9
 10
0.333799123764038
 20
0.462650746107101
 11
0.333799123764038
 21
0.0398715883493423
  0
LINE
  5
7C
100
AcDbEntity
  8
SEMA2D
100
AcDbLine
 62
7
  6
_SOLID
370
9
 10
0.326172649860382
 20
0.0348800309002399
 11
0.326172649860382
 21
0.388376504182816
  0
LINE
  5
7D
100
AcDbEntity
  8
SEMA2D
100
AcDbLine
 62
7
  6
_SOLID
370
9
 10
0.333470642566681
 20
0.459375828504562
 11
0.333470642566681
 21
0.0398715883493423
  0
LINE
  5
7E
100
AcDbEntity
  8
SEMA2D
100
AcDbLine
 62
7
  6
_SOLID
370
9
 10
0.197734862565994
 20
0.00606165453791618
 11
0.197734802961349
 21
0.365812659263611
  0
LINE
  5
7F
100
AcDbEntity
  8
SEMA2D
100
AcDbLine
 62
7
  6
_SOLID
370
9
 10
0.204855218529701
 20
0.362718611955643
 11
0.204855293035507
 21
0.00354558392427862
  0
LINE
  5
80
100
AcDbEntity
  8
SEMA2D
100
AcDbLine
 62
7
  6
_SOLID
370
9
 10
0.164777129888535
 20
0.459375828504562
 11
0.164777129888535
 21
0.0398715883493423
  0
LINE
  5
81
100
AcDbEntity
  8
SEMA2D
100
AcDbLine
 62
7
  6
_SOLID
370
9
 10
0.171438619494438
 20
0.390702903270721
 11
0.171438619494438
 21
0.0348800309002399
  0
LINE
  5
82
100
AcDbEntity
  8
SEMA2D
100
AcDbLine
 62
7
  6
_SOLID
370
9
 10
0.164448633790016
 20
0.0398715883493423
 11
0.164448633790016
 21
0.462650746107101
  0
LINE
  5
83
100
AcDbEntity
  8
SEMA2D
100
AcDbLine
 62
7
  6
_SOLID
370
9
 10
0.299876421689987
 20
0.00606165174394846
 11
0.29987645149231
 21
0.365141749382019
  0
LINE
  5
84
100
AcDbEntity
  8
SEMA2D
100
AcDbLine
 62
7
  6
_SOLID
370
9
 10
0.292756080627441
 20
0.36259537935257
 11
0.292755991220474
 21
0.0035455827601254
  0
LINE
  5
85
100
AcDbEntity
  8
SEMA2D
100
AcDbLine
 62
7
  6
_SOLID
370
9
 10
0.229408547282219
 20
-0.00647186115384102
 11
0.229408726096153
 21
0.378952473402023
  0
LINE
  5
86
100
AcDbEntity
  8
SEMA2D
100
AcDbLine
 62
7
  6
_SOLID
370
9
 10
0.236529022455215
 20
-0.00720921857282519
 11
0.236529141664505
 21
0.385781586170197
  0
LINE
  5
87
100
AcDbEntity
  8
SEMA2D
100
AcDbLine
 62
7
  6
_SOLID
370
9
 10
0.261082261800766
 20
-0.00720921717584133
 11
0.261082112789154
 21
0.387282222509384
  0
LINE
  5
88
100
AcDbEntity
  8
SEMA2D
100
AcDbLine
 62
7
  6
_SOLID
370
9
 10
0.268202722072601
 20
-0.00647185975685716
 11
0.268202573060989
 21
0.380183130502701
  0
ARC
  5
89
100
AcDbEntity
  8
SEMA2D
100
AcDbCircle
 62
7
  6
_SOLID
370
9
 10
0.179748117923737
 20
0.0398904345929623
 40
0.0146042350679636
100
AcDbArc
 50
180.073928833008
 51
213.657485961914
  0
ARC
  5
8A
100
AcDbEntity
  8
SEMA2D
100
AcDbCircle
 62
7
  6
_SOLID
370
9
 10
0.181988641619682
 20
0.0405600927770138
 40
0.0175535101443529
100
AcDbArc
 50
182.247894287109
 51
211.483856201172
  0
ARC
  5
8B
100
AcDbEntity
  8
SEMA2D
100
AcDbCircle
 62
7
  6
_SOLID
370
9
 10
0.249790206551552
 20
0.0862481743097305
 40
0.0985978469252586
100
AcDbArc
 50
213.522308349609
 51
269.557678222656
  0
ARC
  5
8C
100
AcDbEntity
  8
SEMA2D
100
AcDbCircle
 62
7
  6
_SOLID
370
9
 10
0.249927505850792
 20
0.0864841938018799
 40
0.0995432734489441
100
AcDbArc
 50
213.603561401367
 51
269.482849121094
  0
ARC
  5
8D
100
AcDbEntity
  8
SEMA2D
100
AcDbCircle
 62
7
  6
_SOLID
370
9
 10
0.317863166332245
 20
0.0398891232907772
 40
0.0146042350679636
100
AcDbArc
 50
326.342498779297
 51
-0.0739309415221214
  0
ARC
  5
8E
100
AcDbEntity
  8
SEMA2D
100
AcDbCircle
 62
7
  6
_SOLID
370
9
 10
0.315622627735138
 20
0.0405587814748287
 40
0.0175535101443529
100
AcDbArc
 50
328.516143798828
 51
357.752105712891
  0
ARC
  5
8F
100
AcDbEntity
  8
SEMA2D
100
AcDbCircle
 62
7
  6
_SOLID
370
9
 10
0.24782107770443
 20
0.0862468630075455
 40
0.0985978469252586
100
AcDbArc
 50
270.701965332031
 51
326.477691650391
  0
ARC
  5
90
100
AcDbEntity
  8
SEMA2D
100
AcDbCircle
 62
7
  6
_SOLID
370
9
 10
0.247683763504028
 20
0.0864828824996948
 40
0.0995432734489441
100
AcDbArc
 50
270.774322509766
 51
326.396423339844
  0
LINE
  5
91
100
AcDbEntity
  8
SEMA2D
100
AcDbLine
 62
7
  6
_SOLID
370
9
 10
0.164448633790016
 20
0.461938261985779
 11
0.333857893943787
 21
0.461938261985779
  0
LINE
  5
92
100
AcDbEntity
  8
SEMA2D
100
AcDbLine
 62
7
  6
_SOLID
370
9
 10
0.177805125713348
 20
0.403242647647858
 11
0.177805125713348
 21
0.445475846529007
  0
LINE
  5
93
100
AcDbEntity
  8
SEMA2D
100
AcDbLine
 62
7
  6
_SOLID
370
9
 10
0.218302980065346
 20
0.449675381183624
 11
0.218302980065346
 21
0.441615432500839
  0
LINE
  5
94
100
AcDbEntity
  8
SEMA2D
100
AcDbLine
 62
7
  6
_SOLID
370
9
 10
0.21985536813736
 20
0.371605008840561
 11
0.217274487018585
 21
0.368960082530975
  0
LINE
  5
95
100
AcDbEntity
  8
SEMA2D
100
AcDbLine
 62
7
  6
_SOLID
370
9
 10
0.225349023938179
 20
0.410809993743897
 11
0.226632460951805
 21
0.423729866743088
  0
LINE
  5
96
100
AcDbEntity
  8
SEMA2D
100
AcDbLine
 62
7
  6
_SOLID
370
9
 10
0.207874566316605
 20
0.36440709233284
 11
0.183338850736618
 21
0.38955157995224
  0
LINE
  5
97
100
AcDbEntity
  8
SEMA2D
100
AcDbLine
 62
7
  6
_SOLID
370
9
 10
0.225332766771317
 20
0.409985184669495
 11
0.225332766771317
 21
0.40474659204483
  0
LINE
  5
98
100
AcDbEntity
  8
SEMA2D
100
AcDbLine
 62
7
  6
_SOLID
370
9
 10
0.221620261669159
 20
0.442980110645294
 11
0.221484690904617
 21
0.441615432500839
  0
LINE
  5
99
100
AcDbEntity
  8
SEMA2D
100
AcDbLine
 62
7
  6
_SOLID
370
9
 10
0.190793320536613
 20
0.423729866743088
 11
0.19207675755024
 21
0.410809993743897
  0
LINE
  5
9A
100
AcDbEntity
  8
SEMA2D
100
AcDbLine
 62
7
  6
_SOLID
370
9
 10
0.191092774271965
 20
0.441615432500839
 11
0.19207675755024
 21
0.431710004806519
  0
LINE
  5
9B
100
AcDbEntity
  8
SEMA2D
100
AcDbLine
 62
7
  6
_SOLID
370
9
 10
0.192093014717102
 20
0.409985184669495
 11
0.192092999815941
 21
0.40474659204483
  0
LINE
  5
9C
100
AcDbEntity
  8
SEMA2D
100
AcDbLine
 62
7
  6
_SOLID
370
9
 10
0.192093014717102
 20
0.425382673740387
 11
0.192093014717102
 21
0.430885165929794
  0
LINE
  5
9D
100
AcDbEntity
  8
SEMA2D
100
AcDbLine
 62
7
  6
_SOLID
370
9
 10
0.201903790235519
 20
0.449675381183624
 11
0.201903790235519
 21
0.441615432500839
  0
LINE
  5
9E
100
AcDbEntity
  8
SEMA2D
100
AcDbLine
 62
7
  6
_SOLID
370
9
 10
0.306925028562546
 20
0.431710004806519
 11
0.19207675755024
 21
0.431710004806519
  0
LINE
  5
9F
100
AcDbEntity
  8
SEMA2D
100
AcDbLine
 62
7
  6
_SOLID
370
9
 10
0.192093014717102
 20
0.430885165929794
 11
0.306908756494522
 21
0.430885165929794
  0
LINE
  5
A0
100
AcDbEntity
  8
SEMA2D
100
AcDbLine
 62
7
  6
_SOLID
370
9
 10
0.306908756494522
 20
0.425382673740387
 11
0.192093014717102
 21
0.425382673740387
  0
LINE
  5
A1
100
AcDbEntity
  8
SEMA2D
100
AcDbLine
 62
7
  6
_SOLID
370
9
 10
0.19207675755024
 20
0.410809993743897
 11
0.225349023938179
 21
0.410809993743897
  0
LINE
  5
A2
100
AcDbEntity
  8
SEMA2D
100
AcDbLine
 62
7
  6
_SOLID
370
9
 10
0.306925028562546
 20
0.410809993743897
 11
0.273652762174606
 21
0.410809993743897
  0
LINE
  5
A3
100
AcDbEntity
  8
SEMA2D
100
AcDbLine
 62
7
  6
_SOLID
370
9
 10
0.273669004440308
 20
0.409985184669495
 11
0.306908756494522
 21
0.409985184669495
  0
LINE
  5
A4
100
AcDbEntity
  8
SEMA2D
100
AcDbLine
 62
7
  6
_SOLID
370
9
 10
0.192093014717102
 20
0.409985184669495
 11
0.225332766771317
 21
0.409985184669495
  0
LINE
  5
A5
100
AcDbEntity
  8
SEMA2D
100
AcDbLine
 62
7
  6
_SOLID
370
9
 10
0.308208465576172
 20
0.42372989654541
 11
0.27236932516098
 21
0.42372989654541
  0
LINE
  5
A6
100
AcDbEntity
  8
SEMA2D
100
AcDbLine
 62
7
  6
_SOLID
370
9
 10
0.226574242115021
 20
0.423729866743088
 11
0.190851539373398
 21
0.423729866743088
  0
LINE
  5
A7
100
AcDbEntity
  8
SEMA2D
100
AcDbLine
 62
7
  6
_SOLID
370
9
 10
0.321196645498276
 20
0.444175362586975
 11
0.321196645498276
 21
0.403242647647858
  0
LINE
  5
A8
100
AcDbEntity
  8
SEMA2D
100
AcDbLine
 62
7
  6
_SOLID
370
9
 10
0.333799123764038
 20
0.46246263384819
 11
0.164448633790016
 21
0.46246263384819
  0
LINE
  5
A9
100
AcDbEntity
  8
SEMA2D
100
AcDbLine
 62
7
  6
_SOLID
370
9
 10
0.164448633790016
 20
0.462650746107101
 11
0.333799123764038
 21
0.462650746107101
  0
LINE
  5
AA
100
AcDbEntity
  8
SEMA2D
100
AcDbLine
 62
7
  6
_SOLID
370
9
 10
0.333470642566681
 20
0.459375828504562
 11
0.164777129888535
 21
0.459375828504562
  0
LINE
  5
AB
100
AcDbEntity
  8
SEMA2D
100
AcDbLine
 62
7
  6
_SOLID
370
9
 10
0.218302980065346
 20
0.449675381183624
 11
0.28069880604744
 21
0.449675381183624
  0
LINE
  5
AC
100
AcDbEntity
  8
SEMA2D
100
AcDbLine
 62
7
  6
_SOLID
370
9
 10
0.182505115866661
 20
0.449675381183624
 11
0.201903790235519
 21
0.449675381183624
  0
LINE
  5
AD
100
AcDbEntity
  8
SEMA2D
100
AcDbLine
 62
7
  6
_SOLID
370
9
 10
0.297097980976105
 20
0.449675381183624
 11
0.316496670246124
 21
0.449675381183624
  0
LINE
  5
AE
100
AcDbEntity
  8
SEMA2D
100
AcDbLine
 62
7
  6
_SOLID
370
9
 10
0.277517080307007
 20
0.441615432500839
 11
0.30790901184082
 21
0.441615432500839
  0
LINE
  5
AF
100
AcDbEntity
  8
SEMA2D
100
AcDbLine
 62
7
  6
_SOLID
370
9
 10
0.277381509542465
 20
0.442980110645294
 11
0.221620261669159
 21
0.442980110645294
  0
LINE
  5
B0
100
AcDbEntity
  8
SEMA2D
100
AcDbLine
 62
7
  6
_SOLID
370
9
 10
0.221484690904617
 20
0.441615432500839
 11
0.191092774271965
 21
0.441615432500839
  0
LINE
  5
B1
100
AcDbEntity
  8
SEMA2D
100
AcDbLine
 62
7
  6
_SOLID
370
9
 10
0.273669004440308
 20
0.409985184669495
 11
0.273669004440308
 21
0.40474659204483
  0
LINE
  5
B2
100
AcDbEntity
  8
SEMA2D
100
AcDbLine
 62
7
  6
_SOLID
370
9
 10
0.28069880604744
 20
0.449675381183624
 11
0.28069880604744
 21
0.441615432500839
  0
LINE
  5
B3
100
AcDbEntity
  8
SEMA2D
100
AcDbLine
 62
7
  6
_SOLID
370
9
 10
0.277517080307007
 20
0.441615432500839
 11
0.277381509542465
 21
0.442980110645294
  0
LINE
  5
B4
100
AcDbEntity
  8
SEMA2D
100
AcDbLine
 62
7
  6
_SOLID
370
9
 10
0.315662920475006
 20
0.38955157995224
 11
0.291303098201752
 21
0.364587366580963
  0
LINE
  5
B5
100
AcDbEntity
  8
SEMA2D
100
AcDbLine
 62
7
  6
_SOLID
370
9
 10
0.27236932516098
 20
0.42372989654541
 11
0.273652762174606
 21
0.410809993743897
  0
LINE
  5
B6
100
AcDbEntity
  8
SEMA2D
100
AcDbLine
 62
7
  6
_SOLID
370
9
 10
0.261176288127899
 20
0.407310456037521
 11
0.261176288127899
 21
0.411350756883621
  0
LINE
  5
B7
100
AcDbEntity
  8
SEMA2D
100
AcDbLine
 62
7
  6
_SOLID
370
9
 10
0.237825483083725
 20
0.411350756883621
 11
0.237825483083725
 21
0.407310456037521
  0
LINE
  5
B8
100
AcDbEntity
  8
SEMA2D
100
AcDbLine
 62
7
  6
_SOLID
370
9
 10
0.217274487018585
 20
0.368960082530975
 11
0.207782804965973
 21
0.378687262535095
  0
LINE
  5
B9
100
AcDbEntity
  8
SEMA2D
100
AcDbLine
 62
7
  6
_SOLID
370
9
 10
0.291218996047974
 20
0.378686875104904
 11
0.281727313995361
 21
0.368960082530975
  0
LINE
  5
BA
100
AcDbEntity
  8
SEMA2D
100
AcDbLine
 62
7
  6
_SOLID
370
9
 10
0.29112720489502
 20
0.36440709233284
 11
0.290452837944031
 21
0.362952619791031
  0
LINE
  5
BB
100
AcDbEntity
  8
SEMA2D
100
AcDbLine
 62
7
  6
_SOLID
370
9
 10
0.225332766771317
 20
0.40474659204483
 11
0.192092999815941
 21
0.40474659204483
  0
LINE
  5
BC
100
AcDbEntity
  8
SEMA2D
100
AcDbLine
 62
7
  6
_SOLID
370
9
 10
0.306908786296844
 20
0.40474659204483
 11
0.273669004440308
 21
0.40474659204483
  0
LINE
  5
BD
100
AcDbEntity
  8
SEMA2D
100
AcDbLine
 62
7
  6
_SOLID
370
9
 10
0.279146403074265
 20
0.371605008840561
 11
0.281727313995361
 21
0.368960082530975
  0
LINE
  5
BE
100
AcDbEntity
  8
SEMA2D
100
AcDbLine
 62
7
  6
_SOLID
370
9
 10
0.297097980976105
 20
0.449675381183624
 11
0.297097980976105
 21
0.441615432500839
  0
LINE
  5
BF
100
AcDbEntity
  8
SEMA2D
100
AcDbLine
 62
7
  6
_SOLID
370
9
 10
0.306925028562546
 20
0.410809993743897
 11
0.308208465576172
 21
0.42372989654541
  0
LINE
  5
C0
100
AcDbEntity
  8
SEMA2D
100
AcDbLine
 62
7
  6
_SOLID
370
9
 10
0.306925028562546
 20
0.431710004806519
 11
0.30790901184082
 21
0.441615432500839
  0
LINE
  5
C1
100
AcDbEntity
  8
SEMA2D
100
AcDbLine
 62
7
  6
_SOLID
370
9
 10
0.306908756494522
 20
0.409985184669495
 11
0.306908786296844
 21
0.40474659204483
  0
LINE
  5
C2
100
AcDbEntity
  8
SEMA2D
100
AcDbLine
 62
7
  6
_SOLID
370
9
 10
0.306908756494522
 20
0.430885165929794
 11
0.306908756494522
 21
0.425382673740387
  0
ARC
  5
C3
100
AcDbEntity
  8
SEMA2D
100
AcDbCircle
 62
7
  6
_SOLID
370
9
 10
0.249500885605812
 20
0.41163557767868
 40
0.0116788744926453
100
AcDbArc
 50
358.602478027344
 51
181.397537231445
  0
ARC
  5
C4
100
AcDbEntity
  8
SEMA2D
100
AcDbCircle
 62
7
  6
_SOLID
370
9
 10
0.163842901587486
 20
0.454884737730026
 40
0.087958924472332
100
AcDbArc
 50
299.970245361328
 51
327.256866455078
  0
ARC
  5
C5
100
AcDbEntity
  8
SEMA2D
100
AcDbCircle
 62
7
  6
_SOLID
370
9
 10
0.335135906934738
 20
0.454859018325806
 40
0.0879254639148712
100
AcDbArc
 50
212.736907958984
 51
240.034484863281
  0
ARC
  5
C6
100
AcDbEntity
  8
SEMA2D
100
AcDbCircle
 62
7
  6
_SOLID
370
9
 10
0.335622072219849
 20
0.454925924539566
 40
0.10065720975399
100
AcDbArc
 50
211.175155639648
 51
235.870223999023
  0
ARC
  5
C7
100
AcDbEntity
  8
SEMA2D
100
AcDbCircle
 62
7
  6
_SOLID
370
9
 10
0.163364872336388
 20
0.454939991235733
 40
0.10067717730999
100
AcDbArc
 50
304.132263183594
 51
328.822357177734
  0
ARC
  5
C8
100
AcDbEntity
  8
SEMA2D
100
AcDbCircle
 62
7
  6
_SOLID
370
9
 10
0.194367527961731
 20
0.401973068714142
 40
0.0166109967976809
100
AcDbArc
 50
175.616638183594
 51
228.399032592773
  0
ARC
  5
C9
100
AcDbEntity
  8
SEMA2D
100
AcDbCircle
 62
7
  6
_SOLID
370
9
 10
0.304634243249893
 20
0.401973068714142
 40
0.0166109967976809
100
AcDbArc
 50
311.600952148438
 51
4.38336896896362
  0
ARC
  5
CA
100
AcDbEntity
  8
SEMA2D
100
AcDbCircle
 62
7
  6
_SOLID
370
9
 10
0.29277315735817
 20
0.37030890583992
 40
0.00771356513723731
100
AcDbArc
 50
252.493667602539
 51
304.219604492188
  0
LINE
  5
CB
100
AcDbEntity
  8
SEMA2D
100
AcDbLine
 62
7
  6
_SOLID
370
9
 10
0.207874566316605
 20
0.36440709233284
 11
0.208548948168755
 21
0.362952619791031
  0
ARC
  5
CC
100
AcDbEntity
  8
SEMA2D
100
AcDbCircle
 62
7
  6
_SOLID
370
9
 10
0.206228628754616
 20
0.37030890583992
 40
0.00771356513723731
100
AcDbArc
 50
235.780410766602
 51
287.506317138672
  0
ARC
  5
CD
100
AcDbEntity
  8
SEMA2D
100
AcDbCircle
 62
7
  6
_SOLID
370
9
 10
0.225400984287262
 20
0.421377450227737
 40
0.0620714537799358
100
AcDbArc
 50
193.91357421875
 51
247.743072509766
  0
ARC
  5
CE
100
AcDbEntity
  8
SEMA2D
100
AcDbCircle
 62
7
  6
_SOLID
370
9
 10
0.273600786924362
 20
0.421377450227737
 40
0.0620714537799358
100
AcDbArc
 50
292.256927490234
 51
346.08642578125
  0
ARC
  5
CF
100
AcDbEntity
  8
SEMA2D
100
AcDbCircle
 62
7
  6
_SOLID
370
9
 10
0.315450221300125
 20
0.444022983312607
 40
0.00574844796210527
100
AcDbArc
 50
1.51919221878052
 51
79.5115966796875
  0
ARC
  5
D0
100
AcDbEntity
  8
SEMA2D
100
AcDbCircle
 62
7
  6
_SOLID
370
9
 10
0.183551549911499
 20
0.444022983312607
 40
0.00574844796210527
100
AcDbArc
 50
100.488403320312
 51
178.480804443359
  0
LINE
  5
D1
100
AcDbEntity
  8
SEMA2D
100
AcDbLine
 62
7
  6
_SOLID
370
9
 10
0.164448633790016
 20
0.700194239616394
 11
0.334448635578156
 21
0.700194239616394
  0
LINE
  5
D2
100
AcDbEntity
  8
SEMA2D
100
AcDbLine
 62
7
  6
_SOLID
370
9
 10
0.164448633790016
 20
0.700194239616394
 11
0.164448633790016
 21
0.707194268703461
  0
LINE
  5
D3
100
AcDbEntity
  8
SEMA2D
100
AcDbLine
 62
7
  6
_SOLID
370
9
 10
0.164448633790016
 20
0.700194239616394
 11
0.164448633790016
 21
0.693194270133972
  0
LINE
  5
D4
100
AcDbEntity
  8
SEMA2D
100
AcDbLine
 62
7
  6
_SOLID
370
9
 10
0.164448633790016
 20
0.700194239616394
 11
0.170510813593864
 21
0.703694224357605
  0
LINE
  5
D5
100
AcDbEntity
  8
SEMA2D
100
AcDbLine
 62
7
  6
_SOLID
370
9
 10
0.164448633790016
 20
0.700194239616394
 11
0.158386453986168
 21
0.696694254875183
  0
LINE
  5
D6
100
AcDbEntity
  8
SEMA2D
100
AcDbLine
 62
7
  6
_DOT
370
9
 10
0.164448633790016
 20
0.650194227695465
 11
0.164448633790016
 21
0.700194239616394
  0
LINE
  5
D7
100
AcDbEntity
  8
SEMA2D
100
AcDbLine
 62
7
  6
_DOT
370
9
 10
0.164448633790016
 20
0.650194227695465
 11
0.164448633790016
 21
0.650194227695465
  0
MTEXT
  5
D8
100
AcDbEntity
  8
SEMATEXT
100
AcDbMText
 62
7
 10
0.242597207427025
 20
0.704853236675262
 40
0.00800000037997961
 71
7
  1
{\fArial Narrow;170}
  7
STANDARD
 73
2
  0
LINE
  5
D9
100
AcDbEntity
  8
SEMA2D
100
AcDbLine
 62
7
  6
_SOLID
370
9
 10
0.334448635578156
 20
0.700194239616394
 11
0.334448635578156
 21
0.707194268703461
  0
LINE
  5
DA
100
AcDbEntity
  8
SEMA2D
100
AcDbLine
 62
7
  6
_SOLID
370
9
 10
0.334448635578156
 20
0.700194239616394
 11
0.334448635578156
 21
0.693194270133972
  0
LINE
  5
DB
100
AcDbEntity
  8
SEMA2D
100
AcDbLine
 62
7
  6
_SOLID
370
9
 10
0.334448635578156
 20
0.700194239616394
 11
0.340510815382004
 21
0.703694224357605
  0
LINE
  5
DC
100
AcDbEntity
  8
SEMA2D
100
AcDbLine
 62
7
  6
_SOLID
370
9
 10
0.334448635578156
 20
0.700194239616394
 11
0.328386455774307
 21
0.696694254875183
  0
LINE
  5
DD
100
AcDbEntity
  8
SEMA2D
100
AcDbLine
 62
7
  6
_DOT
370
9
 10
0.334448635578156
 20
0.650194227695465
 11
0.334448635578156
 21
0.700194239616394
  0
LINE
  5
DE
100
AcDbEntity
  8
SEMA2D
100
AcDbLine
 62
7
  6
_DOT
370
9
 10
0.334448635578156
 20
0.650194227695465
 11
0.334448635578156
 21
0.650194227695465
  0
LINE
  5
DF
100
AcDbEntity
  8
SEMA2D
100
AcDbLine
 62
7
  6
_SOLID
370
9
 10
-0.0241267923265696
 20
0.512650728225708
 11
0.0134167075157166
 21
0.512650728225708
  0
LINE
  5
E0
100
AcDbEntity
  8
SEMA2D
100
AcDbLine
 62
7
  6
_SOLID
370
9
 10
-0.0241267923265696
 20
0.512650728225708
 11
-0.0241267923265696
 21
0.519650757312775
  0
LINE
  5
E1
100
AcDbEntity
  8
SEMA2D
100
AcDbLine
 62
7
  6
_SOLID
370
9
 10
-0.0241267923265696
 20
0.512650728225708
 11
-0.0241267923265696
 21
0.505650758743286
  0
LINE
  5
E2
100
AcDbEntity
  8
SEMA2D
100
AcDbLine
 62
7
  6
_SOLID
370
9
 10
-0.0241267923265696
 20
0.512650728225708
 11
-0.0180646143853664
 21
0.516150772571564
  0
LINE
  5
E3
100
AcDbEntity
  8
SEMA2D
100
AcDbLine
 62
7
  6
_SOLID
370
9
 10
-0.0241267923265696
 20
0.512650728225708
 11
-0.0301889702677727
 21
0.509150743484497
  0
LINE
  5
E4
100
AcDbEntity
  8
SEMA2D
100
AcDbLine
 62
7
  6
_DOT
370
9
 10
-0.0241267923265696
 20
0.462650746107101
 11
-0.0241267923265696
 21
0.512650728225708
  0
LINE
  5
E5
100
AcDbEntity
  8
SEMA2D
100
AcDbLine
 62
7
  6
_DOT
370
9
 10
-0.0241267923265696
 20
0.462650746107101
 11
-0.0241267923265696
 21
0.462650746107101
  0
MTEXT
  5
E6
100
AcDbEntity
  8
SEMATEXT
100
AcDbMText
 62
7
 10
-0.019656166434288
 20
0.517309725284576
 40
0.00800000037997961
 71
7
  1
{\fArial Narrow;18}
  7
STANDARD
 73
2
  0
LINE
  5
E7
100
AcDbEntity
  8
SEMA2D
100
AcDbLine
 62
7
  6
_SOLID
370
9
 10
-0.00605029286816716
 20
0.512650728225708
 11
-0.00605029286816716
 21
0.519650757312775
  0
LINE
  5
E8
100
AcDbEntity
  8
SEMA2D
100
AcDbLine
 62
7
  6
_SOLID
370
9
 10
-0.00605029286816716
 20
0.512650728225708
 11
-0.00605029286816716
 21
0.505650758743286
  0
LINE
  5
E9
100
AcDbEntity
  8
SEMA2D
100
AcDbLine
 62
7
  6
_SOLID
370
9
 10
-0.00605029286816716
 20
0.512650728225708
 11
1.18849266073084E-5
 21
0.516150772571564
  0
LINE
  5
EA
100
AcDbEntity
  8
SEMA2D
100
AcDbLine
 62
7
  6
_SOLID
370
9
 10
-0.00605029286816716
 20
0.512650728225708
 11
-0.012112470343709
 21
0.509150743484497
  0
LINE
  5
EB
100
AcDbEntity
  8
SEMA2D
100
AcDbLine
 62
7
  6
_DOT
370
9
 10
-0.00605029286816716
 20
0.462650746107101
 11
-0.00605029286816716
 21
0.512650728225708
  0
LINE
  5
EC
100
AcDbEntity
  8
SEMA2D
100
AcDbLine
 62
7
  6
_DOT
370
9
 10
-0.00605029286816716
 20
0.462650746107101
 11
-0.00605029286816716
 21
0.462650746107101
  0
MTEXT
  5
ED
100
AcDbEntity
  8
SEMATEXT
100
AcDbMText
 62
7
 10
-0.000884415814653039
 20
0.517309725284576
 40
0.00800000037997961
 71
7
  1
{\fArial Narrow;19}
  7
STANDARD
 73
2
  0
LINE
  5
EE
100
AcDbEntity
  8
SEMA2D
100
AcDbLine
 62
7
  6
_SOLID
370
9
 10
0.0134167075157166
 20
0.512650728225708
 11
0.0134167075157166
 21
0.519650757312775
  0
LINE
  5
EF
100
AcDbEntity
  8
SEMA2D
100
AcDbLine
 62
7
  6
_SOLID
370
9
 10
0.0134167075157166
 20
0.512650728225708
 11
0.0134167075157166
 21
0.505650758743286
  0
LINE
  5
F0
100
AcDbEntity
  8
SEMA2D
100
AcDbLine
 62
7
  6
_SOLID
370
9
 10
0.0134167075157166
 20
0.512650728225708
 11
0.0194788854569197
 21
0.516150772571564
  0
LINE
  5
F1
100
AcDbEntity
  8
SEMA2D
100
AcDbLine
 62
7
  6
_SOLID
370
9
 10
0.0134167075157166
 20
0.512650728225708
 11
0.00735452910885215
 21
0.509150743484497
  0
LINE
  5
F2
100
AcDbEntity
  8
SEMA2D
100
AcDbLine
 62
7
  6
_DOT
370
9
 10
0.0134167075157166
 20
0.462650746107101
 11
0.0134167075157166
 21
0.512650728225708
  0
LINE
  5
F3
100
AcDbEntity
  8
SEMA2D
100
AcDbLine
 62
7
  6
_DOT
370
9
 10
0.0134167075157166
 20
0.512650728225708
 11
0.0134167075157166
 21
0.462650746107101
  0
LINE
  5
F4
100
AcDbEntity
  8
SEMA2D
100
AcDbLine
 62
7
  6
_SOLID
370
9
 10
-0.0741267949342728
 20
-0.0123492497950792
 11
-0.0741267949342728
 21
0.462650746107101
  0
LINE
  5
F5
100
AcDbEntity
  8
SEMA2D
100
AcDbLine
 62
7
  6
_SOLID
370
9
 10
-0.0741267949342728
 20
-0.0123492497950792
 11
-0.081126794219017
 21
-0.0123492497950792
  0
LINE
  5
F6
100
AcDbEntity
  8
SEMA2D
100
AcDbLine
 62
7
  6
_SOLID
370
9
 10
-0.0741267949342728
 20
-0.0123492497950792
 11
-0.0671267956495285
 21
-0.0123492497950792
  0
LINE
  5
F7
100
AcDbEntity
  8
SEMA2D
100
AcDbLine
 62
7
  6
_SOLID
370
9
 10
-0.0741267949342728
 20
-0.0123492497950792
 11
-0.0776267945766449
 21
-0.0062870723195374
  0
LINE
  5
F8
100
AcDbEntity
  8
SEMA2D
100
AcDbLine
 62
7
  6
_SOLID
370
9
 10
-0.0741267949342728
 20
-0.0123492497950792
 11
-0.0706267952919006
 21
-0.0184114277362823
  0
LINE
  5
F9
100
AcDbEntity
  8
SEMA2D
100
AcDbLine
 62
7
  6
_DOT
370
9
 10
-0.0241267923265696
 20
-0.0123492497950792
 11
-0.0741267949342728
 21
-0.0123492497950792
  0
LINE
  5
FA
100
AcDbEntity
  8
SEMA2D
100
AcDbLine
 62
7
  6
_DOT
370
9
 10
-0.0241267923265696
 20
-0.0123492497950792
 11
-0.0241267923265696
 21
-0.0123492497950792
  0
MTEXT
  5
FB
100
AcDbEntity
  8
SEMATEXT
100
AcDbMText
 62
7
 10
-0.0787857696413994
 20
0.217157408595085
 40
0.00800000037997961
 50
90
 71
7
  1
{\fArial Narrow;475}
  7
STANDARD
 73
2
  0
LINE
  5
FC
100
AcDbEntity
  8
SEMA2D
100
AcDbLine
 62
7
  6
_SOLID
370
9
 10
-0.0741267949342728
 20
0.462650746107101
 11
-0.081126794219017
 21
0.462650746107101
  0
LINE
  5
FD
100
AcDbEntity
  8
SEMA2D
100
AcDbLine
 62
7
  6
_SOLID
370
9
 10
-0.0741267949342728
 20
0.462650746107101
 11
-0.0671267956495285
 21
0.462650746107101
  0
LINE
  5
FE
100
AcDbEntity
  8
SEMA2D
100
AcDbLine
 62
7
  6
_SOLID
370
9
 10
-0.0741267949342728
 20
0.462650746107101
 11
-0.0776267945766449
 21
0.46871292591095
  0
LINE
  5
FF
100
AcDbEntity
  8
SEMA2D
100
AcDbLine
 62
7
  6
_SOLID
370
9
 10
-0.0741267949342728
 20
0.462650746107101
 11
-0.0706267952919006
 21
0.456588566303253
  0
LINE
  5
100
100
AcDbEntity
  8
SEMA2D
100
AcDbLine
 62
7
  6
_DOT
370
9
 10
-0.0241267923265696
 20
0.462650746107101
 11
-0.0741267949342728
 21
0.462650746107101
  0
LINE
  5
101
100
AcDbEntity
  8
SEMA2D
100
AcDbLine
 62
7
  6
_DOT
370
9
 10
-0.0241267923265696
 20
0.462650746107101
 11
-0.0241267923265696
 21
0.462650746107101
  0
LINE
  5
102
100
AcDbEntity
  8
SEMA2D
100
AcDbLine
 62
7
  6
_SOLID
370
9
 10
0.164448633790016
 20
0.512650728225708
 11
0.334448635578156
 21
0.512650728225708
  0
LINE
  5
103
100
AcDbEntity
  8
SEMA2D
100
AcDbLine
 62
7
  6
_SOLID
370
9
 10
0.164448633790016
 20
0.512650728225708
 11
0.164448633790016
 21
0.519650757312775
  0
LINE
  5
104
100
AcDbEntity
  8
SEMA2D
100
AcDbLine
 62
7
  6
_SOLID
370
9
 10
0.164448633790016
 20
0.512650728225708
 11
0.164448633790016
 21
0.505650758743286
  0
LINE
  5
105
100
AcDbEntity
  8
SEMA2D
100
AcDbLine
 62
7
  6
_SOLID
370
9
 10
0.164448633790016
 20
0.512650728225708
 11
0.170510813593864
 21
0.516150772571564
  0
LINE
  5
106
100
AcDbEntity
  8
SEMA2D
100
AcDbLine
 62
7
  6
_SOLID
370
9
 10
0.164448633790016
 20
0.512650728225708
 11
0.158386453986168
 21
0.509150743484497
  0
LINE
  5
107
100
AcDbEntity
  8
SEMA2D
100
AcDbLine
 62
7
  6
_DOT
370
9
 10
0.164448633790016
 20
0.462650746107101
 11
0.164448633790016
 21
0.512650728225708
  0
LINE
  5
108
100
AcDbEntity
  8
SEMA2D
100
AcDbLine
 62
7
  6
_DOT
370
9
 10
0.164448633790016
 20
0.462650746107101
 11
0.164448633790016
 21
0.462650746107101
  0
MTEXT
  5
109
100
AcDbEntity
  8
SEMATEXT
100
AcDbMText
 62
7
 10
0.242597207427025
 20
0.517309725284576
 40
0.00800000037997961
 71
7
  1
{\fArial Narrow;170}
  7
STANDARD
 73
2
  0
LINE
  5
10A
100
AcDbEntity
  8
SEMA2D
100
AcDbLine
 62
7
  6
_SOLID
370
9
 10
0.334448635578156
 20
0.512650728225708
 11
0.334448635578156
 21
0.519650757312775
  0
LINE
  5
10B
100
AcDbEntity
  8
SEMA2D
100
AcDbLine
 62
7
  6
_SOLID
370
9
 10
0.334448635578156
 20
0.512650728225708
 11
0.334448635578156
 21
0.505650758743286
  0
LINE
  5
10C
100
AcDbEntity
  8
SEMA2D
100
AcDbLine
 62
7
  6
_SOLID
370
9
 10
0.334448635578156
 20
0.512650728225708
 11
0.340510815382004
 21
0.516150772571564
  0
LINE
  5
10D
100
AcDbEntity
  8
SEMA2D
100
AcDbLine
 62
7
  6
_SOLID
370
9
 10
0.334448635578156
 20
0.512650728225708
 11
0.328386455774307
 21
0.509150743484497
  0
LINE
  5
10E
100
AcDbEntity
  8
SEMA2D
100
AcDbLine
 62
7
  6
_DOT
370
9
 10
0.334448635578156
 20
0.462650746107101
 11
0.334448635578156
 21
0.512650728225708
  0
LINE
  5
10F
100
AcDbEntity
  8
SEMA2D
100
AcDbLine
 62
7
  6
_DOT
370
9
 10
0.334448635578156
 20
0.462650746107101
 11
0.334448635578156
 21
0.462650746107101
  0
LINE
  5
110
100
AcDbEntity
  8
SEMA2D
100
AcDbLine
 62
7
  6
_SOLID
370
9
 10
0.383799135684967
 20
-0.0123492497950792
 11
0.383799135684967
 21
0.462650746107101
  0
LINE
  5
111
100
AcDbEntity
  8
SEMA2D
100
AcDbLine
 62
7
  6
_SOLID
370
9
 10
0.383799135684967
 20
-0.0123492497950792
 11
0.376799136400223
 21
-0.0123492497950792
  0
LINE
  5
112
100
AcDbEntity
  8
SEMA2D
100
AcDbLine
 62
7
  6
_SOLID
370
9
 10
0.383799135684967
 20
-0.0123492497950792
 11
0.390799134969711
 21
-0.0123492497950792
  0
LINE
  5
113
100
AcDbEntity
  8
SEMA2D
100
AcDbLine
 62
7
  6
_SOLID
370
9
 10
0.383799135684967
 20
-0.0123492497950792
 11
0.380299150943756
 21
-0.0062870723195374
  0
LINE
  5
114
100
AcDbEntity
  8
SEMA2D
100
AcDbLine
 62
7
  6
_SOLID
370
9
 10
0.383799135684967
 20
-0.0123492497950792
 11
0.3872991502285
 21
-0.0184114277362823
  0
LINE
  5
115
100
AcDbEntity
  8
SEMA2D
100
AcDbLine
 62
7
  6
_DOT
370
9
 10
0.333799123764038
 20
-0.0123492497950792
 11
0.383799135684967
 21
-0.0123492497950792
  0
LINE
  5
116
100
AcDbEntity
  8
SEMA2D
100
AcDbLine
 62
7
  6
_DOT
370
9
 10
0.333799123764038
 20
-0.0123492497950792
 11
0.333799123764038
 21
-0.0123492497950792
  0
MTEXT
  5
117
100
AcDbEntity
  8
SEMATEXT
100
AcDbMText
 62
7
 10
0.379140168428421
 20
0.217157408595085
 40
0.00800000037997961
 50
90
 71
7
  1
{\fArial Narrow;475}
  7
STANDARD
 73
2
  0
LINE
  5
118
100
AcDbEntity
  8
SEMA2D
100
AcDbLine
 62
7
  6
_SOLID
370
9
 10
0.383799135684967
 20
0.462650746107101
 11
0.376799136400223
 21
0.462650746107101
  0
LINE
  5
119
100
AcDbEntity
  8
SEMA2D
100
AcDbLine
 62
7
  6
_SOLID
370
9
 10
0.383799135684967
 20
0.462650746107101
 11
0.390799134969711
 21
0.462650746107101
  0
LINE
  5
11A
100
AcDbEntity
  8
SEMA2D
100
AcDbLine
 62
7
  6
_SOLID
370
9
 10
0.383799135684967
 20
0.462650746107101
 11
0.380299150943756
 21
0.46871292591095
  0
LINE
  5
11B
100
AcDbEntity
  8
SEMA2D
100
AcDbLine
 62
7
  6
_SOLID
370
9
 10
0.383799135684967
 20
0.462650746107101
 11
0.3872991502285
 21
0.456588566303253
  0
LINE
  5
11C
100
AcDbEntity
  8
SEMA2D
100
AcDbLine
 62
7
  6
_DOT
370
9
 10
0.333799123764038
 20
0.462650746107101
 11
0.383799135684967
 21
0.462650746107101
  0
LINE
  5
11D
100
AcDbEntity
  8
SEMA2D
100
AcDbLine
 62
7
  6
_DOT
370
9
 10
0.333799123764038
 20
0.462650746107101
 11
0.333799123764038
 21
0.462650746107101
  0
LINE
  5
11E
100
AcDbEntity
  8
SEMA2D
100
AcDbLine
 62
7
  6
_SOLID
370
9
 10
0.0439497083425522
 20
-0.0123492497950792
 11
0.0439497083425522
 21
0.432650744915009
  0
LINE
  5
11F
100
AcDbEntity
  8
SEMA2D
100
AcDbLine
 62
7
  6
_SOLID
370
9
 10
0.0439497083425522
 20
-0.0123492497950792
 11
0.0369497053325176
 21
-0.0123492497950792
  0
LINE
  5
120
100
AcDbEntity
  8
SEMA2D
100
AcDbLine
 62
7
  6
_SOLID
370
9
 10
0.0439497083425522
 20
-0.0123492497950792
 11
0.0509497076272964
 21
-0.0123492497950792
  0
LINE
  5
121
100
AcDbEntity
  8
SEMA2D
100
AcDbLine
 62
7
  6
_SOLID
370
9
 10
0.0439497083425522
 20
-0.0123492497950792
 11
0.0404497087001801
 21
-0.0062870723195374
  0
LINE
  5
122
100
AcDbEntity
  8
SEMA2D
100
AcDbLine
 62
7
  6
_SOLID
370
9
 10
0.0439497083425522
 20
-0.0123492497950792
 11
0.0474497079849243
 21
-0.0184114277362823
  0
LINE
  5
123
100
AcDbEntity
  8
SEMA2D
100
AcDbLine
 62
7
  6
_DOT
370
9
 10
-0.00605029286816716
 20
-0.0123492497950792
 11
0.0439497083425522
 21
-0.0123492497950792
  0
LINE
  5
124
100
AcDbEntity
  8
SEMA2D
100
AcDbLine
 62
7
  6
_DOT
370
9
 10
-0.00605029286816716
 20
-0.0123492497950792
 11
-0.00605029286816716
 21
-0.0123492497950792
  0
MTEXT
  5
125
100
AcDbEntity
  8
SEMATEXT
100
AcDbMText
 62
7
 10
0.0392907299101353
 20
0.202157407999039
 40
0.00800000037997961
 50
90
 71
7
  1
{\fArial Narrow;445}
  7
STANDARD
 73
2
  0
LINE
  5
126
100
AcDbEntity
  8
SEMA2D
100
AcDbLine
 62
7
  6
_SOLID
370
9
 10
0.0439497083425522
 20
0.432650744915009
 11
0.0369497053325176
 21
0.432650744915009
  0
LINE
  5
127
100
AcDbEntity
  8
SEMA2D
100
AcDbLine
 62
7
  6
_SOLID
370
9
 10
0.0439497083425522
 20
0.432650744915009
 11
0.0509497076272964
 21
0.432650744915009
  0
LINE
  5
128
100
AcDbEntity
  8
SEMA2D
100
AcDbLine
 62
7
  6
_SOLID
370
9
 10
0.0439497083425522
 20
0.432650744915009
 11
0.0404497087001801
 21
0.438712924718857
  0
LINE
  5
129
100
AcDbEntity
  8
SEMA2D
100
AcDbLine
 62
7
  6
_SOLID
370
9
 10
0.0439497083425522
 20
0.432650744915009
 11
0.0474497079849243
 21
0.42658856511116
  0
LINE
  5
12A
100
AcDbEntity
  8
SEMA2D
100
AcDbLine
 62
7
  6
_DOT
370
9
 10
-0.00605029286816716
 20
0.432650744915009
 11
0.0439497083425522
 21
0.432650744915009
  0
LINE
  5
12B
100
AcDbEntity
  8
SEMA2D
100
AcDbLine
 62
7
  6
_DOT
370
9
 10
-0.00605029286816716
 20
0.432650744915009
 11
-0.00605029286816716
 21
0.432650744915009
  0
ENDSEC
  0
SECTION
  2
OBJECTS
  0
DICTIONARY
  5
 13
330
0
100
AcDbDictionary
281
     1
  3
ACAD_GROUP
350
 14
 3
ACAD_MLINESTYLE
350
 16
  3
ACAD_PLOTSETTINGS
350
 17
  3
ACAD_PLOTSTYLENAME
350
 18
  0
DICTIONARY
  5
 14
330
 13
100
AcDbDictionary
281
     1
  0
DICTIONARY
  5
 16
330
 13
100
AcDbDictionary
281
     1
  0
DICTIONARY
  5
 17
102
{ACAD_REACTORS
330
 13
102
}
330
 13
100
AcDbDictionary
281
     1
  0
ACDBDICTIONARYWDFLT
  5
 18
102
{ACAD_REACTORS
330
 13
102
}
330
 13
100
AcDbDictionary
281
     1
  3
Normal
350
 19
100
AcDbDictionaryWithDefault
340
 19
  0
ACDBPLACEHOLDER
  5
 19
102
{ACAD_REACTORS
330
 18
102
}
330
 18
  0
ENDSEC
  0
EOF
