  0
SECTION
  2
HEADER
  9
$ACADVER
  1
AC1015
  9
$HANDSEED
  5
13F
  9
$LIMMIN
 10
1.86674404144287
 20
0.0692141875624657
  9
$LIMMAX
 10
2.42321252822876
 20
0.70679897069931
  9
$MEASUREMENT
 70
1
  0
ENDSEC
  0
SECTION
  2
TABLES
  0
TABLE
  2
VPORT
  5
  1
100
AcDbSymbolTable
  0
ENDTAB
  0
TABLE
  2
LTYPE
  5
  2
100
AcDbSymbolTable
  0
LTYPE
  5
  3
100
AcDbSymbolTableRecord
100
AcDbLinetypeTableRecord
  2
BYBLOCK
 70
     0
  0
LTYPE
  5
  4
100
AcDbSymbolTableRecord
100
AcDbLinetypeTableRecord
  2
BYLAYER
 70
     0
  0
LTYPE
  5
20
100
AcDbSymbolTableRecord
100
AcDbLinetypeTableRecord
  2
_SOLID
  3

 70
0
 72
65
 73
2
 40
5
 49
5
 74
0
 49
0
 74
0
  0
LTYPE
  5
21
100
AcDbSymbolTableRecord
100
AcDbLinetypeTableRecord
  2
_DASH
  3

 70
0
 72
65
 73
2
 40
7
 49
5
 74
0
 49
-2
 74
0
  0
LTYPE
  5
22
100
AcDbSymbolTableRecord
100
AcDbLinetypeTableRecord
  2
_DOT
  3

 70
0
 72
65
 73
2
 40
4
 49
2
 74
0
 49
-2
 74
0
  0
LTYPE
  5
23
100
AcDbSymbolTableRecord
100
AcDbLinetypeTableRecord
  2
_DASHDOT
  3

 70
0
 72
65
 73
4
 40
11
 49
5
 74
0
 49
-2
 74
0
 49
2
 74
0
 49
-2
 74
0
  0
LTYPE
  5
24
100
AcDbSymbolTableRecord
100
AcDbLinetypeTableRecord
  2
_DASHDOTDOT
  3

 70
0
 72
65
 73
6
 40
15
 49
5
 74
0
 49
-2
 74
0
 49
2
 74
0
 49
-2
 74
0
 49
2
 74
0
 49
-2
 74
0
  0
LTYPE
  5
25
100
AcDbSymbolTableRecord
100
AcDbLinetypeTableRecord
  2
ISO128-20-02
  3

 70
0
 72
65
 73
2
 40
15
 49
12
 74
0
 49
-3
 74
0
  0
LTYPE
  5
26
100
AcDbSymbolTableRecord
100
AcDbLinetypeTableRecord
  2
ISO128-20-03
  3

 70
0
 72
65
 73
2
 40
30
 49
12
 74
0
 49
-18
 74
0
  0
LTYPE
  5
27
100
AcDbSymbolTableRecord
100
AcDbLinetypeTableRecord
  2
ISO128-20-04
  3

 70
0
 72
65
 73
4
 40
30
 49
24
 74
0
 49
-3
 74
0
 49
0
 74
0
 49
-3
 74
0
  0
LTYPE
  5
28
100
AcDbSymbolTableRecord
100
AcDbLinetypeTableRecord
  2
ISO128-20-05
  3

 70
0
 72
65
 73
6
 40
33
 49
24
 74
0
 49
-3
 74
0
 49
0
 74
0
 49
-3
 74
0
 49
0
 74
0
 49
-3
 74
0
  0
LTYPE
  5
29
100
AcDbSymbolTableRecord
100
AcDbLinetypeTableRecord
  2
ISO128-20-06
  3

 70
0
 72
65
 73
8
 40
36
 49
24
 74
0
 49
-3
 74
0
 49
0
 74
0
 49
-3
 74
0
 49
0
 74
0
 49
-3
 74
0
 49
0
 74
0
 49
-3
 74
0
  0
LTYPE
  5
2A
100
AcDbSymbolTableRecord
100
AcDbLinetypeTableRecord
  2
ISO128-20-07
  3

 70
0
 72
65
 73
2
 40
3
 49
0
 74
0
 49
-3
 74
0
  0
LTYPE
  5
2B
100
AcDbSymbolTableRecord
100
AcDbLinetypeTableRecord
  2
ISO128-20-08
  3

 70
0
 72
65
 73
4
 40
36
 49
24
 74
0
 49
-3
 74
0
 49
6
 74
0
 49
-3
 74
0
  0
LTYPE
  5
2C
100
AcDbSymbolTableRecord
100
AcDbLinetypeTableRecord
  2
ISO128-20-09
  3

 70
0
 72
65
 73
6
 40
45
 49
24
 74
0
 49
-3
 74
0
 49
6
 74
0
 49
-3
 74
0
 49
6
 74
0
 49
-3
 74
0
  0
LTYPE
  5
2D
100
AcDbSymbolTableRecord
100
AcDbLinetypeTableRecord
  2
ISO128-20-10
  3

 70
0
 72
65
 73
4
 40
18
 49
12
 74
0
 49
-3
 74
0
 49
0
 74
0
 49
-3
 74
0
  0
LTYPE
  5
2E
100
AcDbSymbolTableRecord
100
AcDbLinetypeTableRecord
  2
ISO128-20-11
  3

 70
0
 72
65
 73
6
 40
33
 49
12
 74
0
 49
-3
 74
0
 49
12
 74
0
 49
-3
 74
0
 49
0
 74
0
 49
-3
 74
0
  0
LTYPE
  5
2F
100
AcDbSymbolTableRecord
100
AcDbLinetypeTableRecord
  2
ISO128-20-12
  3

 70
0
 72
65
 73
6
 40
21
 49
12
 74
0
 49
-3
 74
0
 49
0
 74
0
 49
-3
 74
0
 49
0
 74
0
 49
-3
 74
0
  0
LTYPE
  5
30
100
AcDbSymbolTableRecord
100
AcDbLinetypeTableRecord
  2
ISO128-20-13
  3

 70
0
 72
65
 73
8
 40
36
 49
12
 74
0
 49
-3
 74
0
 49
12
 74
0
 49
-3
 74
0
 49
0
 74
0
 49
-3
 74
0
 49
0
 74
0
 49
-3
 74
0
  0
LTYPE
  5
31
100
AcDbSymbolTableRecord
100
AcDbLinetypeTableRecord
  2
ISO128-20-14
  3

 70
0
 72
65
 73
8
 40
24
 49
12
 74
0
 49
-3
 74
0
 49
0
 74
0
 49
-3
 74
0
 49
0
 74
0
 49
-3
 74
0
 49
0
 74
0
 49
-3
 74
0
  0
LTYPE
  5
32
100
AcDbSymbolTableRecord
100
AcDbLinetypeTableRecord
  2
ISO128-20-15
  3

 70
0
 72
65
 73
10
 40
39
 49
12
 74
0
 49
-3
 74
0
 49
12
 74
0
 49
-3
 74
0
 49
0
 74
0
 49
-3
 74
0
 49
0
 74
0
 49
-3
 74
0
 49
0
 74
0
 49
-3
 74
0
  0
ENDTAB
  0
TABLE
  2
LAYER
  5
 1A
330
  0
100
AcDbSymbolTable
  0
LAYER
  5
13B
330
 1A
100
AcDbSymbolTableRecord
100
AcDbLayerTableRecord
  2
0
 70
0
 62
7
  6
Continuous
370
-3
390
 19
  0
LAYER
  5
13C
330
 1A
100
AcDbSymbolTableRecord
100
AcDbLayerTableRecord
  2
SEMA2D
 70
0
 62
7
  6
Continuous
370
-3
390
 19
  0
LAYER
  5
13D
330
 1A
100
AcDbSymbolTableRecord
100
AcDbLayerTableRecord
  2
SEMATEXT
 70
0
 62
7
  6
Continuous
370
-3
390
 19
  0
ENDTAB
  0
TABLE
  2
STYLE
  5
  5
100
AcDbSymbolTable
  0
STYLE
  5
  6
100
AcDbSymbolTableRecord
100
AcDbTextStyleTableRecord
  2
STANDARD
 70
     0
 40
0.0
 41
1.0
 50
0.0
 71
     0
 42
10.0
  3
txt
  4

  0
ENDTAB
  0
TABLE
  2
VIEW
  5
  7
100
AcDbSymbolTable
  0
ENDTAB
  0
TABLE
  2
UCS
  5
  8
100
AcDbSymbolTable
  0
ENDTAB
  0
TABLE
  2
APPID
  5
  9
100
AcDbSymbolTable
  0
APPID
  5
  A
100
AcDbSymbolTableRecord
100
AcDbRegAppTableRecord
  2
ACAD
 70
0
  0
ENDTAB
  0
TABLE
  2
DIMSTYLE
  5
  B
100
AcDbSymbolTable
 70
     1
100
AcDbDimStyleTable
 71
     0
  0
DIMSTYLE
105
 1B
330
B
100
AcDbSymbolTableRecord
100
AcDbDimStyleTableRecord
  2
STANDARD
 70
    0
340
  6
  0
ENDTAB
  0
TABLE
  2
BLOCK_RECORD
  5
  C
100
AcDbSymbolTable
  0
BLOCK_RECORD
  5
  D
100
AcDbSymbolTableRecord
100
AcDbBlockTableRecord
  2
*MODEL_SPACE
  0
BLOCK_RECORD
  5
  E
100
AcDbSymbolTableRecord
100
AcDbBlockTableRecord
  2
*PAPER_SPACE
  0
ENDTAB
  0
ENDSEC
  0
SECTION
  2
BLOCKS
  0
BLOCK
  5
  F
330
  D
100
AcDbEntity
  8
0
100
AcDbBlockBegin
  2
*MODEL_SPACE
 70
     0
  0
ENDBLK
  5
 10
100
AcDbEntity
  8
0
100
AcDbBlockEnd
  0
BLOCK
  5
 11
330
  E
100
AcDbEntity
  8
0
100
AcDbBlockBegin
  2
*PAPER_SPACE
 70
     0
  0
ENDBLK
  5
 12
100
AcDbEntity
  8
0
100
AcDbBlockEnd
  0
ENDSEC
  0
SECTION
  2
ENTITIES
  0
LINE
  5
33
100
AcDbEntity
  8
SEMA2D
100
AcDbLine
 62
7
  6
_SOLID
370
9
 10
1.92483139038086
 20
0.0956480801105499
 11
1.92483139038086
 21
0.1058509349823
  0
LINE
  5
34
100
AcDbEntity
  8
SEMA2D
100
AcDbLine
 62
7
  6
_SOLID
370
9
 10
1.92420601844788
 20
0.129229217767715
 11
1.92420601844788
 21
0.0885468795895576
  0
LINE
  5
35
100
AcDbEntity
  8
SEMA2D
100
AcDbLine
 62
7
  6
_SOLID
370
9
 10
1.92483139038086
 20
0.0889696702361107
 11
1.92483139038086
 21
0.0928600281476974
  0
LINE
  5
36
100
AcDbEntity
  8
SEMA2D
100
AcDbLine
 62
7
  6
_SOLID
370
9
 10
1.92813646793365
 20
0.461638122797012
 11
1.92813646793365
 21
0.136122167110443
  0
LINE
  5
37
100
AcDbEntity
  8
SEMA2D
100
AcDbLine
 62
7
  6
_SOLID
370
9
 10
1.92483139038086
 20
0.109333828091621
 11
1.92483139038086
 21
0.127362966537476
  0
LINE
  5
38
100
AcDbEntity
  8
SEMA2D
100
AcDbLine
 62
7
  6
_SOLID
370
9
 10
1.9282191991806
 20
0.0847098529338837
 11
1.93062078952789
 21
0.0840753838419914
  0
LINE
  5
39
100
AcDbEntity
  8
SEMA2D
100
AcDbLine
 62
7
  6
_SOLID
370
9
 10
1.93062078952789
 20
0.0840753838419914
 11
1.93440449237823
 21
0.0838721692562103
  0
LINE
  5
3A
100
AcDbEntity
  8
SEMA2D
100
AcDbLine
 62
7
  6
_SOLID
370
9
 10
1.93718552589417
 20
0.0845846682786942
 11
1.94182050228119
 21
0.0848336070775986
  0
LINE
  5
3B
100
AcDbEntity
  8
SEMA2D
100
AcDbLine
 62
7
  6
_SOLID
370
9
 10
1.92738699913025
 20
0.0849259346723556
 11
1.92822730541229
 21
0.0847077444195747
  0
LINE
  5
3C
100
AcDbEntity
  8
SEMA2D
100
AcDbLine
 62
7
  6
_SOLID
370
9
 10
1.93440449237823
 20
0.136122167110443
 11
1.92813646793365
 21
0.136122167110443
  0
LINE
  5
3D
100
AcDbEntity
  8
SEMA2D
100
AcDbLine
 62
7
  6
_SOLID
370
9
 10
1.92374408245087
 20
0.131957143545151
 11
1.92374408245087
 21
0.461496591567993
  0
LINE
  5
3E
100
AcDbEntity
  8
SEMA2D
100
AcDbLine
 62
7
  6
_SOLID
370
9
 10
1.95975542068481
 20
0.438613057136536
 11
1.94182050228119
 21
0.435372173786163
  0
LINE
  5
3F
100
AcDbEntity
  8
SEMA2D
100
AcDbLine
 62
7
  6
_SOLID
370
9
 10
1.96128749847412
 20
0.454939991235733
 11
1.96128749847412
 21
0.440484166145325
  0
LINE
  5
40
100
AcDbEntity
  8
SEMA2D
100
AcDbLine
 62
7
  6
_SOLID
370
9
 10
1.93718552589417
 20
0.464584678411484
 11
1.93718552589417
 21
0.0831596702337265
  0
LINE
  5
41
100
AcDbEntity
  8
SEMA2D
100
AcDbLine
 62
7
  6
_SOLID
370
9
 10
1.93440449237823
 20
0.464584678411484
 11
1.93440449237823
 21
0.0831596702337265
  0
LINE
  5
42
100
AcDbEntity
  8
SEMA2D
100
AcDbLine
 62
7
  6
_SOLID
370
9
 10
1.94182050228119
 20
0.462910741567612
 11
1.94182050228119
 21
0.0848336070775986
  0
LINE
  5
43
100
AcDbEntity
  8
SEMA2D
100
AcDbLine
 62
7
  6
_SOLID
370
9
 10
1.93718552589417
 20
0.463159680366516
 11
1.94740164279938
 21
0.462610989809036
  0
LINE
  5
44
100
AcDbEntity
  8
SEMA2D
100
AcDbLine
 62
7
  6
_SOLID
370
9
 10
1.94740164279938
 20
0.462610989809036
 11
1.96019852161407
 21
0.456670731306076
  0
LINE
  5
45
100
AcDbEntity
  8
SEMA2D
100
AcDbLine
 62
7
  6
_SOLID
370
9
 10
1.93440449237823
 20
0.463872164487839
 11
1.92550098896027
 21
0.463393986225128
  0
LINE
  5
46
100
AcDbEntity
  8
SEMA2D
100
AcDbLine
 62
7
  6
_SOLID
370
9
 10
1.93718552589417
 20
0.464584678411484
 11
1.93440449237823
 21
0.464584678411484
  0
LINE
  5
47
100
AcDbEntity
  8
SEMA2D
100
AcDbLine
 62
7
  6
_SOLID
370
9
 10
1.93440449237823
 20
0.0831596702337265
 11
1.93718552589417
 21
0.0831596702337265
  0
ARC
  5
48
100
AcDbEntity
  8
SEMA2D
100
AcDbCircle
 62
7
  6
_SOLID
370
9
 10
1.9282009601593
 20
0.0888393372297287
 40
0.00399715080857277
100
AcDbArc
 50
184.195846557617
 51
258.250366210938
  0
ARC
  5
49
100
AcDbEntity
  8
SEMA2D
100
AcDbCircle
 62
7
  6
_SOLID
370
9
 10
1.90839409828186
 20
0.0692141875624657
 40
0.0284512564539909
100
AcDbArc
 50
48.6717414855957
 51
52.4577941894531
  0
ARC
  5
4A
100
AcDbEntity
  8
SEMA2D
100
AcDbCircle
 62
7
  6
_SOLID
370
9
 10
1.9286618232727
 20
0.0951292365789414
 40
0.00445576151832938
100
AcDbArc
 50
180.320861816406
 51
228.865112304687
  0
ARC
  5
4B
100
AcDbEntity
  8
SEMA2D
100
AcDbCircle
 62
7
  6
_SOLID
370
9
 10
1.93100607395172
 20
0.108724795281887
 40
0.00681001041084528
100
AcDbArc
 50
183.139984130859
 51
223.574829101562
  0
ARC
  5
4C
100
AcDbEntity
  8
SEMA2D
100
AcDbCircle
 62
7
  6
_SOLID
370
9
 10
1.92026174068451
 20
0.0997013598680496
 40
0.00724618136882782
100
AcDbArc
 50
7.11828231811523
 51
36.6880378723145
  0
ARC
  5
4D
100
AcDbEntity
  8
SEMA2D
100
AcDbCircle
 62
7
  6
_SOLID
370
9
 10
1.90696406364441
 20
0.117100782692432
 40
0.0205010753124952
100
AcDbArc
 50
2.04902696609497
 51
26.7568359375
  0
ARC
  5
4E
100
AcDbEntity
  8
SEMA2D
100
AcDbCircle
 62
7
  6
_SOLID
370
9
 10
1.94022119045258
 20
0.133405521512032
 40
0.016540739685297
100
AcDbArc
 50
185.023483276367
 51
205.32389831543
  0
ARC
  5
4F
100
AcDbEntity
  8
SEMA2D
100
AcDbCircle
 62
7
  6
_SOLID
370
9
 10
1.95970296859741
 20
0.455150932073593
 40
0.00159853196237236
100
AcDbArc
 50
352.417236328125
 51
71.9417266845703
  0
ARC
  5
50
100
AcDbEntity
  8
SEMA2D
100
AcDbCircle
 62
7
  6
_SOLID
370
9
 10
1.95925652980804
 20
0.440584301948547
 40
0.00203342107124627
100
AcDbArc
 50
284.202453613281
 51
-2.82263517379761
  0
ARC
  5
51
100
AcDbEntity
  8
SEMA2D
100
AcDbCircle
 62
7
  6
_SOLID
370
9
 10
1.92602300643921
 20
0.461148470640182
 40
0.00230537401512265
100
AcDbArc
 50
103.086097717285
 51
171.315170288086
  0
ARC
  5
52
100
AcDbEntity
  8
SEMA2D
100
AcDbCircle
 62
7
  6
_SOLID
370
9
 10
2.16925668716431
 20
0.685332477092743
 40
0.0388462282717228
100
AcDbArc
 50
248.834075927734
 51
291.165924072266
  0
ARC
  5
53
100
AcDbEntity
  8
SEMA2D
100
AcDbCircle
 62
7
  6
_SOLID
370
9
 10
2.15188336372375
 20
0.640462219715118
 40
0.00927000027149916
100
AcDbArc
 50
68.834358215332
 51
111.166084289551
  0
ARC
  5
54
100
AcDbEntity
  8
SEMA2D
100
AcDbCircle
 62
7
  6
_SOLID
370
9
 10
2.18663001060486
 20
0.640462219715118
 40
0.00927000027149916
100
AcDbArc
 50
68.8331069946289
 51
111.164855957031
  0
ARC
  5
55
100
AcDbEntity
  8
SEMA2D
100
AcDbCircle
 62
7
  6
_SOLID
370
9
 10
2.22137665748596
 20
0.640462219715118
 40
0.00927000027149916
100
AcDbArc
 50
68.8343124389648
 51
111.165649414062
  0
ARC
  5
56
100
AcDbEntity
  8
SEMA2D
100
AcDbCircle
 62
7
  6
_SOLID
370
9
 10
2.20400333404541
 20
0.685332477092743
 40
0.0388462282717228
100
AcDbArc
 50
248.834091186523
 51
291.165893554687
  0
ARC
  5
57
100
AcDbEntity
  8
SEMA2D
100
AcDbCircle
 62
7
  6
_SOLID
370
9
 10
2.1345100402832
 20
0.685332477092743
 40
0.0388462282717228
100
AcDbArc
 50
246.166259765625
 51
291.165924072266
  0
ARC
  5
58
100
AcDbEntity
  8
SEMA2D
100
AcDbCircle
 62
7
  6
_SOLID
370
9
 10
2.23874998092651
 20
0.685332477092743
 40
0.0388462282717228
100
AcDbArc
 50
248.834106445313
 51
291.165893554687
  0
ARC
  5
59
100
AcDbEntity
  8
SEMA2D
100
AcDbCircle
 62
7
  6
_SOLID
370
9
 10
2.11694002151489
 20
0.645559251308441
 40
0.00463500013574958
100
AcDbArc
 50
66.1662292480469
 51
177
  0
ARC
  5
5A
100
AcDbEntity
  8
SEMA2D
100
AcDbCircle
 62
7
  6
_SOLID
370
9
 10
2.36056017875671
 20
0.645559251308441
 40
0.00463500013574958
100
AcDbArc
 50
3.00000047683716
 51
113.834327697754
  0
ARC
  5
5B
100
AcDbEntity
  8
SEMA2D
100
AcDbCircle
 62
7
  6
_SOLID
370
9
 10
2.11468029022217
 20
0.633971750736237
 40
0.00185400003101677
100
AcDbArc
 50
183
 51
270
  0
ARC
  5
5C
100
AcDbEntity
  8
SEMA2D
100
AcDbCircle
 62
7
  6
_SOLID
370
9
 10
2.31890344619751
 20
0.614504754543304
 40
0.00185400003101677
100
AcDbArc
 50
270
 51
345
  0
ARC
  5
5D
100
AcDbEntity
  8
SEMA2D
100
AcDbCircle
 62
7
  6
_SOLID
370
9
 10
2.36281967163086
 20
0.633971750736237
 40
0.00185400003101677
100
AcDbArc
 50
270
 51
-3.0000011920929
  0
ARC
  5
5E
100
AcDbEntity
  8
SEMA2D
100
AcDbCircle
 62
7
  6
_SOLID
370
9
 10
2.3429901599884
 20
0.685332477092743
 40
0.0388462282717228
100
AcDbArc
 50
248.834075927734
 51
293.833740234375
  0
ARC
  5
5F
100
AcDbEntity
  8
SEMA2D
100
AcDbCircle
 62
7
  6
_SOLID
370
9
 10
2.27349662780762
 20
0.685332477092743
 40
0.0388462282717228
100
AcDbArc
 50
248.834106445313
 51
291.165893554687
  0
ARC
  5
60
100
AcDbEntity
  8
SEMA2D
100
AcDbCircle
 62
7
  6
_SOLID
370
9
 10
2.25612330436707
 20
0.640462219715118
 40
0.00927000027149916
100
AcDbArc
 50
68.8343124389648
 51
111.165649414062
  0
ARC
  5
61
100
AcDbEntity
  8
SEMA2D
100
AcDbCircle
 62
7
  6
_SOLID
370
9
 10
2.29086995124817
 20
0.640462219715118
 40
0.00927000027149916
100
AcDbArc
 50
68.8349685668945
 51
111.167060852051
  0
ARC
  5
62
100
AcDbEntity
  8
SEMA2D
100
AcDbCircle
 62
7
  6
_SOLID
370
9
 10
2.32561683654785
 20
0.640462219715118
 40
0.00927000027149916
100
AcDbArc
 50
68.8339309692383
 51
111.165618896484
  0
ARC
  5
63
100
AcDbEntity
  8
SEMA2D
100
AcDbCircle
 62
7
  6
_SOLID
370
9
 10
2.30824327468872
 20
0.685332477092743
 40
0.0388462282717228
100
AcDbArc
 50
248.834091186523
 51
291.165924072266
  0
ARC
  5
64
100
AcDbEntity
  8
SEMA2D
100
AcDbCircle
 62
7
  6
_SOLID
370
9
 10
2.14982390403748
 20
0.629336774349213
 40
0.00278099998831749
100
AcDbArc
 50
15.0000009536743
 51
90
  0
ARC
  5
65
100
AcDbEntity
  8
SEMA2D
100
AcDbCircle
 62
7
  6
_SOLID
370
9
 10
2.18306422233582
 20
0.629336774349213
 40
0.00278099998831749
100
AcDbArc
 50
90
 51
165
  0
ARC
  5
66
100
AcDbEntity
  8
SEMA2D
100
AcDbCircle
 62
7
  6
_SOLID
370
9
 10
2.17429137229919
 20
0.614504754543304
 40
0.00185400003101677
100
AcDbArc
 50
270
 51
345
  0
ARC
  5
67
100
AcDbEntity
  8
SEMA2D
100
AcDbCircle
 62
7
  6
_SOLID
370
9
 10
2.30320858955383
 20
0.614504754543304
 40
0.00185400003101677
100
AcDbArc
 50
195
 51
270
  0
ARC
  5
68
100
AcDbEntity
  8
SEMA2D
100
AcDbCircle
 62
7
  6
_SOLID
370
9
 10
2.1585967540741
 20
0.614504754543304
 40
0.00185400003101677
100
AcDbArc
 50
195
 51
270
  0
ARC
  5
69
100
AcDbEntity
  8
SEMA2D
100
AcDbCircle
 62
7
  6
_SOLID
370
9
 10
2.29443597793579
 20
0.629336774349213
 40
0.00278099998831749
100
AcDbArc
 50
15.0000009536743
 51
90
  0
ARC
  5
6A
100
AcDbEntity
  8
SEMA2D
100
AcDbCircle
 62
7
  6
_SOLID
370
9
 10
2.32767605781555
 20
0.629336774349213
 40
0.00278099998831749
100
AcDbArc
 50
90
 51
165
  0
LINE
  5
6B
100
AcDbEntity
  8
SEMA2D
100
AcDbLine
 62
7
  6
_SOLID
370
9
 10
2.11267805099487
 20
0.636752724647522
 11
2.11282896995544
 21
0.633874714374542
  0
LINE
  5
6C
100
AcDbEntity
  8
SEMA2D
100
AcDbLine
 62
7
  6
_SOLID
370
9
 10
2.11128759384155
 20
0.636752724647522
 11
2.11128759384155
 21
0.639533758163452
  0
LINE
  5
6D
100
AcDbEntity
  8
SEMA2D
100
AcDbLine
 62
7
  6
_SOLID
370
9
 10
2.11814284324646
 20
0.633874714374542
 11
2.1180534362793
 21
0.636752724647522
  0
LINE
  5
6E
100
AcDbEntity
  8
SEMA2D
100
AcDbLine
 62
7
  6
_SOLID
370
9
 10
2.15243458747864
 20
0.630338132381439
 11
2.15680575370789
 21
0.614024877548218
  0
LINE
  5
6F
100
AcDbEntity
  8
SEMA2D
100
AcDbLine
 62
7
  6
_SOLID
370
9
 10
2.11722874641418
 20
0.636752724647522
 11
2.11722874641418
 21
0.639533758163452
  0
LINE
  5
70
100
AcDbEntity
  8
SEMA2D
100
AcDbLine
 62
7
  6
_SOLID
370
9
 10
2.11231136322021
 20
0.645801842212677
 11
2.11198282241821
 21
0.639533758163452
  0
LINE
  5
71
100
AcDbEntity
  8
SEMA2D
100
AcDbLine
 62
7
  6
_SOLID
370
9
 10
2.36621260643005
 20
0.639533758163452
 11
2.11128759384155
 21
0.639533758163452
  0
LINE
  5
72
100
AcDbEntity
  8
SEMA2D
100
AcDbLine
 62
7
  6
_SOLID
370
9
 10
2.11694002151489
 20
0.650194227695465
 11
2.36056017875671
 21
0.650194227695465
  0
LINE
  5
73
100
AcDbEntity
  8
SEMA2D
100
AcDbLine
 62
7
  6
_SOLID
370
9
 10
2.36621260643005
 20
0.636752724647522
 11
2.11128759384155
 21
0.636752724647522
  0
LINE
  5
74
100
AcDbEntity
  8
SEMA2D
100
AcDbLine
 62
7
  6
_SOLID
370
9
 10
2.17429137229919
 20
0.612650752067566
 11
2.1585967540741
 21
0.612650752067566
  0
LINE
  5
75
100
AcDbEntity
  8
SEMA2D
100
AcDbLine
 62
7
  6
_SOLID
370
9
 10
2.31890344619751
 20
0.612650752067566
 11
2.30320858955383
 21
0.612650752067566
  0
LINE
  5
76
100
AcDbEntity
  8
SEMA2D
100
AcDbLine
 62
7
  6
_SOLID
370
9
 10
2.18037891387939
 20
0.63006055355072
 11
2.17608213424683
 21
0.614024877548218
  0
LINE
  5
77
100
AcDbEntity
  8
SEMA2D
100
AcDbLine
 62
7
  6
_SOLID
370
9
 10
2.36281967163086
 20
0.632117748260498
 11
2.11468029022217
 21
0.632117748260498
  0
LINE
  5
78
100
AcDbEntity
  8
SEMA2D
100
AcDbLine
 62
7
  6
_SOLID
370
9
 10
2.36467123031616
 20
0.633874714374542
 11
2.11282896995544
 21
0.633874714374542
  0
LINE
  5
79
100
AcDbEntity
  8
SEMA2D
100
AcDbLine
 62
7
  6
_SOLID
370
9
 10
2.29712104797363
 20
0.63006055355072
 11
2.3014178276062
 21
0.614024877548218
  0
LINE
  5
7A
100
AcDbEntity
  8
SEMA2D
100
AcDbLine
 62
7
  6
_SOLID
370
9
 10
2.36621260643005
 20
0.636752724647522
 11
2.36621260643005
 21
0.639533758163452
  0
LINE
  5
7B
100
AcDbEntity
  8
SEMA2D
100
AcDbLine
 62
7
  6
_SOLID
370
9
 10
2.36027121543884
 20
0.636752724647522
 11
2.36027121543884
 21
0.639533758163452
  0
LINE
  5
7C
100
AcDbEntity
  8
SEMA2D
100
AcDbLine
 62
7
  6
_SOLID
370
9
 10
2.35935711860657
 20
0.633874714374542
 11
2.35944652557373
 21
0.636752724647522
  0
LINE
  5
7D
100
AcDbEntity
  8
SEMA2D
100
AcDbLine
 62
7
  6
_SOLID
370
9
 10
2.36482191085815
 20
0.636752724647522
 11
2.36467123031616
 21
0.633874714374542
  0
LINE
  5
7E
100
AcDbEntity
  8
SEMA2D
100
AcDbLine
 62
7
  6
_SOLID
370
9
 10
2.36551737785339
 20
0.639533758163452
 11
2.36518883705139
 21
0.645801842212677
  0
LINE
  5
7F
100
AcDbEntity
  8
SEMA2D
100
AcDbLine
 62
7
  6
_SOLID
370
9
 10
2.32069420814514
 20
0.614024877548218
 11
2.32506537437439
 21
0.630338132381439
  0
LINE
  5
80
100
AcDbEntity
  8
SEMA2D
100
AcDbLine
 62
7
  6
_SOLID
370
9
 10
2.21802949905396
 20
0.0870357528328896
 11
2.21802949905396
 21
0.39226022362709
  0
LINE
  5
81
100
AcDbEntity
  8
SEMA2D
100
AcDbLine
 62
7
  6
_SOLID
370
9
 10
2.18997716903687
 20
0.0926040485501289
 11
2.18997716903687
 21
0.39226022362709
  0
LINE
  5
82
100
AcDbEntity
  8
SEMA2D
100
AcDbLine
 62
7
  6
_SOLID
370
9
 10
2.18328285217285
 20
0.0937141627073288
 11
2.18328309059143
 21
0.385691791772842
  0
LINE
  5
83
100
AcDbEntity
  8
SEMA2D
100
AcDbLine
 62
7
  6
_SOLID
370
9
 10
2.11881279945374
 20
0.389779657125473
 11
2.11881279945374
 21
0.12925623357296
  0
LINE
  5
84
100
AcDbEntity
  8
SEMA2D
100
AcDbLine
 62
7
  6
_SOLID
370
9
 10
2.15523052215576
 20
0.362952619791031
 11
2.15523052215576
 21
0.10541708022356
  0
LINE
  5
85
100
AcDbEntity
  8
SEMA2D
100
AcDbLine
 62
7
  6
_SOLID
370
9
 10
2.14853620529175
 20
0.10739990323782
 11
2.14853620529175
 21
0.363712072372437
  0
LINE
  5
86
100
AcDbEntity
  8
SEMA2D
100
AcDbLine
 62
7
  6
_SOLID
370
9
 10
2.22472381591797
 20
0.0866771265864372
 11
2.22472381591797
 21
0.39226022362709
  0
LINE
  5
87
100
AcDbEntity
  8
SEMA2D
100
AcDbLine
 62
7
  6
_SOLID
370
9
 10
2.25277614593506
 20
0.0866771265864372
 11
2.25277638435364
 21
0.39226022362709
  0
LINE
  5
88
100
AcDbEntity
  8
SEMA2D
100
AcDbLine
 62
7
  6
_SOLID
370
9
 10
2.28752279281616
 20
0.0926040485501289
 11
2.28752279281616
 21
0.39226022362709
  0
LINE
  5
89
100
AcDbEntity
  8
SEMA2D
100
AcDbLine
 62
7
  6
_SOLID
370
9
 10
2.25947046279907
 20
0.0870357528328896
 11
2.25947046279907
 21
0.39226022362709
  0
LINE
  5
8A
100
AcDbEntity
  8
SEMA2D
100
AcDbLine
 62
7
  6
_SOLID
370
9
 10
2.11128759384155
 20
0.134188249707222
 11
2.11128759384155
 21
0.462650746107101
  0
LINE
  5
8B
100
AcDbEntity
  8
SEMA2D
100
AcDbLine
 62
7
  6
_SOLID
370
9
 10
2.11231136322021
 20
0.459375828504562
 11
2.11231136322021
 21
0.134188249707222
  0
LINE
  5
8C
100
AcDbEntity
  8
SEMA2D
100
AcDbLine
 62
7
  6
_SOLID
370
9
 10
2.11198282241821
 20
0.134188249707222
 11
2.11198282241821
 21
0.46246263384819
  0
LINE
  5
8D
100
AcDbEntity
  8
SEMA2D
100
AcDbLine
 62
7
  6
_SOLID
370
9
 10
2.29421710968018
 20
0.0937141627073288
 11
2.29421710968018
 21
0.385881006717682
  0
LINE
  5
8E
100
AcDbEntity
  8
SEMA2D
100
AcDbLine
 62
7
  6
_SOLID
370
9
 10
2.35868716239929
 20
0.12925623357296
 11
2.35868716239929
 21
0.38947805762291
  0
LINE
  5
8F
100
AcDbEntity
  8
SEMA2D
100
AcDbLine
 62
7
  6
_SOLID
370
9
 10
2.36518883705139
 20
0.459375828504562
 11
2.36518883705139
 21
0.134188249707222
  0
LINE
  5
90
100
AcDbEntity
  8
SEMA2D
100
AcDbLine
 62
7
  6
_SOLID
370
9
 10
2.36621260643005
 20
0.462650746107101
 11
2.36621260643005
 21
0.134188249707222
  0
LINE
  5
91
100
AcDbEntity
  8
SEMA2D
100
AcDbLine
 62
7
  6
_SOLID
370
9
 10
2.36551737785339
 20
0.46246263384819
 11
2.36551737785339
 21
0.134188249707222
  0
LINE
  5
92
100
AcDbEntity
  8
SEMA2D
100
AcDbLine
 62
7
  6
_SOLID
370
9
 10
2.32226967811584
 20
0.362952619791031
 11
2.32226967811584
 21
0.10541708022356
  0
LINE
  5
93
100
AcDbEntity
  8
SEMA2D
100
AcDbLine
 62
7
  6
_SOLID
370
9
 10
2.32896375656128
 20
0.1073999106884
 11
2.32896375656128
 21
0.363712072372437
  0
ARC
  5
94
100
AcDbEntity
  8
SEMA2D
100
AcDbCircle
 62
7
  6
_SOLID
370
9
 10
2.12633895874023
 20
0.1341363042593
 40
0.0143561968579888
100
AcDbArc
 50
179.792694091797
 51
232.709884643555
  0
ARC
  5
95
100
AcDbEntity
  8
SEMA2D
100
AcDbCircle
 62
7
  6
_SOLID
370
9
 10
2.12739658355713
 20
0.134644329547882
 40
0.0161156076937914
100
AcDbArc
 50
181.621719360352
 51
230.881225585938
  0
ARC
  5
96
100
AcDbEntity
  8
SEMA2D
100
AcDbCircle
 62
7
  6
_SOLID
370
9
 10
2.2390444278717
 20
0.283032864332199
 40
0.20109860599041
100
AcDbArc
 50
232.864608764648
 51
269.146575927734
  0
ARC
  5
97
100
AcDbEntity
  8
SEMA2D
100
AcDbCircle
 62
7
  6
_SOLID
370
9
 10
2.23899459838867
 20
0.282849311828613
 40
0.201628416776657
100
AcDbArc
 50
232.849411010742
 51
268.739562988281
  0
LINE
  5
98
100
AcDbEntity
  8
SEMA2D
100
AcDbLine
 62
7
  6
_SOLID
370
9
 10
2.23604917526245
 20
0.0819565877318382
 11
2.23874926567078
 21
0.0819565877318382
  0
LINE
  5
99
100
AcDbEntity
  8
SEMA2D
100
AcDbLine
 62
7
  6
_SOLID
370
9
 10
2.23455953598022
 20
0.0812696889042854
 11
2.23874926567078
 21
0.0812696889042854
  0
ARC
  5
9A
100
AcDbEntity
  8
SEMA2D
100
AcDbCircle
 62
7
  6
_SOLID
370
9
 10
2.35116124153137
 20
0.1341363042593
 40
0.0143561968579888
100
AcDbArc
 50
307.290130615234
 51
0.20730447769165
  0
ARC
  5
9B
100
AcDbEntity
  8
SEMA2D
100
AcDbCircle
 62
7
  6
_SOLID
370
9
 10
2.3501033782959
 20
0.134644329547882
 40
0.0161156076937914
100
AcDbArc
 50
309.118774414063
 51
358.378265380859
  0
ARC
  5
9C
100
AcDbEntity
  8
SEMA2D
100
AcDbCircle
 62
7
  6
_SOLID
370
9
 10
2.23859429359436
 20
0.282729655504227
 40
0.200773134827614
100
AcDbArc
 50
270.044219970703
 51
307.156066894531
  0
ARC
  5
9D
100
AcDbEntity
  8
SEMA2D
100
AcDbCircle
 62
7
  6
_SOLID
370
9
 10
2.23868727684021
 20
0.282548248767853
 40
0.201278567314148
100
AcDbArc
 50
270
 51
307.161071777344
  0
LINE
  5
9E
100
AcDbEntity
  8
SEMA2D
100
AcDbLine
 62
7
  6
_SOLID
370
9
 10
2.1246440410614
 20
0.403242647647858
 11
2.1246440410614
 21
0.444175362586975
  0
LINE
  5
9F
100
AcDbEntity
  8
SEMA2D
100
AcDbLine
 62
7
  6
_SOLID
370
9
 10
2.16514182090759
 20
0.449675381183624
 11
2.16514182090759
 21
0.441615432500839
  0
LINE
  5
A0
100
AcDbEntity
  8
SEMA2D
100
AcDbLine
 62
7
  6
_SOLID
370
9
 10
2.16669416427612
 20
0.371605008840561
 11
2.16411328315735
 21
0.368960082530975
  0
LINE
  5
A1
100
AcDbEntity
  8
SEMA2D
100
AcDbLine
 62
7
  6
_SOLID
370
9
 10
2.17218780517578
 20
0.410809993743897
 11
2.17347145080566
 21
0.423729866743088
  0
LINE
  5
A2
100
AcDbEntity
  8
SEMA2D
100
AcDbLine
 62
7
  6
_SOLID
370
9
 10
2.15471339225769
 20
0.36440709233284
 11
2.13017773628235
 21
0.38955157995224
  0
LINE
  5
A3
100
AcDbEntity
  8
SEMA2D
100
AcDbLine
 62
7
  6
_SOLID
370
9
 10
2.1721715927124
 20
0.409985184669495
 11
2.1721715927124
 21
0.40474659204483
  0
LINE
  5
A4
100
AcDbEntity
  8
SEMA2D
100
AcDbLine
 62
7
  6
_SOLID
370
9
 10
2.16845917701721
 20
0.442980110645294
 11
2.1683235168457
 21
0.441615432500839
  0
LINE
  5
A5
100
AcDbEntity
  8
SEMA2D
100
AcDbLine
 62
7
  6
_SOLID
370
9
 10
2.13763213157654
 20
0.423729866743088
 11
2.13891553878784
 21
0.410809993743897
  0
LINE
  5
A6
100
AcDbEntity
  8
SEMA2D
100
AcDbLine
 62
7
  6
_SOLID
370
9
 10
2.13793158531189
 20
0.441615432500839
 11
2.13891553878784
 21
0.431710004806519
  0
LINE
  5
A7
100
AcDbEntity
  8
SEMA2D
100
AcDbLine
 62
7
  6
_SOLID
370
9
 10
2.1389319896698
 20
0.409985184669495
 11
2.1389319896698
 21
0.40474659204483
  0
LINE
  5
A8
100
AcDbEntity
  8
SEMA2D
100
AcDbLine
 62
7
  6
_SOLID
370
9
 10
2.1389319896698
 20
0.425382673740387
 11
2.1389319896698
 21
0.430885165929794
  0
LINE
  5
A9
100
AcDbEntity
  8
SEMA2D
100
AcDbLine
 62
7
  6
_SOLID
370
9
 10
2.14874267578125
 20
0.449675381183624
 11
2.14874267578125
 21
0.441615432500839
  0
LINE
  5
AA
100
AcDbEntity
  8
SEMA2D
100
AcDbLine
 62
7
  6
_SOLID
370
9
 10
2.33874773979187
 20
0.431710004806519
 11
2.13891553878784
 21
0.431710004806519
  0
LINE
  5
AB
100
AcDbEntity
  8
SEMA2D
100
AcDbLine
 62
7
  6
_SOLID
370
9
 10
2.1389319896698
 20
0.430885165929794
 11
2.33873128890991
 21
0.430885165929794
  0
LINE
  5
AC
100
AcDbEntity
  8
SEMA2D
100
AcDbLine
 62
7
  6
_SOLID
370
9
 10
2.33873128890991
 20
0.425382673740387
 11
2.1389319896698
 21
0.425382673740387
  0
LINE
  5
AD
100
AcDbEntity
  8
SEMA2D
100
AcDbLine
 62
7
  6
_SOLID
370
9
 10
2.13891553878784
 20
0.410809993743897
 11
2.17218780517578
 21
0.410809993743897
  0
LINE
  5
AE
100
AcDbEntity
  8
SEMA2D
100
AcDbLine
 62
7
  6
_SOLID
370
9
 10
2.33876395225525
 20
0.410809993743897
 11
2.30549168586731
 21
0.410809993743897
  0
LINE
  5
AF
100
AcDbEntity
  8
SEMA2D
100
AcDbLine
 62
7
  6
_SOLID
370
9
 10
2.30550789833069
 20
0.409985184669495
 11
2.33874773979187
 21
0.409985184669495
  0
LINE
  5
B0
100
AcDbEntity
  8
SEMA2D
100
AcDbLine
 62
7
  6
_SOLID
370
9
 10
2.1389319896698
 20
0.409985184669495
 11
2.1721715927124
 21
0.409985184669495
  0
LINE
  5
B1
100
AcDbEntity
  8
SEMA2D
100
AcDbLine
 62
7
  6
_SOLID
370
9
 10
2.34004735946655
 20
0.42372989654541
 11
2.30420827865601
 21
0.42372989654541
  0
LINE
  5
B2
100
AcDbEntity
  8
SEMA2D
100
AcDbLine
 62
7
  6
_SOLID
370
9
 10
2.17341303825378
 20
0.423729866743088
 11
2.13769054412842
 21
0.423729866743088
  0
LINE
  5
B3
100
AcDbEntity
  8
SEMA2D
100
AcDbLine
 62
7
  6
_SOLID
370
9
 10
2.35303544998169
 20
0.444175362586975
 11
2.35303544998169
 21
0.403242647647858
  0
LINE
  5
B4
100
AcDbEntity
  8
SEMA2D
100
AcDbLine
 62
7
  6
_SOLID
370
9
 10
2.36551737785339
 20
0.46246263384819
 11
2.11198282241821
 21
0.46246263384819
  0
LINE
  5
B5
100
AcDbEntity
  8
SEMA2D
100
AcDbLine
 62
7
  6
_SOLID
370
9
 10
2.11128759384155
 20
0.462650746107101
 11
2.36621260643005
 21
0.462650746107101
  0
LINE
  5
B6
100
AcDbEntity
  8
SEMA2D
100
AcDbLine
 62
7
  6
_SOLID
370
9
 10
2.36518883705139
 20
0.459375828504562
 11
2.11231136322021
 21
0.459375828504562
  0
LINE
  5
B7
100
AcDbEntity
  8
SEMA2D
100
AcDbLine
 62
7
  6
_SOLID
370
9
 10
2.16514182090759
 20
0.449675381183624
 11
2.3125376701355
 21
0.449675381183624
  0
LINE
  5
B8
100
AcDbEntity
  8
SEMA2D
100
AcDbLine
 62
7
  6
_SOLID
370
9
 10
2.12934398651123
 20
0.449675381183624
 11
2.14874267578125
 21
0.449675381183624
  0
LINE
  5
B9
100
AcDbEntity
  8
SEMA2D
100
AcDbLine
 62
7
  6
_SOLID
370
9
 10
2.32893681526184
 20
0.449675381183624
 11
2.34833550453186
 21
0.449675381183624
  0
LINE
  5
BA
100
AcDbEntity
  8
SEMA2D
100
AcDbLine
 62
7
  6
_SOLID
370
9
 10
2.30935597419739
 20
0.441615432500839
 11
2.3397479057312
 21
0.441615432500839
  0
LINE
  5
BB
100
AcDbEntity
  8
SEMA2D
100
AcDbLine
 62
7
  6
_SOLID
370
9
 10
2.30922031402588
 20
0.442980110645294
 11
2.16845917701721
 21
0.442980110645294
  0
LINE
  5
BC
100
AcDbEntity
  8
SEMA2D
100
AcDbLine
 62
7
  6
_SOLID
370
9
 10
2.1683235168457
 20
0.441615432500839
 11
2.13793158531189
 21
0.441615432500839
  0
LINE
  5
BD
100
AcDbEntity
  8
SEMA2D
100
AcDbLine
 62
7
  6
_SOLID
370
9
 10
2.30550789833069
 20
0.409985184669495
 11
2.30550789833069
 21
0.40474659204483
  0
LINE
  5
BE
100
AcDbEntity
  8
SEMA2D
100
AcDbLine
 62
7
  6
_SOLID
370
9
 10
2.3125376701355
 20
0.449675381183624
 11
2.3125376701355
 21
0.441615432500839
  0
LINE
  5
BF
100
AcDbEntity
  8
SEMA2D
100
AcDbLine
 62
7
  6
_SOLID
370
9
 10
2.30935597419739
 20
0.441615432500839
 11
2.30922031402588
 21
0.442980110645294
  0
LINE
  5
C0
100
AcDbEntity
  8
SEMA2D
100
AcDbLine
 62
7
  6
_SOLID
370
9
 10
2.34750175476074
 20
0.38955157995224
 11
2.32314205169678
 21
0.364587366580963
  0
LINE
  5
C1
100
AcDbEntity
  8
SEMA2D
100
AcDbLine
 62
7
  6
_SOLID
370
9
 10
2.30420827865601
 20
0.42372989654541
 11
2.30549168586731
 21
0.410809993743897
  0
LINE
  5
C2
100
AcDbEntity
  8
SEMA2D
100
AcDbLine
 62
7
  6
_SOLID
370
9
 10
2.29301524162292
 20
0.407310456037521
 11
2.29301524162292
 21
0.411350756883621
  0
LINE
  5
C3
100
AcDbEntity
  8
SEMA2D
100
AcDbLine
 62
7
  6
_SOLID
370
9
 10
2.18466448783874
 20
0.411350756883621
 11
2.18466448783874
 21
0.407310456037521
  0
LINE
  5
C4
100
AcDbEntity
  8
SEMA2D
100
AcDbLine
 62
7
  6
_SOLID
370
9
 10
2.16411328315735
 20
0.368960082530975
 11
2.15462160110474
 21
0.378687262535095
  0
LINE
  5
C5
100
AcDbEntity
  8
SEMA2D
100
AcDbLine
 62
7
  6
_SOLID
370
9
 10
2.32305788993835
 20
0.378686875104904
 11
2.31356620788574
 21
0.368960082530975
  0
LINE
  5
C6
100
AcDbEntity
  8
SEMA2D
100
AcDbLine
 62
7
  6
_SOLID
370
9
 10
2.3229660987854
 20
0.36440709233284
 11
2.32229161262512
 21
0.362952619791031
  0
LINE
  5
C7
100
AcDbEntity
  8
SEMA2D
100
AcDbLine
 62
7
  6
_SOLID
370
9
 10
2.1721715927124
 20
0.40474659204483
 11
2.1389319896698
 21
0.40474659204483
  0
LINE
  5
C8
100
AcDbEntity
  8
SEMA2D
100
AcDbLine
 62
7
  6
_SOLID
370
9
 10
2.33874773979187
 20
0.40474659204483
 11
2.30550789833069
 21
0.40474659204483
  0
LINE
  5
C9
100
AcDbEntity
  8
SEMA2D
100
AcDbLine
 62
7
  6
_SOLID
370
9
 10
2.31098532676697
 20
0.371605008840561
 11
2.31356620788574
 21
0.368960082530975
  0
LINE
  5
CA
100
AcDbEntity
  8
SEMA2D
100
AcDbLine
 62
7
  6
_SOLID
370
9
 10
2.32893681526184
 20
0.449675381183624
 11
2.32893681526184
 21
0.441615432500839
  0
LINE
  5
CB
100
AcDbEntity
  8
SEMA2D
100
AcDbLine
 62
7
  6
_SOLID
370
9
 10
2.33876395225525
 20
0.410809993743897
 11
2.34004735946655
 21
0.42372989654541
  0
LINE
  5
CC
100
AcDbEntity
  8
SEMA2D
100
AcDbLine
 62
7
  6
_SOLID
370
9
 10
2.33876395225525
 20
0.431710004806519
 11
2.3397479057312
 21
0.441615432500839
  0
LINE
  5
CD
100
AcDbEntity
  8
SEMA2D
100
AcDbLine
 62
7
  6
_SOLID
370
9
 10
2.33874773979187
 20
0.409985184669495
 11
2.33874773979187
 21
0.40474659204483
  0
LINE
  5
CE
100
AcDbEntity
  8
SEMA2D
100
AcDbLine
 62
7
  6
_SOLID
370
9
 10
2.33874773979187
 20
0.430885165929794
 11
2.33874773979187
 21
0.425382673740387
  0
ARC
  5
CF
100
AcDbEntity
  8
SEMA2D
100
AcDbCircle
 62
7
  6
_SOLID
370
9
 10
2.23883986473083
 20
0.41163557767868
 40
0.0116788744926453
100
AcDbArc
 50
358.602478027344
 51
181.397537231445
  0
ARC
  5
D0
100
AcDbEntity
  8
SEMA2D
100
AcDbCircle
 62
7
  6
_SOLID
370
9
 10
2.11068177223206
 20
0.454884737730026
 40
0.087958924472332
100
AcDbArc
 50
299.970245361328
 51
327.256866455078
  0
ARC
  5
D1
100
AcDbEntity
  8
SEMA2D
100
AcDbCircle
 62
7
  6
_SOLID
370
9
 10
2.36697483062744
 20
0.454859018325806
 40
0.0879254639148712
100
AcDbArc
 50
212.736907958984
 51
240.034484863281
  0
ARC
  5
D2
100
AcDbEntity
  8
SEMA2D
100
AcDbCircle
 62
7
  6
_SOLID
370
9
 10
2.36746096611023
 20
0.454925924539566
 40
0.10065720975399
100
AcDbArc
 50
218.503723144531
 51
235.870223999023
  0
ARC
  5
D3
100
AcDbEntity
  8
SEMA2D
100
AcDbCircle
 62
7
  6
_SOLID
370
9
 10
2.11020374298096
 20
0.454939991235733
 40
0.10067717730999
100
AcDbArc
 50
304.132263183594
 51
321.495086669922
  0
ARC
  5
D4
100
AcDbEntity
  8
SEMA2D
100
AcDbCircle
 62
7
  6
_SOLID
370
9
 10
2.14120650291443
 20
0.401973068714142
 40
0.0166109967976809
100
AcDbArc
 50
175.616638183594
 51
228.399032592773
  0
ARC
  5
D5
100
AcDbEntity
  8
SEMA2D
100
AcDbCircle
 62
7
  6
_SOLID
370
9
 10
2.33647322654724
 20
0.401973068714142
 40
0.0166109967976809
100
AcDbArc
 50
311.600952148438
 51
4.38336896896362
  0
ARC
  5
D6
100
AcDbEntity
  8
SEMA2D
100
AcDbCircle
 62
7
  6
_SOLID
370
9
 10
2.32461214065552
 20
0.37030890583992
 40
0.00771356513723731
100
AcDbArc
 50
252.493667602539
 51
304.219604492188
  0
LINE
  5
D7
100
AcDbEntity
  8
SEMA2D
100
AcDbLine
 62
7
  6
_SOLID
370
9
 10
2.15471339225769
 20
0.36440709233284
 11
2.15538787841797
 21
0.362952619791031
  0
ARC
  5
D8
100
AcDbEntity
  8
SEMA2D
100
AcDbCircle
 62
7
  6
_SOLID
370
9
 10
2.15306758880615
 20
0.37030890583992
 40
0.00771356513723731
100
AcDbArc
 50
235.780410766602
 51
287.506317138672
  0
ARC
  5
D9
100
AcDbEntity
  8
SEMA2D
100
AcDbCircle
 62
7
  6
_SOLID
370
9
 10
2.17223978042603
 20
0.421377450227737
 40
0.0620714537799358
100
AcDbArc
 50
193.91357421875
 51
247.743072509766
  0
ARC
  5
DA
100
AcDbEntity
  8
SEMA2D
100
AcDbCircle
 62
7
  6
_SOLID
370
9
 10
2.30543971061707
 20
0.421377450227737
 40
0.0620714537799358
100
AcDbArc
 50
292.256927490234
 51
346.08642578125
  0
ARC
  5
DB
100
AcDbEntity
  8
SEMA2D
100
AcDbCircle
 62
7
  6
_SOLID
370
9
 10
2.34728908538818
 20
0.444022983312607
 40
0.00574844796210527
100
AcDbArc
 50
1.51919221878052
 51
79.5115966796875
  0
ARC
  5
DC
100
AcDbEntity
  8
SEMA2D
100
AcDbCircle
 62
7
  6
_SOLID
370
9
 10
2.13039040565491
 20
0.444022983312607
 40
0.00574844796210527
100
AcDbArc
 50
100.488403320312
 51
178.480804443359
  0
LINE
  5
DD
100
AcDbEntity
  8
SEMA2D
100
AcDbLine
 62
7
  6
_SOLID
370
9
 10
2.18898916244507
 20
0.39226022362709
 11
2.28868985176086
 21
0.39226022362709
  0
LINE
  5
DE
100
AcDbEntity
  8
SEMA2D
100
AcDbLine
 62
7
  6
_SOLID
370
9
 10
2.29301524162292
 20
0.411350756883621
 11
2.25051522254944
 21
0.411350756883621
  0
LINE
  5
DF
100
AcDbEntity
  8
SEMA2D
100
AcDbLine
 62
7
  6
_SOLID
370
9
 10
2.18466448783874
 20
0.411350756883621
 11
2.22716426849365
 21
0.411350756883621
  0
LINE
  5
E0
100
AcDbEntity
  8
SEMA2D
100
AcDbLine
 62
7
  6
_SOLID
370
9
 10
2.11128759384155
 20
0.699799001216888
 11
2.36621260643005
 21
0.699799001216888
  0
LINE
  5
E1
100
AcDbEntity
  8
SEMA2D
100
AcDbLine
 62
7
  6
_SOLID
370
9
 10
2.11128759384155
 20
0.699799001216888
 11
2.11128759384155
 21
0.70679897069931
  0
LINE
  5
E2
100
AcDbEntity
  8
SEMA2D
100
AcDbLine
 62
7
  6
_SOLID
370
9
 10
2.11128759384155
 20
0.699799001216888
 11
2.11128759384155
 21
0.692798972129822
  0
LINE
  5
E3
100
AcDbEntity
  8
SEMA2D
100
AcDbLine
 62
7
  6
_SOLID
370
9
 10
2.11128759384155
 20
0.699799001216888
 11
2.11734962463379
 21
0.703298985958099
  0
LINE
  5
E4
100
AcDbEntity
  8
SEMA2D
100
AcDbLine
 62
7
  6
_SOLID
370
9
 10
2.11128759384155
 20
0.699799001216888
 11
2.10522532463074
 21
0.696298956871033
  0
LINE
  5
E5
100
AcDbEntity
  8
SEMA2D
100
AcDbLine
 62
7
  6
_DOT
370
9
 10
2.11128759384155
 20
0.649798989295959
 11
2.11128759384155
 21
0.699799001216888
  0
LINE
  5
E6
100
AcDbEntity
  8
SEMA2D
100
AcDbLine
 62
7
  6
_DOT
370
9
 10
2.11128759384155
 20
0.649798989295959
 11
2.11128759384155
 21
0.649798989295959
  0
MTEXT
  5
E7
100
AcDbEntity
  8
SEMATEXT
100
AcDbMText
 62
7
 10
2.23173570632935
 20
0.704608857631683
 40
0.00800000037997961
 71
7
  1
{\fArial Narrow;255}
  7
STANDARD
 73
2
  0
LINE
  5
E8
100
AcDbEntity
  8
SEMA2D
100
AcDbLine
 62
7
  6
_SOLID
370
9
 10
2.36621260643005
 20
0.699799001216888
 11
2.36621260643005
 21
0.70679897069931
  0
LINE
  5
E9
100
AcDbEntity
  8
SEMA2D
100
AcDbLine
 62
7
  6
_SOLID
370
9
 10
2.36621260643005
 20
0.699799001216888
 11
2.36621260643005
 21
0.692798972129822
  0
LINE
  5
EA
100
AcDbEntity
  8
SEMA2D
100
AcDbLine
 62
7
  6
_SOLID
370
9
 10
2.36621260643005
 20
0.699799001216888
 11
2.37227463722229
 21
0.703298985958099
  0
LINE
  5
EB
100
AcDbEntity
  8
SEMA2D
100
AcDbLine
 62
7
  6
_SOLID
370
9
 10
2.36621260643005
 20
0.699799001216888
 11
2.36015033721924
 21
0.696298956871033
  0
LINE
  5
EC
100
AcDbEntity
  8
SEMA2D
100
AcDbLine
 62
7
  6
_DOT
370
9
 10
2.36621260643005
 20
0.649798989295959
 11
2.36621260643005
 21
0.699799001216888
  0
LINE
  5
ED
100
AcDbEntity
  8
SEMA2D
100
AcDbLine
 62
7
  6
_DOT
370
9
 10
2.36621260643005
 20
0.649798989295959
 11
2.36621260643005
 21
0.649798989295959
  0
LINE
  5
EE
100
AcDbEntity
  8
SEMA2D
100
AcDbLine
 62
7
  6
_SOLID
370
9
 10
1.92374408245087
 20
0.51458466053009
 11
1.96128749847412
 21
0.51458466053009
  0
LINE
  5
EF
100
AcDbEntity
  8
SEMA2D
100
AcDbLine
 62
7
  6
_SOLID
370
9
 10
1.92374408245087
 20
0.51458466053009
 11
1.92374408245087
 21
0.521584689617157
  0
LINE
  5
F0
100
AcDbEntity
  8
SEMA2D
100
AcDbLine
 62
7
  6
_SOLID
370
9
 10
1.92374408245087
 20
0.51458466053009
 11
1.92374408245087
 21
0.507584691047668
  0
LINE
  5
F1
100
AcDbEntity
  8
SEMA2D
100
AcDbLine
 62
7
  6
_SOLID
370
9
 10
1.92374408245087
 20
0.51458466053009
 11
1.92980623245239
 21
0.518084645271301
  0
LINE
  5
F2
100
AcDbEntity
  8
SEMA2D
100
AcDbLine
 62
7
  6
_SOLID
370
9
 10
1.92374408245087
 20
0.51458466053009
 11
1.91768181324005
 21
0.511084675788879
  0
LINE
  5
F3
100
AcDbEntity
  8
SEMA2D
100
AcDbLine
 62
7
  6
_DOT
370
9
 10
1.92374408245087
 20
0.464584678411484
 11
1.92374408245087
 21
0.51458466053009
  0
LINE
  5
F4
100
AcDbEntity
  8
SEMA2D
100
AcDbLine
 62
7
  6
_DOT
370
9
 10
1.92374408245087
 20
0.464584678411484
 11
1.92374408245087
 21
0.464584678411484
  0
MTEXT
  5
F5
100
AcDbEntity
  8
SEMATEXT
100
AcDbMText
 62
7
 10
1.92810606956482
 20
0.519394516944885
 40
0.00800000037997961
 71
7
  1
{\fArial Narrow;18}
  7
STANDARD
 73
2
  0
LINE
  5
F6
100
AcDbEntity
  8
SEMA2D
100
AcDbLine
 62
7
  6
_SOLID
370
9
 10
1.94182050228119
 20
0.51458466053009
 11
1.94182050228119
 21
0.521584689617157
  0
LINE
  5
F7
100
AcDbEntity
  8
SEMA2D
100
AcDbLine
 62
7
  6
_SOLID
370
9
 10
1.94182050228119
 20
0.51458466053009
 11
1.94182050228119
 21
0.507584691047668
  0
LINE
  5
F8
100
AcDbEntity
  8
SEMA2D
100
AcDbLine
 62
7
  6
_SOLID
370
9
 10
1.94182050228119
 20
0.51458466053009
 11
1.94788265228271
 21
0.518084645271301
  0
LINE
  5
F9
100
AcDbEntity
  8
SEMA2D
100
AcDbLine
 62
7
  6
_SOLID
370
9
 10
1.94182050228119
 20
0.51458466053009
 11
1.93575835227966
 21
0.511084675788879
  0
LINE
  5
FA
100
AcDbEntity
  8
SEMA2D
100
AcDbLine
 62
7
  6
_DOT
370
9
 10
1.94182050228119
 20
0.464584678411484
 11
1.94182050228119
 21
0.51458466053009
  0
LINE
  5
FB
100
AcDbEntity
  8
SEMA2D
100
AcDbLine
 62
7
  6
_DOT
370
9
 10
1.94182050228119
 20
0.464584678411484
 11
1.94182050228119
 21
0.464584678411484
  0
MTEXT
  5
FC
100
AcDbEntity
  8
SEMATEXT
100
AcDbMText
 62
7
 10
1.94687783718109
 20
0.519394516944885
 40
0.00800000037997961
 71
7
  1
{\fArial Narrow;19}
  7
STANDARD
 73
2
  0
LINE
  5
FD
100
AcDbEntity
  8
SEMA2D
100
AcDbLine
 62
7
  6
_SOLID
370
9
 10
1.96128749847412
 20
0.51458466053009
 11
1.96128749847412
 21
0.521584689617157
  0
LINE
  5
FE
100
AcDbEntity
  8
SEMA2D
100
AcDbLine
 62
7
  6
_SOLID
370
9
 10
1.96128749847412
 20
0.51458466053009
 11
1.96128749847412
 21
0.507584691047668
  0
LINE
  5
FF
100
AcDbEntity
  8
SEMA2D
100
AcDbLine
 62
7
  6
_SOLID
370
9
 10
1.96128749847412
 20
0.51458466053009
 11
1.96734964847565
 21
0.518084645271301
  0
LINE
  5
100
100
AcDbEntity
  8
SEMA2D
100
AcDbLine
 62
7
  6
_SOLID
370
9
 10
1.96128749847412
 20
0.51458466053009
 11
1.9552253484726
 21
0.511084675788879
  0
LINE
  5
101
100
AcDbEntity
  8
SEMA2D
100
AcDbLine
 62
7
  6
_DOT
370
9
 10
1.96128749847412
 20
0.464584678411484
 11
1.96128749847412
 21
0.51458466053009
  0
LINE
  5
102
100
AcDbEntity
  8
SEMA2D
100
AcDbLine
 62
7
  6
_DOT
370
9
 10
1.96128749847412
 20
0.51458466053009
 11
1.96128749847412
 21
0.464584678411484
  0
LINE
  5
103
100
AcDbEntity
  8
SEMA2D
100
AcDbLine
 62
7
  6
_SOLID
370
9
 10
1.87374401092529
 20
0.0831596702337265
 11
1.87374401092529
 21
0.463159680366516
  0
LINE
  5
104
100
AcDbEntity
  8
SEMA2D
100
AcDbLine
 62
7
  6
_SOLID
370
9
 10
1.87374401092529
 20
0.0831596702337265
 11
1.86674404144287
 21
0.0831596702337265
  0
LINE
  5
105
100
AcDbEntity
  8
SEMA2D
100
AcDbLine
 62
7
  6
_SOLID
370
9
 10
1.87374401092529
 20
0.0831596702337265
 11
1.88074398040771
 21
0.0831596702337265
  0
LINE
  5
106
100
AcDbEntity
  8
SEMA2D
100
AcDbLine
 62
7
  6
_SOLID
370
9
 10
1.87374401092529
 20
0.0831596702337265
 11
1.87024402618408
 21
0.0892218425869942
  0
LINE
  5
107
100
AcDbEntity
  8
SEMA2D
100
AcDbLine
 62
7
  6
_SOLID
370
9
 10
1.87374401092529
 20
0.0831596702337265
 11
1.8772439956665
 21
0.0770974904298782
  0
LINE
  5
108
100
AcDbEntity
  8
SEMA2D
100
AcDbLine
 62
7
  6
_DOT
370
9
 10
1.92374408245087
 20
0.0831596702337265
 11
1.87374401092529
 21
0.0831596702337265
  0
LINE
  5
109
100
AcDbEntity
  8
SEMA2D
100
AcDbLine
 62
7
  6
_DOT
370
9
 10
1.92374408245087
 20
0.0831596702337265
 11
1.92374408245087
 21
0.0831596702337265
  0
MTEXT
  5
10A
100
AcDbEntity
  8
SEMATEXT
100
AcDbMText
 62
7
 10
1.8689341545105
 20
0.265143245458603
 40
0.00800000037997961
 50
90
 71
7
  1
{\fArial Narrow;380}
  7
STANDARD
 73
2
  0
LINE
  5
10B
100
AcDbEntity
  8
SEMA2D
100
AcDbLine
 62
7
  6
_SOLID
370
9
 10
1.87374401092529
 20
0.463159680366516
 11
1.86674404144287
 21
0.463159680366516
  0
LINE
  5
10C
100
AcDbEntity
  8
SEMA2D
100
AcDbLine
 62
7
  6
_SOLID
370
9
 10
1.87374401092529
 20
0.463159680366516
 11
1.88074398040771
 21
0.463159680366516
  0
LINE
  5
10D
100
AcDbEntity
  8
SEMA2D
100
AcDbLine
 62
7
  6
_SOLID
370
9
 10
1.87374401092529
 20
0.463159680366516
 11
1.87024402618408
 21
0.469221860170364
  0
LINE
  5
10E
100
AcDbEntity
  8
SEMA2D
100
AcDbLine
 62
7
  6
_SOLID
370
9
 10
1.87374401092529
 20
0.463159680366516
 11
1.8772439956665
 21
0.457097500562668
  0
LINE
  5
10F
100
AcDbEntity
  8
SEMA2D
100
AcDbLine
 62
7
  6
_DOT
370
9
 10
1.92374408245087
 20
0.463159680366516
 11
1.87374401092529
 21
0.463159680366516
  0
LINE
  5
110
100
AcDbEntity
  8
SEMA2D
100
AcDbLine
 62
7
  6
_DOT
370
9
 10
1.92374408245087
 20
0.463159680366516
 11
1.92374408245087
 21
0.463159680366516
  0
LINE
  5
111
100
AcDbEntity
  8
SEMA2D
100
AcDbLine
 62
7
  6
_SOLID
370
9
 10
2.11128759384155
 20
0.51458466053009
 11
2.36621260643005
 21
0.51458466053009
  0
LINE
  5
112
100
AcDbEntity
  8
SEMA2D
100
AcDbLine
 62
7
  6
_SOLID
370
9
 10
2.11128759384155
 20
0.51458466053009
 11
2.11128759384155
 21
0.521584689617157
  0
LINE
  5
113
100
AcDbEntity
  8
SEMA2D
100
AcDbLine
 62
7
  6
_SOLID
370
9
 10
2.11128759384155
 20
0.51458466053009
 11
2.11128759384155
 21
0.507584691047668
  0
LINE
  5
114
100
AcDbEntity
  8
SEMA2D
100
AcDbLine
 62
7
  6
_SOLID
370
9
 10
2.11128759384155
 20
0.51458466053009
 11
2.11734962463379
 21
0.518084645271301
  0
LINE
  5
115
100
AcDbEntity
  8
SEMA2D
100
AcDbLine
 62
7
  6
_SOLID
370
9
 10
2.11128759384155
 20
0.51458466053009
 11
2.10522532463074
 21
0.511084675788879
  0
LINE
  5
116
100
AcDbEntity
  8
SEMA2D
100
AcDbLine
 62
7
  6
_DOT
370
9
 10
2.11128759384155
 20
0.462650746107101
 11
2.11128759384155
 21
0.51458466053009
  0
LINE
  5
117
100
AcDbEntity
  8
SEMA2D
100
AcDbLine
 62
7
  6
_DOT
370
9
 10
2.11128759384155
 20
0.462650746107101
 11
2.11128759384155
 21
0.462650746107101
  0
MTEXT
  5
118
100
AcDbEntity
  8
SEMATEXT
100
AcDbMText
 62
7
 10
2.23173570632935
 20
0.519394516944885
 40
0.00800000037997961
 71
7
  1
{\fArial Narrow;255}
  7
STANDARD
 73
2
  0
LINE
  5
119
100
AcDbEntity
  8
SEMA2D
100
AcDbLine
 62
7
  6
_SOLID
370
9
 10
2.36621260643005
 20
0.51458466053009
 11
2.36621260643005
 21
0.521584689617157
  0
LINE
  5
11A
100
AcDbEntity
  8
SEMA2D
100
AcDbLine
 62
7
  6
_SOLID
370
9
 10
2.36621260643005
 20
0.51458466053009
 11
2.36621260643005
 21
0.507584691047668
  0
LINE
  5
11B
100
AcDbEntity
  8
SEMA2D
100
AcDbLine
 62
7
  6
_SOLID
370
9
 10
2.36621260643005
 20
0.51458466053009
 11
2.37227463722229
 21
0.518084645271301
  0
LINE
  5
11C
100
AcDbEntity
  8
SEMA2D
100
AcDbLine
 62
7
  6
_SOLID
370
9
 10
2.36621260643005
 20
0.51458466053009
 11
2.36015033721924
 21
0.511084675788879
  0
LINE
  5
11D
100
AcDbEntity
  8
SEMA2D
100
AcDbLine
 62
7
  6
_DOT
370
9
 10
2.36621260643005
 20
0.462650746107101
 11
2.36621260643005
 21
0.51458466053009
  0
LINE
  5
11E
100
AcDbEntity
  8
SEMA2D
100
AcDbLine
 62
7
  6
_DOT
370
9
 10
2.36621260643005
 20
0.462650746107101
 11
2.36621260643005
 21
0.462650746107101
  0
LINE
  5
11F
100
AcDbEntity
  8
SEMA2D
100
AcDbLine
 62
7
  6
_SOLID
370
9
 10
2.41621255874634
 20
0.082650750875473
 11
2.41621255874634
 21
0.462650746107101
  0
LINE
  5
120
100
AcDbEntity
  8
SEMA2D
100
AcDbLine
 62
7
  6
_SOLID
370
9
 10
2.41621255874634
 20
0.082650750875473
 11
2.40921258926392
 21
0.082650750875473
  0
LINE
  5
121
100
AcDbEntity
  8
SEMA2D
100
AcDbLine
 62
7
  6
_SOLID
370
9
 10
2.41621255874634
 20
0.082650750875473
 11
2.42321252822876
 21
0.082650750875473
  0
LINE
  5
122
100
AcDbEntity
  8
SEMA2D
100
AcDbLine
 62
7
  6
_SOLID
370
9
 10
2.41621255874634
 20
0.082650750875473
 11
2.41271257400513
 21
0.0887129306793213
  0
LINE
  5
123
100
AcDbEntity
  8
SEMA2D
100
AcDbLine
 62
7
  6
_SOLID
370
9
 10
2.41621255874634
 20
0.082650750875473
 11
2.41971254348755
 21
0.0765885710716248
  0
LINE
  5
124
100
AcDbEntity
  8
SEMA2D
100
AcDbLine
 62
7
  6
_DOT
370
9
 10
2.36621260643005
 20
0.082650750875473
 11
2.41621255874634
 21
0.082650750875473
  0
LINE
  5
125
100
AcDbEntity
  8
SEMA2D
100
AcDbLine
 62
7
  6
_DOT
370
9
 10
2.36621260643005
 20
0.082650750875473
 11
2.36621260643005
 21
0.082650750875473
  0
MTEXT
  5
126
100
AcDbEntity
  8
SEMATEXT
100
AcDbMText
 62
7
 10
2.41140270233154
 20
0.264634341001511
 40
0.00800000037997961
 50
90
 71
7
  1
{\fArial Narrow;380}
  7
STANDARD
 73
2
  0
LINE
  5
127
100
AcDbEntity
  8
SEMA2D
100
AcDbLine
 62
7
  6
_SOLID
370
9
 10
2.41621255874634
 20
0.462650746107101
 11
2.40921258926392
 21
0.462650746107101
  0
LINE
  5
128
100
AcDbEntity
  8
SEMA2D
100
AcDbLine
 62
7
  6
_SOLID
370
9
 10
2.41621255874634
 20
0.462650746107101
 11
2.42321252822876
 21
0.462650746107101
  0
LINE
  5
129
100
AcDbEntity
  8
SEMA2D
100
AcDbLine
 62
7
  6
_SOLID
370
9
 10
2.41621255874634
 20
0.462650746107101
 11
2.41271257400513
 21
0.46871292591095
  0
LINE
  5
12A
100
AcDbEntity
  8
SEMA2D
100
AcDbLine
 62
7
  6
_SOLID
370
9
 10
2.41621255874634
 20
0.462650746107101
 11
2.41971254348755
 21
0.456588566303253
  0
LINE
  5
12B
100
AcDbEntity
  8
SEMA2D
100
AcDbLine
 62
7
  6
_DOT
370
9
 10
2.36621260643005
 20
0.462650746107101
 11
2.41621255874634
 21
0.462650746107101
  0
LINE
  5
12C
100
AcDbEntity
  8
SEMA2D
100
AcDbLine
 62
7
  6
_DOT
370
9
 10
2.36621260643005
 20
0.462650746107101
 11
2.36621260643005
 21
0.462650746107101
  0
LINE
  5
12D
100
AcDbEntity
  8
SEMA2D
100
AcDbLine
 62
7
  6
_SOLID
370
9
 10
1.99182057380676
 20
0.0831596702337265
 11
1.99182057380676
 21
0.433159679174423
  0
LINE
  5
12E
100
AcDbEntity
  8
SEMA2D
100
AcDbLine
 62
7
  6
_SOLID
370
9
 10
1.99182057380676
 20
0.0831596702337265
 11
1.98482048511505
 21
0.0831596702337265
  0
LINE
  5
12F
100
AcDbEntity
  8
SEMA2D
100
AcDbLine
 62
7
  6
_SOLID
370
9
 10
1.99182057380676
 20
0.0831596702337265
 11
1.99882054328918
 21
0.0831596702337265
  0
LINE
  5
130
100
AcDbEntity
  8
SEMA2D
100
AcDbLine
 62
7
  6
_SOLID
370
9
 10
1.99182057380676
 20
0.0831596702337265
 11
1.98832046985626
 21
0.0892218425869942
  0
LINE
  5
131
100
AcDbEntity
  8
SEMA2D
100
AcDbLine
 62
7
  6
_SOLID
370
9
 10
1.99182057380676
 20
0.0831596702337265
 11
1.99532055854797
 21
0.0770974904298782
  0
LINE
  5
132
100
AcDbEntity
  8
SEMA2D
100
AcDbLine
 62
7
  6
_DOT
370
9
 10
1.94182050228119
 20
0.0831596702337265
 11
1.99182057380676
 21
0.0831596702337265
  0
LINE
  5
133
100
AcDbEntity
  8
SEMA2D
100
AcDbLine
 62
7
  6
_DOT
370
9
 10
1.94182050228119
 20
0.0831596702337265
 11
1.94182050228119
 21
0.0831596702337265
  0
MTEXT
  5
134
100
AcDbEntity
  8
SEMATEXT
100
AcDbMText
 62
7
 10
1.98701071739197
 20
0.250143259763718
 40
0.00800000037997961
 50
90
 71
7
  1
{\fArial Narrow;350}
  7
STANDARD
 73
2
  0
LINE
  5
135
100
AcDbEntity
  8
SEMA2D
100
AcDbLine
 62
7
  6
_SOLID
370
9
 10
1.99182057380676
 20
0.433159679174423
 11
1.98482048511505
 21
0.433159679174423
  0
LINE
  5
136
100
AcDbEntity
  8
SEMA2D
100
AcDbLine
 62
7
  6
_SOLID
370
9
 10
1.99182057380676
 20
0.433159679174423
 11
1.99882054328918
 21
0.433159679174423
  0
LINE
  5
137
100
AcDbEntity
  8
SEMA2D
100
AcDbLine
 62
7
  6
_SOLID
370
9
 10
1.99182057380676
 20
0.433159679174423
 11
1.98832046985626
 21
0.439221858978271
  0
LINE
  5
138
100
AcDbEntity
  8
SEMA2D
100
AcDbLine
 62
7
  6
_SOLID
370
9
 10
1.99182057380676
 20
0.433159679174423
 11
1.99532055854797
 21
0.427097499370575
  0
LINE
  5
139
100
AcDbEntity
  8
SEMA2D
100
AcDbLine
 62
7
  6
_DOT
370
9
 10
1.94182050228119
 20
0.433159679174423
 11
1.99182057380676
 21
0.433159679174423
  0
LINE
  5
13A
100
AcDbEntity
  8
SEMA2D
100
AcDbLine
 62
7
  6
_DOT
370
9
 10
1.94182050228119
 20
0.433159679174423
 11
1.94182050228119
 21
0.433159679174423
  0
ENDSEC
  0
SECTION
  2
OBJECTS
  0
DICTIONARY
  5
 13
330
0
100
AcDbDictionary
281
     1
  3
ACAD_GROUP
350
 14
 3
ACAD_MLINESTYLE
350
 16
  3
ACAD_PLOTSETTINGS
350
 17
  3
ACAD_PLOTSTYLENAME
350
 18
  0
DICTIONARY
  5
 14
330
 13
100
AcDbDictionary
281
     1
  0
DICTIONARY
  5
 16
330
 13
100
AcDbDictionary
281
     1
  0
DICTIONARY
  5
 17
102
{ACAD_REACTORS
330
 13
102
}
330
 13
100
AcDbDictionary
281
     1
  0
ACDBDICTIONARYWDFLT
  5
 18
102
{ACAD_REACTORS
330
 13
102
}
330
 13
100
AcDbDictionary
281
     1
  3
Normal
350
 19
100
AcDbDictionaryWithDefault
340
 19
  0
ACDBPLACEHOLDER
  5
 19
102
{ACAD_REACTORS
330
 18
102
}
330
 18
  0
ENDSEC
  0
EOF
