999
Created by Soft Gold Ltd. www.cadsofttools.com
999

  0
SECTION
  2
HEADER
  9
$ACADVER
  1
AC1015
  9
$CLAYER
  8
0
  9
$CELTYPE
  6
BYLAYER
  9
$CELTSCALE
 40
1
  9
$CELWEIGHT
370
-1
  9
$DIMSTYLE
  2
STANDARD
  9
$DIMALT
 70
0
  9
$DIMALTF
 40
1
  9
$DIMAPOST
  1

  9
$DIMASZ
 40
0.18
  9
$DIMCLRD
 70
0
  9
$DIMCLRE
 70
0
  9
$DIMCLRT
 70
0
  9
$DIMEXE
 40
0.18
  9
$DIMEXO
 40
0.0625
  9
$DIMGAP
 40
0.0625
  9
$DIMLFAC
 40
1
  9
$DIMDEC
 70
4
  9
$DIMTAD
 70
0
  9
$DIMTIH
 70
1
  9
$DIMTIX
 70
0
  9
$DIMTOH
 70
1
  9
$DIMPOST
  1

  9
$DIMBLK
  1
_CLOSEDFILLED
  9
$DIMBLK1
  1

  9
$DIMBLK2
  1

  9
$DIMLDRBLK
  1

  9
$DIMTXT
 40
0.18
  9
$DIMTXSTY
  7
STANDARD
  9
$TEXTSIZE
 40
0.18
  9
$TEXTSTYLE
  7
STANDARD
  9
$HANDSEED
  5
0000000000000387
  9
$FILLETRAD
 40
0.5
  9
$INSUNITS
 70
4
  9
$LIMMIN
 10
0.113770372504596
 20
1.92303421380745
  9
$LIMMAX
 10
0.871157725458633
 20
2.83759997010069
  9
$LTSCALE
 40
1
  9
$MEASUREMENT
 70
0
  9
$PDMODE
 70
0
  9
$PDSIZE
 40
0
  9
$TILEMODE
 70
1
  9
$UCSORG
 10
0
 20
0
 30
0
  9
$UCSXDIR
 10
1
 20
0
 30
0
  9
$UCSYDIR
 10
0
 20
1
 30
0
  0
ENDSEC
  0
SECTION
  2
CLASSES
  0
CLASS
  1
IMAGE
  2
AcDbRasterImage
  3
ISM
 90
2175
280
0
281
1
  0
CLASS
  1
IMAGEDEF
  2
AcDbRasterImageDef
  3
ISM
 90
0
280
0
281
0
  0
CLASS
  1
WIPEOUT
  2
AcDbWipeout
  3
"WipeOut"
 90
2175
280
0
281
1
  0
CLASS
  1
WIPEOUTVARIABLES
  2
AcDbWipeoutVariables
  3
"WipeOut"
 90
0
280
0
281
0
  0
CLASS
  1
MPOLYGON
  2
AcDbMPolygon
  3
"AcMPolygonObj15"
 90
3071
280
0
281
1
  0
ENDSEC
  0
SECTION
  2
TABLES
  0
TABLE
  2
APPID
  5
369
100
AcDbSymbolTable
  0
APPID
  5
36A
100
AcDbSymbolTableRecord
100
AcDbRegAppTableRecord
  2
ACAD
 70
0
  0
ENDTAB
  0
TABLE
  2
BLOCK_RECORD
  5
36B
100
AcDbSymbolTable
  0
BLOCK_RECORD
  5
36C
100
AcDbSymbolTableRecord
100
AcDbBlockTableRecord
  2
*MODEL_SPACE
  0
BLOCK_RECORD
  5
36D
100
AcDbSymbolTableRecord
100
AcDbBlockTableRecord
  2
*PAPER_SPACE
  0
ENDTAB
  0
TABLE
  2
STYLE
  5
36E
100
AcDbSymbolTable
  0
STYLE
  5
1C6
100
AcDbSymbolTableRecord
100
AcDbTextStyleTableRecord
  2
STANDARD
 70
0
 40
0
 41
1
 50
0
 71
0
 42
2.5
  3
txt
  4

  0
ENDTAB
  0
TABLE
  2
LTYPE
  5
36F
100
AcDbSymbolTable
  0
LTYPE
  5
1
100
AcDbSymbolTableRecord
100
AcDbLinetypeTableRecord
  2
_SOLID
 70
0
  3
_.
 72
65
 73
2
 40
5
 49
5
 74
0
 49
0
 74
0
  0
LTYPE
  5
2
100
AcDbSymbolTableRecord
100
AcDbLinetypeTableRecord
  2
_DASH
 70
0
  3
_ 
 72
65
 73
2
 40
7
 49
5
 74
0
 49
-2
 74
0
  0
LTYPE
  5
3
100
AcDbSymbolTableRecord
100
AcDbLinetypeTableRecord
  2
_DOT
 70
0
  3
_ 
 72
65
 73
2
 40
4
 49
2
 74
0
 49
-2
 74
0
  0
LTYPE
  5
4
100
AcDbSymbolTableRecord
100
AcDbLinetypeTableRecord
  2
_DASHDOT
 70
0
  3
_ _ 
 72
65
 73
4
 40
11
 49
5
 74
0
 49
-2
 74
0
 49
2
 74
0
 49
-2
 74
0
  0
LTYPE
  5
5
100
AcDbSymbolTableRecord
100
AcDbLinetypeTableRecord
  2
_DASHDOTDOT
 70
0
  3
_ _ _ 
 72
65
 73
6
 40
15
 49
5
 74
0
 49
-2
 74
0
 49
2
 74
0
 49
-2
 74
0
 49
2
 74
0
 49
-2
 74
0
  0
LTYPE
  5
6
100
AcDbSymbolTableRecord
100
AcDbLinetypeTableRecord
  2
ISO128-20-02
 70
0
  3
_ 
 72
65
 73
2
 40
15
 49
12
 74
0
 49
-3
 74
0
  0
LTYPE
  5
7
100
AcDbSymbolTableRecord
100
AcDbLinetypeTableRecord
  2
ISO128-20-03
 70
0
  3
_ 
 72
65
 73
2
 40
30
 49
12
 74
0
 49
-18
 74
0
  0
LTYPE
  5
8
100
AcDbSymbolTableRecord
100
AcDbLinetypeTableRecord
  2
ISO128-20-04
 70
0
  3
_ . 
 72
65
 73
4
 40
30
 49
24
 74
0
 49
-3
 74
0
 49
0
 74
0
 49
-3
 74
0
  0
LTYPE
  5
9
100
AcDbSymbolTableRecord
100
AcDbLinetypeTableRecord
  2
ISO128-20-05
 70
0
  3
_ . . 
 72
65
 73
6
 40
33
 49
24
 74
0
 49
-3
 74
0
 49
0
 74
0
 49
-3
 74
0
 49
0
 74
0
 49
-3
 74
0
  0
LTYPE
  5
A
100
AcDbSymbolTableRecord
100
AcDbLinetypeTableRecord
  2
ISO128-20-06
 70
0
  3
_ . . . 
 72
65
 73
8
 40
36
 49
24
 74
0
 49
-3
 74
0
 49
0
 74
0
 49
-3
 74
0
 49
0
 74
0
 49
-3
 74
0
 49
0
 74
0
 49
-3
 74
0
  0
LTYPE
  5
B
100
AcDbSymbolTableRecord
100
AcDbLinetypeTableRecord
  2
ISO128-20-07
 70
0
  3
. 
 72
65
 73
2
 40
3
 49
0
 74
0
 49
-3
 74
0
  0
LTYPE
  5
C
100
AcDbSymbolTableRecord
100
AcDbLinetypeTableRecord
  2
ISO128-20-08
 70
0
  3
_ _ 
 72
65
 73
4
 40
36
 49
24
 74
0
 49
-3
 74
0
 49
6
 74
0
 49
-3
 74
0
  0
LTYPE
  5
D
100
AcDbSymbolTableRecord
100
AcDbLinetypeTableRecord
  2
ISO128-20-09
 70
0
  3
_ _ _ 
 72
65
 73
6
 40
45
 49
24
 74
0
 49
-3
 74
0
 49
6
 74
0
 49
-3
 74
0
 49
6
 74
0
 49
-3
 74
0
  0
LTYPE
  5
E
100
AcDbSymbolTableRecord
100
AcDbLinetypeTableRecord
  2
ISO128-20-10
 70
0
  3
_ . 
 72
65
 73
4
 40
18
 49
12
 74
0
 49
-3
 74
0
 49
0
 74
0
 49
-3
 74
0
  0
LTYPE
  5
F
100
AcDbSymbolTableRecord
100
AcDbLinetypeTableRecord
  2
ISO128-20-11
 70
0
  3
_ _ . 
 72
65
 73
6
 40
33
 49
12
 74
0
 49
-3
 74
0
 49
12
 74
0
 49
-3
 74
0
 49
0
 74
0
 49
-3
 74
0
  0
LTYPE
  5
10
100
AcDbSymbolTableRecord
100
AcDbLinetypeTableRecord
  2
ISO128-20-12
 70
0
  3
_ . . 
 72
65
 73
6
 40
21
 49
12
 74
0
 49
-3
 74
0
 49
0
 74
0
 49
-3
 74
0
 49
0
 74
0
 49
-3
 74
0
  0
LTYPE
  5
11
100
AcDbSymbolTableRecord
100
AcDbLinetypeTableRecord
  2
ISO128-20-13
 70
0
  3
_ _ . . 
 72
65
 73
8
 40
36
 49
12
 74
0
 49
-3
 74
0
 49
12
 74
0
 49
-3
 74
0
 49
0
 74
0
 49
-3
 74
0
 49
0
 74
0
 49
-3
 74
0
  0
LTYPE
  5
12
100
AcDbSymbolTableRecord
100
AcDbLinetypeTableRecord
  2
ISO128-20-14
 70
0
  3
_ . . . 
 72
65
 73
8
 40
24
 49
12
 74
0
 49
-3
 74
0
 49
0
 74
0
 49
-3
 74
0
 49
0
 74
0
 49
-3
 74
0
 49
0
 74
0
 49
-3
 74
0
  0
LTYPE
  5
13
100
AcDbSymbolTableRecord
100
AcDbLinetypeTableRecord
  2
ISO128-20-15
 70
0
  3
_ _ . . . 
 72
65
 73
10
 40
39
 49
12
 74
0
 49
-3
 74
0
 49
12
 74
0
 49
-3
 74
0
 49
0
 74
0
 49
-3
 74
0
 49
0
 74
0
 49
-3
 74
0
 49
0
 74
0
 49
-3
 74
0
  0
LTYPE
  5
370
100
AcDbSymbolTableRecord
100
AcDbLinetypeTableRecord
  2
ByBlock
 70
0
  3

 72
65
 73
0
 40
0
  0
LTYPE
  5
371
100
AcDbSymbolTableRecord
100
AcDbLinetypeTableRecord
  2
ByLayer
 70
0
  3

 72
65
 73
0
 40
0
  0
ENDTAB
  0
TABLE
  2
LAYER
  5
372
100
AcDbSymbolTable
  0
LAYER
  5
373
100
AcDbSymbolTableRecord
100
AcDbLayerTableRecord
  2
0
 70
0
 62
7
  6
CONTINUOUS
370
-3
390
0
  0
LAYER
  5
14
100
AcDbSymbolTableRecord
100
AcDbLayerTableRecord
  2
SEMA2D
 70
0
 62
7
290
1
370
-3
390
0
  0
LAYER
  5
1C4
100
AcDbSymbolTableRecord
100
AcDbLayerTableRecord
  2
SEMATEXT
 70
0
 62
7
290
1
370
-3
390
0
  0
ENDTAB
  0
TABLE
  2
VPORT
  5
374
100
AcDbSymbolTable
  0
VPORT
  5
375
100
AcDbSymbolTableRecord
100
AcDbViewportTableRecord
  2
*ACTIVE
 70
0
 10
0
 20
0
 11
1
 21
1
 12
0.492464048981615
 22
2.38031709195407
 32
0
 13
0
 23
0
 14
1
 24
1
 15
1
 25
1
 16
0
 26
0
 36
1
 17
0
 27
0
 37
0
 40
0.731652605034596
 41
0.828138761748246
 42
50
 43
0
 44
0
 50
0
 51
0
 71
0
 72
100
 73
1
 74
1
 75
0
 76
0
 77
0
 78
0
  0
ENDTAB
  0
TABLE
  2
VIEW
  5
376
100
AcDbSymbolTable
  0
ENDTAB
  0
TABLE
  2
UCS
  5
377
100
AcDbSymbolTable
  0
ENDTAB
  0
TABLE
  2
DIMSTYLE
  5
378
100
AcDbSymbolTable
 70
1
100
AcDbDimStyleTable
 71
0
  0
DIMSTYLE
105
379
100
AcDbSymbolTableRecord
100
AcDbDimStyleTableRecord
  2
STANDARD
 70
0
340
0
  0
ENDTAB
  0
ENDSEC
  0
SECTION
  2
BLOCKS
  0
BLOCK
  5
37A
100
AcDbEntity
  8
0
100
AcDbBlockBegin
  2
*MODEL_SPACE
 70
0
 10
0
 20
0
  0
ENDBLK
  5
37B
100
AcDbEntity
  8
0
100
AcDbBlockEnd
  0
BLOCK
  5
37C
100
AcDbEntity
  8
0
100
AcDbBlockBegin
  2
*PAPER_SPACE
 70
0
 10
0
 20
0
  0
ENDBLK
  5
37D
100
AcDbEntity
  8
0
100
AcDbBlockEnd
  0
ENDSEC
  0
SECTION
  2
ENTITIES
  0
LINE
  5
15
100
AcDbEntity
  8
SEMA2D
100
AcDbLine
370
9
 62
0
 48
0
  6
_SOLID
 10
0.542415949
 20
2.6206637936
 30
0
 11
0.5455220513625
 21
2.6322622417625
 31
0
  0
LINE
  5
17
100
AcDbEntity
  8
SEMA2D
100
AcDbLine
370
9
 62
0
 48
0
  6
_SOLID
 10
0.5455220513625
 20
2.6322622417625
 30
0
 11
0.5508925475
 21
2.642882873
 31
0
  0
LINE
  5
18
100
AcDbEntity
  8
SEMA2D
100
AcDbLine
370
9
 62
0
 48
0
  6
_SOLID
 10
0.5508925475
 20
2.642882873
 30
0
 11
0.5577567797
 21
2.6515620109
 31
0
  0
LINE
  5
19
100
AcDbEntity
  8
SEMA2D
100
AcDbLine
370
9
 62
0
 48
0
  6
_SOLID
 10
0.5577567797
 20
2.6515620109
 30
0
 11
0.5654068315
 21
2.6581837154125
 31
0
  0
LINE
  5
1A
100
AcDbEntity
  8
SEMA2D
100
AcDbLine
370
9
 62
0
 48
0
  6
_SOLID
 10
0.5654068315
 20
2.6581837154125
 30
0
 11
0.5740369356
 21
2.6632633543
 31
0
  0
LINE
  5
1B
100
AcDbEntity
  8
SEMA2D
100
AcDbLine
370
9
 62
0
 48
0
  6
_SOLID
 10
0.5740369356
 20
2.6632633543
 30
0
 11
0.5741855996
 21
2.6633332396
 31
0
  0
LINE
  5
1C
100
AcDbEntity
  8
SEMA2D
100
AcDbLine
370
9
 62
0
 48
0
  6
_SOLID
 10
0.5741855996
 20
2.6633332396
 30
0
 11
0.5746942111
 21
2.6637729373
 31
0
  0
LINE
  5
1D
100
AcDbEntity
  8
SEMA2D
100
AcDbLine
370
9
 62
0
 48
0
  6
_SOLID
 10
0.5746942111
 20
2.6637729373
 30
0
 11
0.5761349246
 21
2.6642001635
 31
0
  0
LINE
  5
1E
100
AcDbEntity
  8
SEMA2D
100
AcDbLine
370
9
 62
0
 48
0
  6
_SOLID
 10
0.5761349246
 20
2.6642001635
 30
0
 11
0.587676961
 21
2.6676228155
 31
0
  0
LINE
  5
1F
100
AcDbEntity
  8
SEMA2D
100
AcDbLine
370
9
 62
0
 48
0
  6
_SOLID
 10
0.587676961
 20
2.6676228155
 30
0
 11
0.6067847741
 21
2.6676542394
 31
0
  0
LINE
  5
20
100
AcDbEntity
  8
SEMA2D
100
AcDbLine
370
9
 62
0
 48
0
  6
_SOLID
 10
0.6067847741
 20
2.6676542394
 30
0
 11
0.6068968798
 21
2.6676228153
 31
0
  0
LINE
  5
21
100
AcDbEntity
  8
SEMA2D
100
AcDbLine
370
9
 62
0
 48
0
  6
_SOLID
 10
0.6068968798
 20
2.6676228153
 30
0
 11
0.6101961189
 21
2.6676228153
 31
0
  0
LINE
  5
22
100
AcDbEntity
  8
SEMA2D
100
AcDbLine
370
9
 62
0
 48
0
  6
_SOLID
 10
0.6101961189
 20
2.6676228153
 30
0
 11
0.6238361443
 21
2.663263354
 31
0
  0
LINE
  5
23
100
AcDbEntity
  8
SEMA2D
100
AcDbLine
370
9
 62
0
 48
0
  6
_SOLID
 10
0.6238361443
 20
2.663263354
 30
0
 11
0.6324662484
 21
2.6581837149125
 31
0
  0
LINE
  5
24
100
AcDbEntity
  8
SEMA2D
100
AcDbLine
370
9
 62
0
 48
0
  6
_SOLID
 10
0.6324662484
 20
2.6581837149125
 30
0
 11
0.6401163002
 21
2.6515620102
 31
0
  0
LINE
  5
25
100
AcDbEntity
  8
SEMA2D
100
AcDbLine
370
9
 62
0
 48
0
  6
_SOLID
 10
0.6401163002
 20
2.6515620102
 30
0
 11
0.6469805323
 21
2.6428828723
 31
0
  0
LINE
  5
26
100
AcDbEntity
  8
SEMA2D
100
AcDbLine
370
9
 62
0
 48
0
  6
_SOLID
 10
0.6469805323
 20
2.6428828723
 30
0
 11
0.6529428995
 21
2.6306414536
 31
0
  0
LINE
  5
27
100
AcDbEntity
  8
SEMA2D
100
AcDbLine
370
9
 62
0
 48
0
  6
_SOLID
 10
0.6529428995
 20
2.6306414536
 30
0
 11
0.6554571309
 21
2.6206637927
 31
0
  0
LINE
  5
28
100
AcDbEntity
  8
SEMA2D
100
AcDbLine
370
9
 62
0
 48
0
  6
_SOLID
 10
0.6554571309
 20
2.6206637927
 30
0
 11
0.6567764928
 21
2.6184154829
 31
0
  0
LINE
  5
29
100
AcDbEntity
  8
SEMA2D
100
AcDbLine
370
9
 62
0
 48
0
  6
_SOLID
 10
0.6567764928
 20
2.6184154829
 30
0
 11
0.6591829121
 21
2.6175331934
 31
0
  0
LINE
  5
2A
100
AcDbEntity
  8
SEMA2D
100
AcDbLine
370
9
 62
0
 48
0
  6
_SOLID
 10
0.6591829121
 20
2.6175331934
 30
0
 11
0.6759348927
 21
2.6175331982
 31
0
  0
LINE
  5
2B
100
AcDbEntity
  8
SEMA2D
100
AcDbLine
370
9
 62
0
 48
0
  6
_SOLID
 10
0.6759348927
 20
2.6175331982
 30
0
 11
0.6735284734
 21
2.6184154877
 31
0
  0
LINE
  5
2C
100
AcDbEntity
  8
SEMA2D
100
AcDbLine
370
9
 62
0
 48
0
  6
_SOLID
 10
0.6735284734
 20
2.6184154877
 30
0
 11
0.6722091115
 21
2.6206637975
 31
0
  0
LINE
  5
2D
100
AcDbEntity
  8
SEMA2D
100
AcDbLine
370
9
 62
0
 48
0
  6
_SOLID
 10
0.6722091115
 20
2.6206637975
 30
0
 11
0.6722070322
 21
2.6206689248
 31
0
  0
LINE
  5
2E
100
AcDbEntity
  8
SEMA2D
100
AcDbLine
370
9
 62
0
 48
0
  6
_SOLID
 10
0.6722070322
 20
2.6206689248
 30
0
 11
0.6722122816
 21
2.6206643022
 31
0
  0
LINE
  5
2F
100
AcDbEntity
  8
SEMA2D
100
AcDbLine
370
9
 62
0
 48
0
  6
_SOLID
 10
0.6722122816
 20
2.6206643022
 30
0
 11
0.6674425418375
 21
2.638053342075
 31
0
  0
LINE
  5
30
100
AcDbEntity
  8
SEMA2D
100
AcDbLine
370
9
 62
0
 48
0
  6
_SOLID
 10
0.6674425418375
 20
2.638053342075
 30
0
 11
0.6588266163
 21
2.653664574
 31
0
  0
LINE
  5
31
100
AcDbEntity
  8
SEMA2D
100
AcDbLine
370
9
 62
0
 48
0
  6
_SOLID
 10
0.6588266163
 20
2.653664574
 30
0
 11
0.6588260911
 21
2.6536653048
 31
0
  0
LINE
  5
32
100
AcDbEntity
  8
SEMA2D
100
AcDbLine
370
9
 62
0
 48
0
  6
_SOLID
 10
0.6588260911
 20
2.6536653048
 30
0
 11
0.6476287891
 21
2.6660362866
 31
0
  0
LINE
  5
33
100
AcDbEntity
  8
SEMA2D
100
AcDbLine
370
9
 62
0
 48
0
  6
_SOLID
 10
0.6476287891
 20
2.6660362866
 30
0
 11
0.6303080782
 21
2.6773714972
 31
0
  0
LINE
  5
34
100
AcDbEntity
  8
SEMA2D
100
AcDbLine
370
9
 62
0
 48
0
  6
_SOLID
 10
0.6303080782
 20
2.6773714972
 30
0
 11
0.6156719720125
 21
2.6823495280375
 31
0
  0
LINE
  5
35
100
AcDbEntity
  8
SEMA2D
100
AcDbLine
370
9
 62
0
 48
0
  6
_SOLID
 10
0.6156719720125
 20
2.6823495280375
 30
0
 11
0.6002297164
 21
2.6840506987
 31
0
  0
LINE
  5
36
100
AcDbEntity
  8
SEMA2D
100
AcDbLine
370
9
 62
0
 48
0
  6
_SOLID
 10
0.6002297164
 20
2.6840506987
 30
0
 11
0.5976433634
 21
2.6840506987
 31
0
  0
LINE
  5
37
100
AcDbEntity
  8
SEMA2D
100
AcDbLine
370
9
 62
0
 48
0
  6
_SOLID
 10
0.5976433634
 20
2.6840506987
 30
0
 11
0.5834960414625
 21
2.6826255726875
 31
0
  0
LINE
  5
38
100
AcDbEntity
  8
SEMA2D
100
AcDbLine
370
9
 62
0
 48
0
  6
_SOLID
 10
0.5834960414625
 20
2.6826255726875
 30
0
 11
0.569987602
 21
2.6784461808
 31
0
  0
LINE
  5
39
100
AcDbEntity
  8
SEMA2D
100
AcDbLine
370
9
 62
0
 48
0
  6
_SOLID
 10
0.569987602
 20
2.6784461808
 30
0
 11
0.55967115995
 21
2.673076151275
 31
0
  0
LINE
  5
3A
100
AcDbEntity
  8
SEMA2D
100
AcDbLine
370
9
 62
0
 48
0
  6
_SOLID
 10
0.55967115995
 20
2.673076151275
 30
0
 11
0.5502442908
 21
2.6660362874
 31
0
  0
LINE
  5
3B
100
AcDbEntity
  8
SEMA2D
100
AcDbLine
370
9
 62
0
 48
0
  6
_SOLID
 10
0.5502442908
 20
2.6660362874
 30
0
 11
0.5431894875
 21
2.6589158417
 31
0
  0
LINE
  5
3C
100
AcDbEntity
  8
SEMA2D
100
AcDbLine
370
9
 62
0
 48
0
  6
_SOLID
 10
0.5431894875
 20
2.6589158417
 30
0
 11
0.5352298367875
 21
2.6477928434
 31
0
  0
LINE
  5
3D
100
AcDbEntity
  8
SEMA2D
100
AcDbLine
370
9
 62
0
 48
0
  6
_SOLID
 10
0.5352298367875
 20
2.6477928434
 30
0
 11
0.5294005706
 21
2.6353764101
 31
0
  0
LINE
  5
3E
100
AcDbEntity
  8
SEMA2D
100
AcDbLine
370
9
 62
0
 48
0
  6
_SOLID
 10
0.5294005706
 20
2.6353764101
 30
0
 11
0.5256607982
 21
2.6206643034
 31
0
  0
LINE
  5
3F
100
AcDbEntity
  8
SEMA2D
100
AcDbLine
370
9
 62
0
 48
0
  6
_SOLID
 10
0.5256607982
 20
2.6206643034
 30
0
 11
0.5256650468
 21
2.6206680446
 31
0
  0
LINE
  5
40
100
AcDbEntity
  8
SEMA2D
100
AcDbLine
370
9
 62
0
 48
0
  6
_SOLID
 10
0.5256650468
 20
2.6206680446
 30
0
 11
0.5256639683
 21
2.6206637982
 31
0
  0
LINE
  5
41
100
AcDbEntity
  8
SEMA2D
100
AcDbLine
370
9
 62
0
 48
0
  6
_SOLID
 10
0.5256639683
 20
2.6206637982
 30
0
 11
0.5255576313
 21
2.6202451282
 31
0
  0
LINE
  5
42
100
AcDbEntity
  8
SEMA2D
100
AcDbLine
370
9
 62
0
 48
0
  6
_SOLID
 10
0.5255576313
 20
2.6202451282
 30
0
 11
0.5243446064
 21
2.6184154889
 31
0
  0
LINE
  5
43
100
AcDbEntity
  8
SEMA2D
100
AcDbLine
370
9
 62
0
 48
0
  6
_SOLID
 10
0.5243446064
 20
2.6184154889
 30
0
 11
0.5219381871
 21
2.6175331994
 31
0
  0
LINE
  5
44
100
AcDbEntity
  8
SEMA2D
100
AcDbLine
370
9
 62
0
 48
0
  6
_SOLID
 10
0.5219381871
 20
2.6175331994
 30
0
 11
0.5386904715
 21
2.6175331583
 31
0
  0
LINE
  5
45
100
AcDbEntity
  8
SEMA2D
100
AcDbLine
370
9
 62
0
 48
0
  6
_SOLID
 10
0.5386904715
 20
2.6175331583
 30
0
 11
0.5410970565
 21
2.6184155869
 31
0
  0
LINE
  5
46
100
AcDbEntity
  8
SEMA2D
100
AcDbLine
370
9
 62
0
 48
0
  6
_SOLID
 10
0.5410970565
 20
2.6184155869
 30
0
 11
0.542415949
 21
2.6206637936
 31
0
  0
LINE
  5
47
100
AcDbEntity
  8
SEMA2D
100
AcDbLine
370
9
 62
0
 48
0
  6
_SOLID
 10
0.542415949
 20
2.6206637936
 30
0
 11
0.5508925475
 21
2.642882873
 31
0
  0
LINE
  5
48
100
AcDbEntity
  8
SEMA2D
100
AcDbLine
370
9
 62
0
 48
0
  6
_SOLID
 10
0.5508925475
 20
2.642882873
 30
0
 11
0.5577567797
 21
2.6515620109
 31
0
  0
LINE
  5
49
100
AcDbEntity
  8
SEMA2D
100
AcDbLine
370
9
 62
0
 48
0
  6
_SOLID
 10
0.5577567797
 20
2.6515620109
 30
0
 11
0.5740369356
 21
2.6632633543
 31
0
  0
LINE
  5
4A
100
AcDbEntity
  8
SEMA2D
100
AcDbLine
370
9
 62
0
 48
0
  6
_SOLID
 10
0.5740369356
 20
2.6632633543
 30
0
 11
0.5741855996
 21
2.6633332396
 31
0
  0
LINE
  5
4B
100
AcDbEntity
  8
SEMA2D
100
AcDbLine
370
9
 62
0
 48
0
  6
_SOLID
 10
0.5741855996
 20
2.6633332396
 30
0
 11
0.5746942111
 21
2.6637729373
 31
0
  0
LINE
  5
4C
100
AcDbEntity
  8
SEMA2D
100
AcDbLine
370
9
 62
0
 48
0
  6
_SOLID
 10
0.5746942111
 20
2.6637729373
 30
0
 11
0.5761349246
 21
2.6642001635
 31
0
  0
LINE
  5
4D
100
AcDbEntity
  8
SEMA2D
100
AcDbLine
370
9
 62
0
 48
0
  6
_SOLID
 10
0.5761349246
 20
2.6642001635
 30
0
 11
0.587676961
 21
2.6676228155
 31
0
  0
LINE
  5
4E
100
AcDbEntity
  8
SEMA2D
100
AcDbLine
370
9
 62
0
 48
0
  6
_SOLID
 10
0.587676961
 20
2.6676228155
 30
0
 11
0.6067847741
 21
2.6676542394
 31
0
  0
LINE
  5
4F
100
AcDbEntity
  8
SEMA2D
100
AcDbLine
370
9
 62
0
 48
0
  6
_SOLID
 10
0.6067847741
 20
2.6676542394
 30
0
 11
0.6068968798
 21
2.6676228153
 31
0
  0
LINE
  5
50
100
AcDbEntity
  8
SEMA2D
100
AcDbLine
370
9
 62
0
 48
0
  6
_SOLID
 10
0.6068968798
 20
2.6676228153
 30
0
 11
0.6101961189
 21
2.6676228153
 31
0
  0
LINE
  5
51
100
AcDbEntity
  8
SEMA2D
100
AcDbLine
370
9
 62
0
 48
0
  6
_SOLID
 10
0.6101961189
 20
2.6676228153
 30
0
 11
0.6238361443
 21
2.663263354
 31
0
  0
LINE
  5
52
100
AcDbEntity
  8
SEMA2D
100
AcDbLine
370
9
 62
0
 48
0
  6
_SOLID
 10
0.6238361443
 20
2.663263354
 30
0
 11
0.6401163002
 21
2.6515620102
 31
0
  0
LINE
  5
53
100
AcDbEntity
  8
SEMA2D
100
AcDbLine
370
9
 62
0
 48
0
  6
_SOLID
 10
0.6401163002
 20
2.6515620102
 30
0
 11
0.6469805323
 21
2.6428828723
 31
0
  0
LINE
  5
54
100
AcDbEntity
  8
SEMA2D
100
AcDbLine
370
9
 62
0
 48
0
  6
_SOLID
 10
0.6469805323
 20
2.6428828723
 30
0
 11
0.6529428995
 21
2.6306414536
 31
0
  0
LINE
  5
55
100
AcDbEntity
  8
SEMA2D
100
AcDbLine
370
9
 62
0
 48
0
  6
_SOLID
 10
0.6529428995
 20
2.6306414536
 30
0
 11
0.6554571309
 21
2.6206637927
 31
0
  0
LINE
  5
56
100
AcDbEntity
  8
SEMA2D
100
AcDbLine
370
9
 62
0
 48
0
  6
_SOLID
 10
0.6554571309
 20
2.6206637927
 30
0
 11
0.6567764928
 21
2.6184154829
 31
0
  0
LINE
  5
57
100
AcDbEntity
  8
SEMA2D
100
AcDbLine
370
9
 62
0
 48
0
  6
_SOLID
 10
0.6567764928
 20
2.6184154829
 30
0
 11
0.6591829121
 21
2.6175331934
 31
0
  0
LINE
  5
58
100
AcDbEntity
  8
SEMA2D
100
AcDbLine
370
9
 62
0
 48
0
  6
_SOLID
 10
0.6591829121
 20
2.6175331934
 30
0
 11
0.6759348927
 21
2.6175331982
 31
0
  0
LINE
  5
59
100
AcDbEntity
  8
SEMA2D
100
AcDbLine
370
9
 62
0
 48
0
  6
_SOLID
 10
0.6759348927
 20
2.6175331982
 30
0
 11
0.6735284734
 21
2.6184154877
 31
0
  0
LINE
  5
5A
100
AcDbEntity
  8
SEMA2D
100
AcDbLine
370
9
 62
0
 48
0
  6
_SOLID
 10
0.6735284734
 20
2.6184154877
 30
0
 11
0.6722091115
 21
2.6206637975
 31
0
  0
LINE
  5
5B
100
AcDbEntity
  8
SEMA2D
100
AcDbLine
370
9
 62
0
 48
0
  6
_SOLID
 10
0.6722091115
 20
2.6206637975
 30
0
 11
0.6722070322
 21
2.6206689248
 31
0
  0
LINE
  5
5C
100
AcDbEntity
  8
SEMA2D
100
AcDbLine
370
9
 62
0
 48
0
  6
_SOLID
 10
0.6722070322
 20
2.6206689248
 30
0
 11
0.6722122816
 21
2.6206643022
 31
0
  0
LINE
  5
5D
100
AcDbEntity
  8
SEMA2D
100
AcDbLine
370
9
 62
0
 48
0
  6
_SOLID
 10
0.6722122816
 20
2.6206643022
 30
0
 11
0.6588266163
 21
2.653664574
 31
0
  0
LINE
  5
5E
100
AcDbEntity
  8
SEMA2D
100
AcDbLine
370
9
 62
0
 48
0
  6
_SOLID
 10
0.6588266163
 20
2.653664574
 30
0
 11
0.6588260911
 21
2.6536653048
 31
0
  0
LINE
  5
5F
100
AcDbEntity
  8
SEMA2D
100
AcDbLine
370
9
 62
0
 48
0
  6
_SOLID
 10
0.6588260911
 20
2.6536653048
 30
0
 11
0.6476287891
 21
2.6660362866
 31
0
  0
LINE
  5
60
100
AcDbEntity
  8
SEMA2D
100
AcDbLine
370
9
 62
0
 48
0
  6
_SOLID
 10
0.6476287891
 20
2.6660362866
 30
0
 11
0.6303080782
 21
2.6773714972
 31
0
  0
LINE
  5
61
100
AcDbEntity
  8
SEMA2D
100
AcDbLine
370
9
 62
0
 48
0
  6
_SOLID
 10
0.6303080782
 20
2.6773714972
 30
0
 11
0.6002297164
 21
2.6840506987
 31
0
  0
LINE
  5
62
100
AcDbEntity
  8
SEMA2D
100
AcDbLine
370
9
 62
0
 48
0
  6
_SOLID
 10
0.6002297164
 20
2.6840506987
 30
0
 11
0.5976433634
 21
2.6840506987
 31
0
  0
LINE
  5
63
100
AcDbEntity
  8
SEMA2D
100
AcDbLine
370
9
 62
0
 48
0
  6
_SOLID
 10
0.5976433634
 20
2.6840506987
 30
0
 11
0.569987602
 21
2.6784461808
 31
0
  0
LINE
  5
64
100
AcDbEntity
  8
SEMA2D
100
AcDbLine
370
9
 62
0
 48
0
  6
_SOLID
 10
0.569987602
 20
2.6784461808
 30
0
 11
0.5502442908
 21
2.6660362874
 31
0
  0
LINE
  5
65
100
AcDbEntity
  8
SEMA2D
100
AcDbLine
370
9
 62
0
 48
0
  6
_SOLID
 10
0.5502442908
 20
2.6660362874
 30
0
 11
0.5431894875
 21
2.6589158417
 31
0
  0
LINE
  5
66
100
AcDbEntity
  8
SEMA2D
100
AcDbLine
370
9
 62
0
 48
0
  6
_SOLID
 10
0.5431894875
 20
2.6589158417
 30
0
 11
0.5294005706
 21
2.6353764101
 31
0
  0
LINE
  5
67
100
AcDbEntity
  8
SEMA2D
100
AcDbLine
370
9
 62
0
 48
0
  6
_SOLID
 10
0.5294005706
 20
2.6353764101
 30
0
 11
0.5256607982
 21
2.6206643034
 31
0
  0
LINE
  5
68
100
AcDbEntity
  8
SEMA2D
100
AcDbLine
370
9
 62
0
 48
0
  6
_SOLID
 10
0.5256607982
 20
2.6206643034
 30
0
 11
0.5256650468
 21
2.6206680446
 31
0
  0
LINE
  5
69
100
AcDbEntity
  8
SEMA2D
100
AcDbLine
370
9
 62
0
 48
0
  6
_SOLID
 10
0.5256650468
 20
2.6206680446
 30
0
 11
0.5256639683
 21
2.6206637982
 31
0
  0
LINE
  5
6A
100
AcDbEntity
  8
SEMA2D
100
AcDbLine
370
9
 62
0
 48
0
  6
_SOLID
 10
0.5256639683
 20
2.6206637982
 30
0
 11
0.5255576313
 21
2.6202451282
 31
0
  0
LINE
  5
6B
100
AcDbEntity
  8
SEMA2D
100
AcDbLine
370
9
 62
0
 48
0
  6
_SOLID
 10
0.5255576313
 20
2.6202451282
 30
0
 11
0.5243446064
 21
2.6184154889
 31
0
  0
LINE
  5
6C
100
AcDbEntity
  8
SEMA2D
100
AcDbLine
370
9
 62
0
 48
0
  6
_SOLID
 10
0.5243446064
 20
2.6184154889
 30
0
 11
0.5219381871
 21
2.6175331994
 31
0
  0
LINE
  5
6D
100
AcDbEntity
  8
SEMA2D
100
AcDbLine
370
9
 62
0
 48
0
  6
_SOLID
 10
0.5219381871
 20
2.6175331994
 30
0
 11
0.5386904715
 21
2.6175331583
 31
0
  0
LINE
  5
6E
100
AcDbEntity
  8
SEMA2D
100
AcDbLine
370
9
 62
0
 48
0
  6
_SOLID
 10
0.5386904715
 20
2.6175331583
 30
0
 11
0.5410970565
 21
2.6184155869
 31
0
  0
LINE
  5
6F
100
AcDbEntity
  8
SEMA2D
100
AcDbLine
370
9
 62
0
 48
0
  6
_SOLID
 10
0.5410970565
 20
2.6184155869
 30
0
 11
0.542415949
 21
2.6206637936
 31
0
  0
LINE
  5
70
100
AcDbEntity
  8
SEMA2D
100
AcDbLine
370
9
 62
0
 48
0
  6
_SOLID
 10
0.542415949
 20
2.6206637936
 30
0
 11
0.5508925475
 21
2.642882873
 31
0
  0
LINE
  5
71
100
AcDbEntity
  8
SEMA2D
100
AcDbLine
370
9
 62
0
 48
0
  6
_SOLID
 10
0.5508925475
 20
2.642882873
 30
0
 11
0.5577567797
 21
2.6515620109
 31
0
  0
LINE
  5
72
100
AcDbEntity
  8
SEMA2D
100
AcDbLine
370
9
 62
0
 48
0
  6
_SOLID
 10
0.5577567797
 20
2.6515620109
 30
0
 11
0.5740369356
 21
2.6632633543
 31
0
  0
LINE
  5
73
100
AcDbEntity
  8
SEMA2D
100
AcDbLine
370
9
 62
0
 48
0
  6
_SOLID
 10
0.5740369356
 20
2.6632633543
 30
0
 11
0.5741855996
 21
2.6633332396
 31
0
  0
LINE
  5
74
100
AcDbEntity
  8
SEMA2D
100
AcDbLine
370
9
 62
0
 48
0
  6
_SOLID
 10
0.5741855996
 20
2.6633332396
 30
0
 11
0.5746942111
 21
2.6637729373
 31
0
  0
LINE
  5
75
100
AcDbEntity
  8
SEMA2D
100
AcDbLine
370
9
 62
0
 48
0
  6
_SOLID
 10
0.5746942111
 20
2.6637729373
 30
0
 11
0.5761349246
 21
2.6642001635
 31
0
  0
LINE
  5
76
100
AcDbEntity
  8
SEMA2D
100
AcDbLine
370
9
 62
0
 48
0
  6
_SOLID
 10
0.5761349246
 20
2.6642001635
 30
0
 11
0.587676961
 21
2.6676228155
 31
0
  0
LINE
  5
77
100
AcDbEntity
  8
SEMA2D
100
AcDbLine
370
9
 62
0
 48
0
  6
_SOLID
 10
0.587676961
 20
2.6676228155
 30
0
 11
0.6067847741
 21
2.6676542394
 31
0
  0
LINE
  5
78
100
AcDbEntity
  8
SEMA2D
100
AcDbLine
370
9
 62
0
 48
0
  6
_SOLID
 10
0.6067847741
 20
2.6676542394
 30
0
 11
0.6068968798
 21
2.6676228153
 31
0
  0
LINE
  5
79
100
AcDbEntity
  8
SEMA2D
100
AcDbLine
370
9
 62
0
 48
0
  6
_SOLID
 10
0.6068968798
 20
2.6676228153
 30
0
 11
0.6101961189
 21
2.6676228153
 31
0
  0
LINE
  5
7A
100
AcDbEntity
  8
SEMA2D
100
AcDbLine
370
9
 62
0
 48
0
  6
_SOLID
 10
0.6101961189
 20
2.6676228153
 30
0
 11
0.6238361443
 21
2.663263354
 31
0
  0
LINE
  5
7B
100
AcDbEntity
  8
SEMA2D
100
AcDbLine
370
9
 62
0
 48
0
  6
_SOLID
 10
0.6238361443
 20
2.663263354
 30
0
 11
0.6401163002
 21
2.6515620102
 31
0
  0
LINE
  5
7C
100
AcDbEntity
  8
SEMA2D
100
AcDbLine
370
9
 62
0
 48
0
  6
_SOLID
 10
0.6401163002
 20
2.6515620102
 30
0
 11
0.6469805323
 21
2.6428828723
 31
0
  0
LINE
  5
7D
100
AcDbEntity
  8
SEMA2D
100
AcDbLine
370
9
 62
0
 48
0
  6
_SOLID
 10
0.6469805323
 20
2.6428828723
 30
0
 11
0.6529428995
 21
2.6306414536
 31
0
  0
LINE
  5
7E
100
AcDbEntity
  8
SEMA2D
100
AcDbLine
370
9
 62
0
 48
0
  6
_SOLID
 10
0.6529428995
 20
2.6306414536
 30
0
 11
0.6554571309
 21
2.6206637927
 31
0
  0
LINE
  5
7F
100
AcDbEntity
  8
SEMA2D
100
AcDbLine
370
9
 62
0
 48
0
  6
_SOLID
 10
0.6554571309
 20
2.6206637927
 30
0
 11
0.6567764928
 21
2.6184154829
 31
0
  0
LINE
  5
80
100
AcDbEntity
  8
SEMA2D
100
AcDbLine
370
9
 62
0
 48
0
  6
_SOLID
 10
0.6567764928
 20
2.6184154829
 30
0
 11
0.6591829121
 21
2.6175331934
 31
0
  0
LINE
  5
81
100
AcDbEntity
  8
SEMA2D
100
AcDbLine
370
9
 62
0
 48
0
  6
_SOLID
 10
0.6591829121
 20
2.6175331934
 30
0
 11
0.6759348927
 21
2.6175331982
 31
0
  0
LINE
  5
82
100
AcDbEntity
  8
SEMA2D
100
AcDbLine
370
9
 62
0
 48
0
  6
_SOLID
 10
0.6759348927
 20
2.6175331982
 30
0
 11
0.6735284734
 21
2.6184154877
 31
0
  0
LINE
  5
83
100
AcDbEntity
  8
SEMA2D
100
AcDbLine
370
9
 62
0
 48
0
  6
_SOLID
 10
0.6735284734
 20
2.6184154877
 30
0
 11
0.6722091115
 21
2.6206637975
 31
0
  0
LINE
  5
84
100
AcDbEntity
  8
SEMA2D
100
AcDbLine
370
9
 62
0
 48
0
  6
_SOLID
 10
0.6722091115
 20
2.6206637975
 30
0
 11
0.6722070322
 21
2.6206689248
 31
0
  0
LINE
  5
85
100
AcDbEntity
  8
SEMA2D
100
AcDbLine
370
9
 62
0
 48
0
  6
_SOLID
 10
0.6722070322
 20
2.6206689248
 30
0
 11
0.6722122816
 21
2.6206643022
 31
0
  0
LINE
  5
86
100
AcDbEntity
  8
SEMA2D
100
AcDbLine
370
9
 62
0
 48
0
  6
_SOLID
 10
0.6722122816
 20
2.6206643022
 30
0
 11
0.6588266163
 21
2.653664574
 31
0
  0
LINE
  5
87
100
AcDbEntity
  8
SEMA2D
100
AcDbLine
370
9
 62
0
 48
0
  6
_SOLID
 10
0.6588266163
 20
2.653664574
 30
0
 11
0.6588260911
 21
2.6536653048
 31
0
  0
LINE
  5
88
100
AcDbEntity
  8
SEMA2D
100
AcDbLine
370
9
 62
0
 48
0
  6
_SOLID
 10
0.6588260911
 20
2.6536653048
 30
0
 11
0.6476287891
 21
2.6660362866
 31
0
  0
LINE
  5
89
100
AcDbEntity
  8
SEMA2D
100
AcDbLine
370
9
 62
0
 48
0
  6
_SOLID
 10
0.6476287891
 20
2.6660362866
 30
0
 11
0.6303080782
 21
2.6773714972
 31
0
  0
LINE
  5
8A
100
AcDbEntity
  8
SEMA2D
100
AcDbLine
370
9
 62
0
 48
0
  6
_SOLID
 10
0.6303080782
 20
2.6773714972
 30
0
 11
0.6002297164
 21
2.6840506987
 31
0
  0
LINE
  5
8B
100
AcDbEntity
  8
SEMA2D
100
AcDbLine
370
9
 62
0
 48
0
  6
_SOLID
 10
0.6002297164
 20
2.6840506987
 30
0
 11
0.5976433634
 21
2.6840506987
 31
0
  0
LINE
  5
8C
100
AcDbEntity
  8
SEMA2D
100
AcDbLine
370
9
 62
0
 48
0
  6
_SOLID
 10
0.5976433634
 20
2.6840506987
 30
0
 11
0.569987602
 21
2.6784461808
 31
0
  0
LINE
  5
8D
100
AcDbEntity
  8
SEMA2D
100
AcDbLine
370
9
 62
0
 48
0
  6
_SOLID
 10
0.569987602
 20
2.6784461808
 30
0
 11
0.5502442908
 21
2.6660362874
 31
0
  0
LINE
  5
8E
100
AcDbEntity
  8
SEMA2D
100
AcDbLine
370
9
 62
0
 48
0
  6
_SOLID
 10
0.5502442908
 20
2.6660362874
 30
0
 11
0.5431894875
 21
2.6589158417
 31
0
  0
LINE
  5
8F
100
AcDbEntity
  8
SEMA2D
100
AcDbLine
370
9
 62
0
 48
0
  6
_SOLID
 10
0.5431894875
 20
2.6589158417
 30
0
 11
0.5294005706
 21
2.6353764101
 31
0
  0
LINE
  5
90
100
AcDbEntity
  8
SEMA2D
100
AcDbLine
370
9
 62
0
 48
0
  6
_SOLID
 10
0.5294005706
 20
2.6353764101
 30
0
 11
0.5256607982
 21
2.6206643034
 31
0
  0
LINE
  5
91
100
AcDbEntity
  8
SEMA2D
100
AcDbLine
370
9
 62
0
 48
0
  6
_SOLID
 10
0.5256607982
 20
2.6206643034
 30
0
 11
0.5256650468
 21
2.6206680446
 31
0
  0
LINE
  5
92
100
AcDbEntity
  8
SEMA2D
100
AcDbLine
370
9
 62
0
 48
0
  6
_SOLID
 10
0.5256650468
 20
2.6206680446
 30
0
 11
0.5256639683
 21
2.6206637982
 31
0
  0
LINE
  5
93
100
AcDbEntity
  8
SEMA2D
100
AcDbLine
370
9
 62
0
 48
0
  6
_SOLID
 10
0.5256639683
 20
2.6206637982
 30
0
 11
0.5255576313
 21
2.6202451282
 31
0
  0
LINE
  5
94
100
AcDbEntity
  8
SEMA2D
100
AcDbLine
370
9
 62
0
 48
0
  6
_SOLID
 10
0.5255576313
 20
2.6202451282
 30
0
 11
0.5243446064
 21
2.6184154889
 31
0
  0
LINE
  5
95
100
AcDbEntity
  8
SEMA2D
100
AcDbLine
370
9
 62
0
 48
0
  6
_SOLID
 10
0.5243446064
 20
2.6184154889
 30
0
 11
0.5219381871
 21
2.6175331994
 31
0
  0
LINE
  5
96
100
AcDbEntity
  8
SEMA2D
100
AcDbLine
370
9
 62
0
 48
0
  6
_SOLID
 10
0.5219381871
 20
2.6175331994
 30
0
 11
0.5386904715
 21
2.6175331583
 31
0
  0
LINE
  5
97
100
AcDbEntity
  8
SEMA2D
100
AcDbLine
370
9
 62
0
 48
0
  6
_SOLID
 10
0.5386904715
 20
2.6175331583
 30
0
 11
0.5410970565
 21
2.6184155869
 31
0
  0
LINE
  5
98
100
AcDbEntity
  8
SEMA2D
100
AcDbLine
370
9
 62
0
 48
0
  6
_SOLID
 10
0.5410970565
 20
2.6184155869
 30
0
 11
0.542415949
 21
2.6206637936
 31
0
  0
LINE
  5
99
100
AcDbEntity
  8
SEMA2D
100
AcDbLine
370
9
 62
0
 48
0
  6
_SOLID
 10
0.5967280398
 20
2.0751491676
 30
0
 11
0.584126023953125
 21
2.07624620234062
 31
0
  0
LINE
  5
9A
100
AcDbEntity
  8
SEMA2D
100
AcDbLine
370
9
 62
0
 48
0
  6
_SOLID
 10
0.584126023953125
 20
2.07624620234062
 30
0
 11
0.5720045125
 21
2.0794713507
 31
0
  0
LINE
  5
9B
100
AcDbEntity
  8
SEMA2D
100
AcDbLine
370
9
 62
0
 48
0
  6
_SOLID
 10
0.5720045125
 20
2.0794713507
 30
0
 11
0.560637555796875
 21
2.08472567888438
 31
0
  0
LINE
  5
9C
100
AcDbEntity
  8
SEMA2D
100
AcDbLine
370
9
 62
0
 48
0
  6
_SOLID
 10
0.560637555796875
 20
2.08472567888438
 30
0
 11
0.5502992042
 21
2.0919102531
 31
0
  0
LINE
  5
9D
100
AcDbEntity
  8
SEMA2D
100
AcDbLine
370
9
 62
0
 48
0
  6
_SOLID
 10
0.5502992042
 20
2.0919102531
 30
0
 11
0.541402496921875
 21
2.10076594973281
 31
0
  0
LINE
  5
9E
100
AcDbEntity
  8
SEMA2D
100
AcDbLine
370
9
 62
0
 48
0
  6
_SOLID
 10
0.541402496921875
 20
2.10076594973281
 30
0
 11
0.5342665467
 21
2.1109392548125
 31
0
  0
LINE
  5
9F
100
AcDbEntity
  8
SEMA2D
100
AcDbLine
370
9
 62
0
 48
0
  6
_SOLID
 10
0.5342665467
 20
2.1109392548125
 30
0
 11
0.529035502278125
 21
2.12218048543594
 31
0
  0
LINE
  5
A0
100
AcDbEntity
  8
SEMA2D
100
AcDbLine
370
9
 62
0
 48
0
  6
_SOLID
 10
0.529035502278125
 20
2.12218048543594
 30
0
 11
0.5258535124
 21
2.1342399587
 31
0
  0
LINE
  5
A1
100
AcDbEntity
  8
SEMA2D
100
AcDbLine
370
9
 62
0
 48
0
  6
_SOLID
 10
0.5258535124
 20
2.1342399587
 30
0
 11
0.5258450478
 21
2.1342586102
 31
0
  0
LINE
  5
A2
100
AcDbEntity
  8
SEMA2D
100
AcDbLine
370
9
 62
0
 48
0
  6
_SOLID
 10
0.5258450478
 20
2.1342586102
 30
0
 11
0.5258450478
 21
2.1371494555
 31
0
  0
LINE
  5
A3
100
AcDbEntity
  8
SEMA2D
100
AcDbLine
370
9
 62
0
 48
0
  6
_SOLID
 10
0.5258450478
 20
2.1371494555
 30
0
 11
0.5271805346
 21
2.1371494555
 31
0
  0
LINE
  5
A4
100
AcDbEntity
  8
SEMA2D
100
AcDbLine
370
9
 62
0
 48
0
  6
_SOLID
 10
0.5271805346
 20
2.1371494555
 30
0
 11
0.5271805346
 21
2.1384522801
 31
0
  0
LINE
  5
A5
100
AcDbEntity
  8
SEMA2D
100
AcDbLine
370
9
 62
0
 48
0
  6
_SOLID
 10
0.5271805346
 20
2.1384522801
 30
0
 11
0.5273965751
 21
2.1392467083
 31
0
  0
LINE
  5
A6
100
AcDbEntity
  8
SEMA2D
100
AcDbLine
370
9
 62
0
 48
0
  6
_SOLID
 10
0.5273965751
 20
2.1392467083
 30
0
 11
0.5279868085
 21
2.1398282701
 31
0
  0
LINE
  5
A7
100
AcDbEntity
  8
SEMA2D
100
AcDbLine
370
9
 62
0
 48
0
  6
_SOLID
 10
0.5279868085
 20
2.1398282701
 30
0
 11
0.5287930824
 21
2.1400411793
 31
0
  0
LINE
  5
A8
100
AcDbEntity
  8
SEMA2D
100
AcDbLine
370
9
 62
0
 48
0
  6
_SOLID
 10
0.5287930824
 20
2.1400411793
 30
0
 11
0.5115192137
 21
2.1400411745
 31
0
  0
LINE
  5
A9
100
AcDbEntity
  8
SEMA2D
100
AcDbLine
370
9
 62
0
 48
0
  6
_SOLID
 10
0.5115192137
 20
2.1400411745
 30
0
 11
0.5105245857
 21
2.1397029321
 31
0
  0
LINE
  5
AA
100
AcDbEntity
  8
SEMA2D
100
AcDbLine
370
9
 62
0
 48
0
  6
_SOLID
 10
0.5105245857
 20
2.1397029321
 30
0
 11
0.5099534389
 21
2.1388322176
 31
0
  0
LINE
  5
AB
100
AcDbEntity
  8
SEMA2D
100
AcDbLine
370
9
 62
0
 48
0
  6
_SOLID
 10
0.5099534389
 20
2.1388322176
 30
0
 11
0.5095332079
 21
2.1371507332
 31
0
  0
LINE
  5
AC
100
AcDbEntity
  8
SEMA2D
100
AcDbLine
370
9
 62
0
 48
0
  6
_SOLID
 10
0.5095332079
 20
2.1371507332
 30
0
 11
0.5081407591
 21
2.1371494555
 31
0
  0
LINE
  5
AD
100
AcDbEntity
  8
SEMA2D
100
AcDbLine
370
9
 62
0
 48
0
  6
_SOLID
 10
0.5081407591
 20
2.1371494555
 30
0
 11
0.5081407591
 21
2.1342577369
 31
0
  0
LINE
  5
AE
100
AcDbEntity
  8
SEMA2D
100
AcDbLine
370
9
 62
0
 48
0
  6
_SOLID
 10
0.5081407591
 20
2.1342577369
 30
0
 11
0.5089365503
 21
2.1342558467
 31
0
  0
LINE
  5
AF
100
AcDbEntity
  8
SEMA2D
100
AcDbLine
370
9
 62
0
 48
0
  6
_SOLID
 10
0.5089365503
 20
2.1342558467
 30
0
 11
0.512928431423437
 21
2.11896367226406
 31
0
  0
LINE
  5
B0
100
AcDbEntity
  8
SEMA2D
100
AcDbLine
370
9
 62
0
 48
0
  6
_SOLID
 10
0.512928431423437
 20
2.11896367226406
 30
0
 11
0.5195520222625
 21
2.1047198313375
 31
0
  0
LINE
  5
B1
100
AcDbEntity
  8
SEMA2D
100
AcDbLine
370
9
 62
0
 48
0
  6
_SOLID
 10
0.5195520222625
 20
2.1047198313375
 30
0
 11
0.528619454295312
 21
2.09184896814219
 31
0
  0
LINE
  5
B2
100
AcDbEntity
  8
SEMA2D
100
AcDbLine
370
9
 62
0
 48
0
  6
_SOLID
 10
0.528619454295312
 20
2.09184896814219
 30
0
 11
0.539942859
 21
2.0806757269
 31
0
  0
LINE
  5
B3
100
AcDbEntity
  8
SEMA2D
100
AcDbLine
370
9
 62
0
 48
0
  6
_SOLID
 10
0.539942859
 20
2.0806757269
 30
0
 11
0.5521241370875
 21
2.0722178108875
 31
0
  0
LINE
  5
B4
100
AcDbEntity
  8
SEMA2D
100
AcDbLine
370
9
 62
0
 48
0
  6
_SOLID
 10
0.5521241370875
 20
2.0722178108875
 30
0
 11
0.565448875
 21
2.0659005196
 31
0
  0
LINE
  5
B5
100
AcDbEntity
  8
SEMA2D
100
AcDbLine
370
9
 62
0
 48
0
  6
_SOLID
 10
0.565448875
 20
2.0659005196
 30
0
 11
0.58184217695
 21
2.0614072133875
 31
0
  0
LINE
  5
B6
100
AcDbEntity
  8
SEMA2D
100
AcDbLine
370
9
 62
0
 48
0
  6
_SOLID
 10
0.58184217695
 20
2.0614072133875
 30
0
 11
0.5989334994
 21
2.060041186
 31
0
  0
LINE
  5
B7
100
AcDbEntity
  8
SEMA2D
100
AcDbLine
370
9
 62
0
 48
0
  6
_SOLID
 10
0.5989334994
 20
2.060041186
 30
0
 11
0.610967589084375
 21
2.06064915225781
 31
0
  0
LINE
  5
B8
100
AcDbEntity
  8
SEMA2D
100
AcDbLine
370
9
 62
0
 48
0
  6
_SOLID
 10
0.610967589084375
 20
2.06064915225781
 30
0
 11
0.622724409975
 21
2.0628187340625
 31
0
  0
LINE
  5
B9
100
AcDbEntity
  8
SEMA2D
100
AcDbLine
370
9
 62
0
 48
0
  6
_SOLID
 10
0.622724409975
 20
2.0628187340625
 30
0
 11
0.634052428003125
 21
2.06649704191094
 31
0
  0
LINE
  5
BA
100
AcDbEntity
  8
SEMA2D
100
AcDbLine
370
9
 62
0
 48
0
  6
_SOLID
 10
0.634052428003125
 20
2.06649704191094
 30
0
 11
0.6448001091
 21
2.0716311863
 31
0
  0
LINE
  5
BB
100
AcDbEntity
  8
SEMA2D
100
AcDbLine
370
9
 62
0
 48
0
  6
_SOLID
 10
0.6448001091
 20
2.0716311863
 30
0
 11
0.6579553769
 21
2.0806414245
 31
0
  0
LINE
  5
BC
100
AcDbEntity
  8
SEMA2D
100
AcDbLine
370
9
 62
0
 48
0
  6
_SOLID
 10
0.6579553769
 20
2.0806414245
 30
0
 11
0.6709739441
 21
2.093882151
 31
0
  0
LINE
  5
BD
100
AcDbEntity
  8
SEMA2D
100
AcDbLine
370
9
 62
0
 48
0
  6
_SOLID
 10
0.6709739441
 20
2.093882151
 30
0
 11
0.6825206603375
 21
2.112882635575
 31
0
  0
LINE
  5
BE
100
AcDbEntity
  8
SEMA2D
100
AcDbLine
370
9
 62
0
 48
0
  6
_SOLID
 10
0.6825206603375
 20
2.112882635575
 30
0
 11
0.6889365503
 21
2.1342558467
 31
0
  0
LINE
  5
BF
100
AcDbEntity
  8
SEMA2D
100
AcDbLine
370
9
 62
0
 48
0
  6
_SOLID
 10
0.6889365503
 20
2.1342558467
 30
0
 11
0.6897323415
 21
2.1342577369
 31
0
  0
LINE
  5
C0
100
AcDbEntity
  8
SEMA2D
100
AcDbLine
370
9
 62
0
 48
0
  6
_SOLID
 10
0.6897323415
 20
2.1342577369
 30
0
 11
0.6897323415
 21
2.1371494555
 31
0
  0
LINE
  5
C1
100
AcDbEntity
  8
SEMA2D
100
AcDbLine
370
9
 62
0
 48
0
  6
_SOLID
 10
0.6897323415
 20
2.1371494555
 30
0
 11
0.6883398928
 21
2.1371507332
 31
0
  0
LINE
  5
C2
100
AcDbEntity
  8
SEMA2D
100
AcDbLine
370
9
 62
0
 48
0
  6
_SOLID
 10
0.6883398928
 20
2.1371507332
 30
0
 11
0.6879196618
 21
2.1388322176
 31
0
  0
LINE
  5
C3
100
AcDbEntity
  8
SEMA2D
100
AcDbLine
370
9
 62
0
 48
0
  6
_SOLID
 10
0.6879196618
 20
2.1388322176
 30
0
 11
0.6873485151
 21
2.1397029321
 31
0
  0
LINE
  5
C4
100
AcDbEntity
  8
SEMA2D
100
AcDbLine
370
9
 62
0
 48
0
  6
_SOLID
 10
0.6873485151
 20
2.1397029321
 30
0
 11
0.68635393
 21
2.1400411414
 31
0
  0
LINE
  5
C5
100
AcDbEntity
  8
SEMA2D
100
AcDbLine
370
9
 62
0
 48
0
  6
_SOLID
 10
0.68635393
 20
2.1400411414
 30
0
 11
0.6690901911
 21
2.1400411365
 31
0
  0
LINE
  5
C6
100
AcDbEntity
  8
SEMA2D
100
AcDbLine
370
9
 62
0
 48
0
  6
_SOLID
 10
0.6690901911
 20
2.1400411365
 30
0
 11
0.669896465
 21
2.1398282701
 31
0
  0
LINE
  5
C7
100
AcDbEntity
  8
SEMA2D
100
AcDbLine
370
9
 62
0
 48
0
  6
_SOLID
 10
0.669896465
 20
2.1398282701
 30
0
 11
0.6704866984
 21
2.1392467083
 31
0
  0
LINE
  5
C8
100
AcDbEntity
  8
SEMA2D
100
AcDbLine
370
9
 62
0
 48
0
  6
_SOLID
 10
0.6704866984
 20
2.1392467083
 30
0
 11
0.6707027389
 21
2.1384522801
 31
0
  0
LINE
  5
C9
100
AcDbEntity
  8
SEMA2D
100
AcDbLine
370
9
 62
0
 48
0
  6
_SOLID
 10
0.6707027389
 20
2.1384522801
 30
0
 11
0.6707027389
 21
2.1371494555
 31
0
  0
LINE
  5
CA
100
AcDbEntity
  8
SEMA2D
100
AcDbLine
370
9
 62
0
 48
0
  6
_SOLID
 10
0.6707027389
 20
2.1371494555
 30
0
 11
0.6720227624
 21
2.1371494555
 31
0
  0
LINE
  5
CB
100
AcDbEntity
  8
SEMA2D
100
AcDbLine
370
9
 62
0
 48
0
  6
_SOLID
 10
0.6720227624
 20
2.1371494555
 30
0
 11
0.6720227624
 21
2.1342586102
 31
0
  0
LINE
  5
CC
100
AcDbEntity
  8
SEMA2D
100
AcDbLine
370
9
 62
0
 48
0
  6
_SOLID
 10
0.6720227624
 20
2.1342586102
 30
0
 11
0.668842375171875
 21
2.12219369091094
 31
0
  0
LINE
  5
CD
100
AcDbEntity
  8
SEMA2D
100
AcDbLine
370
9
 62
0
 48
0
  6
_SOLID
 10
0.668842375171875
 20
2.12219369091094
 30
0
 11
0.663611227375
 21
2.1109473483125
 31
0
  0
LINE
  5
CE
100
AcDbEntity
  8
SEMA2D
100
AcDbLine
370
9
 62
0
 48
0
  6
_SOLID
 10
0.663611227375
 20
2.1109473483125
 30
0
 11
0.656473630615625
 21
2.10076954738281
 31
0
  0
LINE
  5
CF
100
AcDbEntity
  8
SEMA2D
100
AcDbLine
370
9
 62
0
 48
0
  6
_SOLID
 10
0.656473630615625
 20
2.10076954738281
 30
0
 11
0.6475738965
 21
2.0919102531
 31
0
  0
LINE
  5
D0
100
AcDbEntity
  8
SEMA2D
100
AcDbLine
370
9
 62
0
 48
0
  6
_SOLID
 10
0.6475738965
 20
2.0919102531
 30
0
 11
0.637235544903125
 21
2.08472567888438
 31
0
  0
LINE
  5
D1
100
AcDbEntity
  8
SEMA2D
100
AcDbLine
370
9
 62
0
 48
0
  6
_SOLID
 10
0.637235544903125
 20
2.08472567888438
 30
0
 11
0.6258685882
 21
2.0794713507
 31
0
  0
LINE
  5
D2
100
AcDbEntity
  8
SEMA2D
100
AcDbLine
370
9
 62
0
 48
0
  6
_SOLID
 10
0.6258685882
 20
2.0794713507
 30
0
 11
0.613747076746875
 21
2.07624620234062
 31
0
  0
LINE
  5
D3
100
AcDbEntity
  8
SEMA2D
100
AcDbLine
370
9
 62
0
 48
0
  6
_SOLID
 10
0.613747076746875
 20
2.07624620234062
 30
0
 11
0.6011450609
 21
2.0751491676
 31
0
  0
LINE
  5
D4
100
AcDbEntity
  8
SEMA2D
100
AcDbLine
370
9
 62
0
 48
0
  6
_SOLID
 10
0.6011450609
 20
2.0751491676
 30
0
 11
0.5967280398
 21
2.0751491676
 31
0
  0
LINE
  5
D5
100
AcDbEntity
  8
SEMA2D
100
AcDbLine
370
9
 62
0
 48
0
  6
_SOLID
 10
0.5967280398
 20
2.0751491676
 30
0
 11
0.5502992042
 21
2.0919102531
 31
0
  0
LINE
  5
D6
100
AcDbEntity
  8
SEMA2D
100
AcDbLine
370
9
 62
0
 48
0
  6
_SOLID
 10
0.5502992042
 20
2.0919102531
 30
0
 11
0.5258535124
 21
2.1342399587
 31
0
  0
LINE
  5
D7
100
AcDbEntity
  8
SEMA2D
100
AcDbLine
370
9
 62
0
 48
0
  6
_SOLID
 10
0.5258535124
 20
2.1342399587
 30
0
 11
0.5258450478
 21
2.1342586102
 31
0
  0
LINE
  5
D8
100
AcDbEntity
  8
SEMA2D
100
AcDbLine
370
9
 62
0
 48
0
  6
_SOLID
 10
0.5258450478
 20
2.1342586102
 30
0
 11
0.5258450478
 21
2.1371494555
 31
0
  0
LINE
  5
D9
100
AcDbEntity
  8
SEMA2D
100
AcDbLine
370
9
 62
0
 48
0
  6
_SOLID
 10
0.5258450478
 20
2.1371494555
 30
0
 11
0.5271805346
 21
2.1371494555
 31
0
  0
LINE
  5
DA
100
AcDbEntity
  8
SEMA2D
100
AcDbLine
370
9
 62
0
 48
0
  6
_SOLID
 10
0.5271805346
 20
2.1371494555
 30
0
 11
0.5271805346
 21
2.1384522801
 31
0
  0
LINE
  5
DB
100
AcDbEntity
  8
SEMA2D
100
AcDbLine
370
9
 62
0
 48
0
  6
_SOLID
 10
0.5271805346
 20
2.1384522801
 30
0
 11
0.5273965751
 21
2.1392467083
 31
0
  0
LINE
  5
DC
100
AcDbEntity
  8
SEMA2D
100
AcDbLine
370
9
 62
0
 48
0
  6
_SOLID
 10
0.5273965751
 20
2.1392467083
 30
0
 11
0.5279868085
 21
2.1398282701
 31
0
  0
LINE
  5
DD
100
AcDbEntity
  8
SEMA2D
100
AcDbLine
370
9
 62
0
 48
0
  6
_SOLID
 10
0.5279868085
 20
2.1398282701
 30
0
 11
0.5287930824
 21
2.1400411793
 31
0
  0
LINE
  5
DE
100
AcDbEntity
  8
SEMA2D
100
AcDbLine
370
9
 62
0
 48
0
  6
_SOLID
 10
0.5287930824
 20
2.1400411793
 30
0
 11
0.5115192137
 21
2.1400411745
 31
0
  0
LINE
  5
DF
100
AcDbEntity
  8
SEMA2D
100
AcDbLine
370
9
 62
0
 48
0
  6
_SOLID
 10
0.5115192137
 20
2.1400411745
 30
0
 11
0.5105245857
 21
2.1397029321
 31
0
  0
LINE
  5
E0
100
AcDbEntity
  8
SEMA2D
100
AcDbLine
370
9
 62
0
 48
0
  6
_SOLID
 10
0.5105245857
 20
2.1397029321
 30
0
 11
0.5099534389
 21
2.1388322176
 31
0
  0
LINE
  5
E1
100
AcDbEntity
  8
SEMA2D
100
AcDbLine
370
9
 62
0
 48
0
  6
_SOLID
 10
0.5099534389
 20
2.1388322176
 30
0
 11
0.5095332079
 21
2.1371507332
 31
0
  0
LINE
  5
E2
100
AcDbEntity
  8
SEMA2D
100
AcDbLine
370
9
 62
0
 48
0
  6
_SOLID
 10
0.5095332079
 20
2.1371507332
 30
0
 11
0.5081407591
 21
2.1371494555
 31
0
  0
LINE
  5
E3
100
AcDbEntity
  8
SEMA2D
100
AcDbLine
370
9
 62
0
 48
0
  6
_SOLID
 10
0.5081407591
 20
2.1371494555
 30
0
 11
0.5081407591
 21
2.1342577369
 31
0
  0
LINE
  5
E4
100
AcDbEntity
  8
SEMA2D
100
AcDbLine
370
9
 62
0
 48
0
  6
_SOLID
 10
0.5081407591
 20
2.1342577369
 30
0
 11
0.5089365503
 21
2.1342558467
 31
0
  0
LINE
  5
E5
100
AcDbEntity
  8
SEMA2D
100
AcDbLine
370
9
 62
0
 48
0
  6
_SOLID
 10
0.5089365503
 20
2.1342558467
 30
0
 11
0.539942859
 21
2.0806757269
 31
0
  0
LINE
  5
E6
100
AcDbEntity
  8
SEMA2D
100
AcDbLine
370
9
 62
0
 48
0
  6
_SOLID
 10
0.539942859
 20
2.0806757269
 30
0
 11
0.565448875
 21
2.0659005196
 31
0
  0
LINE
  5
E7
100
AcDbEntity
  8
SEMA2D
100
AcDbLine
370
9
 62
0
 48
0
  6
_SOLID
 10
0.565448875
 20
2.0659005196
 30
0
 11
0.5989334994
 21
2.060041186
 31
0
  0
LINE
  5
E8
100
AcDbEntity
  8
SEMA2D
100
AcDbLine
370
9
 62
0
 48
0
  6
_SOLID
 10
0.5989334994
 20
2.060041186
 30
0
 11
0.6448001091
 21
2.0716311863
 31
0
  0
LINE
  5
E9
100
AcDbEntity
  8
SEMA2D
100
AcDbLine
370
9
 62
0
 48
0
  6
_SOLID
 10
0.6448001091
 20
2.0716311863
 30
0
 11
0.6579553769
 21
2.0806414245
 31
0
  0
LINE
  5
EA
100
AcDbEntity
  8
SEMA2D
100
AcDbLine
370
9
 62
0
 48
0
  6
_SOLID
 10
0.6579553769
 20
2.0806414245
 30
0
 11
0.6709739441
 21
2.093882151
 31
0
  0
LINE
  5
EB
100
AcDbEntity
  8
SEMA2D
100
AcDbLine
370
9
 62
0
 48
0
  6
_SOLID
 10
0.6709739441
 20
2.093882151
 30
0
 11
0.6889365503
 21
2.1342558467
 31
0
  0
LINE
  5
EC
100
AcDbEntity
  8
SEMA2D
100
AcDbLine
370
9
 62
0
 48
0
  6
_SOLID
 10
0.6889365503
 20
2.1342558467
 30
0
 11
0.6897323415
 21
2.1342577369
 31
0
  0
LINE
  5
ED
100
AcDbEntity
  8
SEMA2D
100
AcDbLine
370
9
 62
0
 48
0
  6
_SOLID
 10
0.6897323415
 20
2.1342577369
 30
0
 11
0.6897323415
 21
2.1371494555
 31
0
  0
LINE
  5
EE
100
AcDbEntity
  8
SEMA2D
100
AcDbLine
370
9
 62
0
 48
0
  6
_SOLID
 10
0.6897323415
 20
2.1371494555
 30
0
 11
0.6883398928
 21
2.1371507332
 31
0
  0
LINE
  5
EF
100
AcDbEntity
  8
SEMA2D
100
AcDbLine
370
9
 62
0
 48
0
  6
_SOLID
 10
0.6883398928
 20
2.1371507332
 30
0
 11
0.6879196618
 21
2.1388322176
 31
0
  0
LINE
  5
F0
100
AcDbEntity
  8
SEMA2D
100
AcDbLine
370
9
 62
0
 48
0
  6
_SOLID
 10
0.6879196618
 20
2.1388322176
 30
0
 11
0.6873485151
 21
2.1397029321
 31
0
  0
LINE
  5
F1
100
AcDbEntity
  8
SEMA2D
100
AcDbLine
370
9
 62
0
 48
0
  6
_SOLID
 10
0.6873485151
 20
2.1397029321
 30
0
 11
0.68635393
 21
2.1400411414
 31
0
  0
LINE
  5
F2
100
AcDbEntity
  8
SEMA2D
100
AcDbLine
370
9
 62
0
 48
0
  6
_SOLID
 10
0.68635393
 20
2.1400411414
 30
0
 11
0.6690901911
 21
2.1400411365
 31
0
  0
LINE
  5
F3
100
AcDbEntity
  8
SEMA2D
100
AcDbLine
370
9
 62
0
 48
0
  6
_SOLID
 10
0.6690901911
 20
2.1400411365
 30
0
 11
0.669896465
 21
2.1398282701
 31
0
  0
LINE
  5
F4
100
AcDbEntity
  8
SEMA2D
100
AcDbLine
370
9
 62
0
 48
0
  6
_SOLID
 10
0.669896465
 20
2.1398282701
 30
0
 11
0.6704866984
 21
2.1392467083
 31
0
  0
LINE
  5
F5
100
AcDbEntity
  8
SEMA2D
100
AcDbLine
370
9
 62
0
 48
0
  6
_SOLID
 10
0.6704866984
 20
2.1392467083
 30
0
 11
0.6707027389
 21
2.1384522801
 31
0
  0
LINE
  5
F6
100
AcDbEntity
  8
SEMA2D
100
AcDbLine
370
9
 62
0
 48
0
  6
_SOLID
 10
0.6707027389
 20
2.1384522801
 30
0
 11
0.6707027389
 21
2.1371494555
 31
0
  0
LINE
  5
F7
100
AcDbEntity
  8
SEMA2D
100
AcDbLine
370
9
 62
0
 48
0
  6
_SOLID
 10
0.6707027389
 20
2.1371494555
 30
0
 11
0.6720227624
 21
2.1371494555
 31
0
  0
LINE
  5
F8
100
AcDbEntity
  8
SEMA2D
100
AcDbLine
370
9
 62
0
 48
0
  6
_SOLID
 10
0.6720227624
 20
2.1371494555
 30
0
 11
0.6720227624
 21
2.1342586102
 31
0
  0
LINE
  5
F9
100
AcDbEntity
  8
SEMA2D
100
AcDbLine
370
9
 62
0
 48
0
  6
_SOLID
 10
0.6720227624
 20
2.1342586102
 30
0
 11
0.6475738965
 21
2.0919102531
 31
0
  0
LINE
  5
FA
100
AcDbEntity
  8
SEMA2D
100
AcDbLine
370
9
 62
0
 48
0
  6
_SOLID
 10
0.6475738965
 20
2.0919102531
 30
0
 11
0.6011450609
 21
2.0751491676
 31
0
  0
LINE
  5
FB
100
AcDbEntity
  8
SEMA2D
100
AcDbLine
370
9
 62
0
 48
0
  6
_SOLID
 10
0.6011450609
 20
2.0751491676
 30
0
 11
0.5967280398
 21
2.0751491676
 31
0
  0
LINE
  5
FC
100
AcDbEntity
  8
SEMA2D
100
AcDbLine
370
9
 62
0
 48
0
  6
_SOLID
 10
0.5967280398
 20
2.0751491676
 30
0
 11
0.5502992042
 21
2.0919102531
 31
0
  0
LINE
  5
FD
100
AcDbEntity
  8
SEMA2D
100
AcDbLine
370
9
 62
0
 48
0
  6
_SOLID
 10
0.5502992042
 20
2.0919102531
 30
0
 11
0.5258535124
 21
2.1342399587
 31
0
  0
LINE
  5
FE
100
AcDbEntity
  8
SEMA2D
100
AcDbLine
370
9
 62
0
 48
0
  6
_SOLID
 10
0.5258535124
 20
2.1342399587
 30
0
 11
0.5258450478
 21
2.1342586102
 31
0
  0
LINE
  5
FF
100
AcDbEntity
  8
SEMA2D
100
AcDbLine
370
9
 62
0
 48
0
  6
_SOLID
 10
0.5258450478
 20
2.1342586102
 30
0
 11
0.5258450478
 21
2.1371494555
 31
0
  0
LINE
  5
100
100
AcDbEntity
  8
SEMA2D
100
AcDbLine
370
9
 62
0
 48
0
  6
_SOLID
 10
0.5258450478
 20
2.1371494555
 30
0
 11
0.5271805346
 21
2.1371494555
 31
0
  0
LINE
  5
101
100
AcDbEntity
  8
SEMA2D
100
AcDbLine
370
9
 62
0
 48
0
  6
_SOLID
 10
0.5271805346
 20
2.1371494555
 30
0
 11
0.5271805346
 21
2.1384522801
 31
0
  0
LINE
  5
102
100
AcDbEntity
  8
SEMA2D
100
AcDbLine
370
9
 62
0
 48
0
  6
_SOLID
 10
0.5271805346
 20
2.1384522801
 30
0
 11
0.5273965751
 21
2.1392467083
 31
0
  0
LINE
  5
103
100
AcDbEntity
  8
SEMA2D
100
AcDbLine
370
9
 62
0
 48
0
  6
_SOLID
 10
0.5273965751
 20
2.1392467083
 30
0
 11
0.5279868085
 21
2.1398282701
 31
0
  0
LINE
  5
104
100
AcDbEntity
  8
SEMA2D
100
AcDbLine
370
9
 62
0
 48
0
  6
_SOLID
 10
0.5279868085
 20
2.1398282701
 30
0
 11
0.5287930824
 21
2.1400411793
 31
0
  0
LINE
  5
105
100
AcDbEntity
  8
SEMA2D
100
AcDbLine
370
9
 62
0
 48
0
  6
_SOLID
 10
0.5287930824
 20
2.1400411793
 30
0
 11
0.5115192137
 21
2.1400411745
 31
0
  0
LINE
  5
106
100
AcDbEntity
  8
SEMA2D
100
AcDbLine
370
9
 62
0
 48
0
  6
_SOLID
 10
0.5115192137
 20
2.1400411745
 30
0
 11
0.5105245857
 21
2.1397029321
 31
0
  0
LINE
  5
107
100
AcDbEntity
  8
SEMA2D
100
AcDbLine
370
9
 62
0
 48
0
  6
_SOLID
 10
0.5105245857
 20
2.1397029321
 30
0
 11
0.5099534389
 21
2.1388322176
 31
0
  0
LINE
  5
108
100
AcDbEntity
  8
SEMA2D
100
AcDbLine
370
9
 62
0
 48
0
  6
_SOLID
 10
0.5099534389
 20
2.1388322176
 30
0
 11
0.5095332079
 21
2.1371507332
 31
0
  0
LINE
  5
109
100
AcDbEntity
  8
SEMA2D
100
AcDbLine
370
9
 62
0
 48
0
  6
_SOLID
 10
0.5095332079
 20
2.1371507332
 30
0
 11
0.5081407591
 21
2.1371494555
 31
0
  0
LINE
  5
10A
100
AcDbEntity
  8
SEMA2D
100
AcDbLine
370
9
 62
0
 48
0
  6
_SOLID
 10
0.5081407591
 20
2.1371494555
 30
0
 11
0.5081407591
 21
2.1342577369
 31
0
  0
LINE
  5
10B
100
AcDbEntity
  8
SEMA2D
100
AcDbLine
370
9
 62
0
 48
0
  6
_SOLID
 10
0.5081407591
 20
2.1342577369
 30
0
 11
0.5089365503
 21
2.1342558467
 31
0
  0
LINE
  5
10C
100
AcDbEntity
  8
SEMA2D
100
AcDbLine
370
9
 62
0
 48
0
  6
_SOLID
 10
0.5089365503
 20
2.1342558467
 30
0
 11
0.539942859
 21
2.0806757269
 31
0
  0
LINE
  5
10D
100
AcDbEntity
  8
SEMA2D
100
AcDbLine
370
9
 62
0
 48
0
  6
_SOLID
 10
0.539942859
 20
2.0806757269
 30
0
 11
0.565448875
 21
2.0659005196
 31
0
  0
LINE
  5
10E
100
AcDbEntity
  8
SEMA2D
100
AcDbLine
370
9
 62
0
 48
0
  6
_SOLID
 10
0.565448875
 20
2.0659005196
 30
0
 11
0.5989334994
 21
2.060041186
 31
0
  0
LINE
  5
10F
100
AcDbEntity
  8
SEMA2D
100
AcDbLine
370
9
 62
0
 48
0
  6
_SOLID
 10
0.5989334994
 20
2.060041186
 30
0
 11
0.6448001091
 21
2.0716311863
 31
0
  0
LINE
  5
110
100
AcDbEntity
  8
SEMA2D
100
AcDbLine
370
9
 62
0
 48
0
  6
_SOLID
 10
0.6448001091
 20
2.0716311863
 30
0
 11
0.6579553769
 21
2.0806414245
 31
0
  0
LINE
  5
111
100
AcDbEntity
  8
SEMA2D
100
AcDbLine
370
9
 62
0
 48
0
  6
_SOLID
 10
0.6579553769
 20
2.0806414245
 30
0
 11
0.6709739441
 21
2.093882151
 31
0
  0
LINE
  5
112
100
AcDbEntity
  8
SEMA2D
100
AcDbLine
370
9
 62
0
 48
0
  6
_SOLID
 10
0.6709739441
 20
2.093882151
 30
0
 11
0.6889365503
 21
2.1342558467
 31
0
  0
LINE
  5
113
100
AcDbEntity
  8
SEMA2D
100
AcDbLine
370
9
 62
0
 48
0
  6
_SOLID
 10
0.6889365503
 20
2.1342558467
 30
0
 11
0.6897323415
 21
2.1342577369
 31
0
  0
LINE
  5
114
100
AcDbEntity
  8
SEMA2D
100
AcDbLine
370
9
 62
0
 48
0
  6
_SOLID
 10
0.6897323415
 20
2.1342577369
 30
0
 11
0.6897323415
 21
2.1371494555
 31
0
  0
LINE
  5
115
100
AcDbEntity
  8
SEMA2D
100
AcDbLine
370
9
 62
0
 48
0
  6
_SOLID
 10
0.6897323415
 20
2.1371494555
 30
0
 11
0.6883398928
 21
2.1371507332
 31
0
  0
LINE
  5
116
100
AcDbEntity
  8
SEMA2D
100
AcDbLine
370
9
 62
0
 48
0
  6
_SOLID
 10
0.6883398928
 20
2.1371507332
 30
0
 11
0.6879196618
 21
2.1388322176
 31
0
  0
LINE
  5
117
100
AcDbEntity
  8
SEMA2D
100
AcDbLine
370
9
 62
0
 48
0
  6
_SOLID
 10
0.6879196618
 20
2.1388322176
 30
0
 11
0.6873485151
 21
2.1397029321
 31
0
  0
LINE
  5
118
100
AcDbEntity
  8
SEMA2D
100
AcDbLine
370
9
 62
0
 48
0
  6
_SOLID
 10
0.6873485151
 20
2.1397029321
 30
0
 11
0.68635393
 21
2.1400411414
 31
0
  0
LINE
  5
119
100
AcDbEntity
  8
SEMA2D
100
AcDbLine
370
9
 62
0
 48
0
  6
_SOLID
 10
0.68635393
 20
2.1400411414
 30
0
 11
0.6690901911
 21
2.1400411365
 31
0
  0
LINE
  5
11A
100
AcDbEntity
  8
SEMA2D
100
AcDbLine
370
9
 62
0
 48
0
  6
_SOLID
 10
0.6690901911
 20
2.1400411365
 30
0
 11
0.669896465
 21
2.1398282701
 31
0
  0
LINE
  5
11B
100
AcDbEntity
  8
SEMA2D
100
AcDbLine
370
9
 62
0
 48
0
  6
_SOLID
 10
0.669896465
 20
2.1398282701
 30
0
 11
0.6704866984
 21
2.1392467083
 31
0
  0
LINE
  5
11C
100
AcDbEntity
  8
SEMA2D
100
AcDbLine
370
9
 62
0
 48
0
  6
_SOLID
 10
0.6704866984
 20
2.1392467083
 30
0
 11
0.6707027389
 21
2.1384522801
 31
0
  0
LINE
  5
11D
100
AcDbEntity
  8
SEMA2D
100
AcDbLine
370
9
 62
0
 48
0
  6
_SOLID
 10
0.6707027389
 20
2.1384522801
 30
0
 11
0.6707027389
 21
2.1371494555
 31
0
  0
LINE
  5
11E
100
AcDbEntity
  8
SEMA2D
100
AcDbLine
370
9
 62
0
 48
0
  6
_SOLID
 10
0.6707027389
 20
2.1371494555
 30
0
 11
0.6720227624
 21
2.1371494555
 31
0
  0
LINE
  5
11F
100
AcDbEntity
  8
SEMA2D
100
AcDbLine
370
9
 62
0
 48
0
  6
_SOLID
 10
0.6720227624
 20
2.1371494555
 30
0
 11
0.6720227624
 21
2.1342586102
 31
0
  0
LINE
  5
120
100
AcDbEntity
  8
SEMA2D
100
AcDbLine
370
9
 62
0
 48
0
  6
_SOLID
 10
0.6720227624
 20
2.1342586102
 30
0
 11
0.6475738965
 21
2.0919102531
 31
0
  0
LINE
  5
121
100
AcDbEntity
  8
SEMA2D
100
AcDbLine
370
9
 62
0
 48
0
  6
_SOLID
 10
0.6475738965
 20
2.0919102531
 30
0
 11
0.6011450609
 21
2.0751491676
 31
0
  0
LINE
  5
122
100
AcDbEntity
  8
SEMA2D
100
AcDbLine
370
9
 62
0
 48
0
  6
_SOLID
 10
0.6011450609
 20
2.0751491676
 30
0
 11
0.5967280398
 21
2.0751491676
 31
0
  0
LINE
  5
123
100
AcDbEntity
  8
SEMA2D
100
AcDbLine
370
9
 62
0
 48
0
  6
_SOLID
 10
0.583936559
 20
2.4700019464
 30
0
 11
0.583936559
 21
2.4680019464
 31
0
  0
LINE
  5
124
100
AcDbEntity
  8
SEMA2D
100
AcDbLine
370
9
 62
0
 48
0
  6
_SOLID
 10
0.583936559
 20
2.4680019464
 30
0
 11
0.613936559
 21
2.4680019464
 31
0
  0
LINE
  5
125
100
AcDbEntity
  8
SEMA2D
100
AcDbLine
370
9
 62
0
 48
0
  6
_SOLID
 10
0.613936559
 20
2.4680019464
 30
0
 11
0.613936559
 21
2.4700019464
 31
0
  0
LINE
  5
126
100
AcDbEntity
  8
SEMA2D
100
AcDbLine
370
9
 62
0
 48
0
  6
_SOLID
 10
0.613936559
 20
2.4700019464
 30
0
 11
0.583936559
 21
2.4700019464
 31
0
  0
LINE
  5
127
100
AcDbEntity
  8
SEMA2D
100
AcDbLine
370
9
 62
0
 48
0
  6
_SOLID
 10
0.583936559
 20
2.4700019464
 30
0
 11
0.583936559
 21
2.4680019464
 31
0
  0
LINE
  5
128
100
AcDbEntity
  8
SEMA2D
100
AcDbLine
370
9
 62
0
 48
0
  6
_SOLID
 10
0.583936559
 20
2.4680019464
 30
0
 11
0.613936559
 21
2.4680019464
 31
0
  0
LINE
  5
129
100
AcDbEntity
  8
SEMA2D
100
AcDbLine
370
9
 62
0
 48
0
  6
_SOLID
 10
0.613936559
 20
2.4680019464
 30
0
 11
0.613936559
 21
2.4700019464
 31
0
  0
LINE
  5
12A
100
AcDbEntity
  8
SEMA2D
100
AcDbLine
370
9
 62
0
 48
0
  6
_SOLID
 10
0.613936559
 20
2.4700019464
 30
0
 11
0.583936559
 21
2.4700019464
 31
0
  0
LINE
  5
12B
100
AcDbEntity
  8
SEMA2D
100
AcDbLine
370
9
 62
0
 48
0
  6
_SOLID
 10
0.583936559
 20
2.4700019464
 30
0
 11
0.583936559
 21
2.4680019464
 31
0
  0
LINE
  5
12C
100
AcDbEntity
  8
SEMA2D
100
AcDbLine
370
9
 62
0
 48
0
  6
_SOLID
 10
0.583936559
 20
2.4680019464
 30
0
 11
0.613936559
 21
2.4680019464
 31
0
  0
LINE
  5
12D
100
AcDbEntity
  8
SEMA2D
100
AcDbLine
370
9
 62
0
 48
0
  6
_SOLID
 10
0.613936559
 20
2.4680019464
 30
0
 11
0.613936559
 21
2.4700019464
 31
0
  0
LINE
  5
12E
100
AcDbEntity
  8
SEMA2D
100
AcDbLine
370
9
 62
0
 48
0
  6
_SOLID
 10
0.613936559
 20
2.4700019464
 30
0
 11
0.583936559
 21
2.4700019464
 31
0
  0
LINE
  5
12F
100
AcDbEntity
  8
SEMA2D
100
AcDbLine
370
9
 62
0
 48
0
  6
_SOLID
 10
0.2356847356
 20
2.3290487279
 30
0
 11
0.2376958647
 21
2.3667951895
 31
0
  0
LINE
  5
130
100
AcDbEntity
  8
SEMA2D
100
AcDbLine
370
9
 62
0
 48
0
  6
_SOLID
 10
0.2376958647
 20
2.3667951895
 30
0
 11
0.2376759829
 21
2.3667627864
 31
0
  0
LINE
  5
131
100
AcDbEntity
  8
SEMA2D
100
AcDbLine
370
9
 62
0
 48
0
  6
_SOLID
 10
0.2376759829
 20
2.3667627864
 30
0
 11
0.2461106366
 21
2.5240693768
 31
0
  0
LINE
  5
132
100
AcDbEntity
  8
SEMA2D
100
AcDbLine
370
9
 62
0
 48
0
  6
_SOLID
 10
0.2461106366
 20
2.5240693768
 30
0
 11
0.2446872539
 21
2.5254927594
 31
0
  0
LINE
  5
133
100
AcDbEntity
  8
SEMA2D
100
AcDbLine
370
9
 62
0
 48
0
  6
_SOLID
 10
0.2446872539
 20
2.5254927594
 30
0
 11
0.2416604224
 21
2.5263394464
 31
0
  0
LINE
  5
134
100
AcDbEntity
  8
SEMA2D
100
AcDbLine
370
9
 62
0
 48
0
  6
_SOLID
 10
0.2416604224
 20
2.5263394464
 30
0
 11
0.2416604224
 21
2.5280019464
 31
0
  0
LINE
  5
135
100
AcDbEntity
  8
SEMA2D
100
AcDbLine
370
9
 62
0
 48
0
  6
_SOLID
 10
0.2416604224
 20
2.5280019464
 30
0
 11
0.2380204224
 21
2.5280019464
 31
0
  0
LINE
  5
136
100
AcDbEntity
  8
SEMA2D
100
AcDbLine
370
9
 62
0
 48
0
  6
_SOLID
 10
0.2380204224
 20
2.5280019464
 30
0
 11
0.2380204224
 21
2.5270519464
 31
0
  0
LINE
  5
137
100
AcDbEntity
  8
SEMA2D
100
AcDbLine
370
9
 62
0
 48
0
  6
_SOLID
 10
0.2380204224
 20
2.5270519464
 30
0
 11
0.2321678472
 21
2.5254148221
 31
0
  0
LINE
  5
138
100
AcDbEntity
  8
SEMA2D
100
AcDbLine
370
9
 62
0
 48
0
  6
_SOLID
 10
0.2321678472
 20
2.5254148221
 30
0
 11
0.2311466037
 21
2.5247402967
 31
0
  0
LINE
  5
139
100
AcDbEntity
  8
SEMA2D
100
AcDbLine
370
9
 62
0
 48
0
  6
_SOLID
 10
0.2311466037
 20
2.5247402967
 30
0
 11
0.2307095561
 21
2.5235970941
 31
0
  0
LINE
  5
13A
100
AcDbEntity
  8
SEMA2D
100
AcDbLine
370
9
 62
0
 48
0
  6
_SOLID
 10
0.2307095561
 20
2.5235970941
 30
0
 11
0.2232923289
 21
2.3868686095
 31
0
  0
LINE
  5
13B
100
AcDbEntity
  8
SEMA2D
100
AcDbLine
370
9
 62
0
 48
0
  6
_SOLID
 10
0.2232923289
 20
2.3868686095
 30
0
 11
0.2222379133
 21
2.3845761262
 31
0
  0
LINE
  5
13C
100
AcDbEntity
  8
SEMA2D
100
AcDbLine
370
9
 62
0
 48
0
  6
_SOLID
 10
0.2222379133
 20
2.3845761262
 30
0
 11
0.2216200964
 21
2.3729804495
 31
0
  0
LINE
  5
13D
100
AcDbEntity
  8
SEMA2D
100
AcDbLine
370
9
 62
0
 48
0
  6
_SOLID
 10
0.2216200964
 20
2.3729804495
 30
0
 11
0.2224129212
 21
2.3707525668
 31
0
  0
LINE
  5
13E
100
AcDbEntity
  8
SEMA2D
100
AcDbLine
370
9
 62
0
 48
0
  6
_SOLID
 10
0.2224129212
 20
2.3707525668
 30
0
 11
0.2152817141
 21
2.2369080996
 31
0
  0
LINE
  5
13F
100
AcDbEntity
  8
SEMA2D
100
AcDbLine
370
9
 62
0
 48
0
  6
_SOLID
 10
0.2152817141
 20
2.2369080996
 30
0
 11
0.2162480673
 21
2.2335355516
 31
0
  0
LINE
  5
140
100
AcDbEntity
  8
SEMA2D
100
AcDbLine
370
9
 62
0
 48
0
  6
_SOLID
 10
0.2162480673
 20
2.2335355516
 30
0
 11
0.2185865484
 21
2.2309203223
 31
0
  0
LINE
  5
141
100
AcDbEntity
  8
SEMA2D
100
AcDbLine
370
9
 62
0
 48
0
  6
_SOLID
 10
0.2185865484
 20
2.2309203223
 30
0
 11
0.222405898
 21
2.2298519464
 31
0
  0
LINE
  5
142
100
AcDbEntity
  8
SEMA2D
100
AcDbLine
370
9
 62
0
 48
0
  6
_SOLID
 10
0.222405898
 20
2.2298519464
 30
0
 11
0.222405898
 21
2.2289019464
 31
0
  0
LINE
  5
143
100
AcDbEntity
  8
SEMA2D
100
AcDbLine
370
9
 62
0
 48
0
  6
_SOLID
 10
0.222405898
 20
2.2289019464
 30
0
 11
0.2260347595
 21
2.2289019464
 31
0
  0
LINE
  5
144
100
AcDbEntity
  8
SEMA2D
100
AcDbLine
370
9
 62
0
 48
0
  6
_SOLID
 10
0.2260347595
 20
2.2289019464
 30
0
 11
0.2260347595
 21
2.2305644464
 31
0
  0
LINE
  5
145
100
AcDbEntity
  8
SEMA2D
100
AcDbLine
370
9
 62
0
 48
0
  6
_SOLID
 10
0.2260347595
 20
2.2305644464
 30
0
 11
0.2273612257
 21
2.2309354951
 31
0
  0
LINE
  5
146
100
AcDbEntity
  8
SEMA2D
100
AcDbLine
370
9
 62
0
 48
0
  6
_SOLID
 10
0.2273612257
 20
2.2309354951
 30
0
 11
0.2307397164
 21
2.2936171937
 31
0
  0
LINE
  5
147
100
AcDbEntity
  8
SEMA2D
100
AcDbLine
370
9
 62
0
 48
0
  6
_SOLID
 10
0.2307397164
 20
2.2936171937
 30
0
 11
0.2307384363
 21
2.2936172627
 31
0
  0
LINE
  5
148
100
AcDbEntity
  8
SEMA2D
100
AcDbLine
370
9
 62
0
 48
0
  6
_SOLID
 10
0.2307384363
 20
2.2936172627
 30
0
 11
0.2308815687
 21
2.2941327994
 31
0
  0
LINE
  5
149
100
AcDbEntity
  8
SEMA2D
100
AcDbLine
370
9
 62
0
 48
0
  6
_SOLID
 10
0.2308815687
 20
2.2941327994
 30
0
 11
0.2312699924
 21
2.294500756
 31
0
  0
LINE
  5
14A
100
AcDbEntity
  8
SEMA2D
100
AcDbLine
370
9
 62
0
 48
0
  6
_SOLID
 10
0.2312699924
 20
2.294500756
 30
0
 11
0.2317925151
 21
2.2946157994
 31
0
  0
LINE
  5
14B
100
AcDbEntity
  8
SEMA2D
100
AcDbLine
370
9
 62
0
 48
0
  6
_SOLID
 10
0.2317925151
 20
2.2946157994
 30
0
 11
0.2318460783
 21
2.2946157994
 31
0
  0
LINE
  5
14C
100
AcDbEntity
  8
SEMA2D
100
AcDbLine
370
9
 62
0
 48
0
  6
_SOLID
 10
0.2318460783
 20
2.2946157994
 30
0
 11
0.2320614872
 21
2.2946157994
 31
0
  0
LINE
  5
14D
100
AcDbEntity
  8
SEMA2D
100
AcDbLine
370
9
 62
0
 48
0
  6
_SOLID
 10
0.2320614872
 20
2.2946157994
 30
0
 11
0.2332897698
 21
2.2951246223
 31
0
  0
LINE
  5
14E
100
AcDbEntity
  8
SEMA2D
100
AcDbLine
370
9
 62
0
 48
0
  6
_SOLID
 10
0.2332897698
 20
2.2951246223
 30
0
 11
0.233947398
 21
2.2964539888
 31
0
  0
LINE
  5
14F
100
AcDbEntity
  8
SEMA2D
100
AcDbLine
370
9
 62
0
 48
0
  6
_SOLID
 10
0.233947398
 20
2.2964539888
 30
0
 11
0.2339508216
 21
2.2965052585
 31
0
  0
LINE
  5
150
100
AcDbEntity
  8
SEMA2D
100
AcDbLine
370
9
 62
0
 48
0
  6
_SOLID
 10
0.2339508216
 20
2.2965052585
 30
0
 11
0.2356847356
 21
2.3290487279
 31
0
  0
LINE
  5
151
100
AcDbEntity
  8
SEMA2D
100
AcDbLine
370
9
 62
0
 48
0
  6
_SOLID
 10
0.2356847356
 20
2.3290487279
 30
0
 11
0.2376958647
 21
2.3667951895
 31
0
  0
LINE
  5
152
100
AcDbEntity
  8
SEMA2D
100
AcDbLine
370
9
 62
0
 48
0
  6
_SOLID
 10
0.2376958647
 20
2.3667951895
 30
0
 11
0.2376759829
 21
2.3667627864
 31
0
  0
LINE
  5
153
100
AcDbEntity
  8
SEMA2D
100
AcDbLine
370
9
 62
0
 48
0
  6
_SOLID
 10
0.2376759829
 20
2.3667627864
 30
0
 11
0.2461106366
 21
2.5240693768
 31
0
  0
LINE
  5
154
100
AcDbEntity
  8
SEMA2D
100
AcDbLine
370
9
 62
0
 48
0
  6
_SOLID
 10
0.2461106366
 20
2.5240693768
 30
0
 11
0.2446872539
 21
2.5254927594
 31
0
  0
LINE
  5
155
100
AcDbEntity
  8
SEMA2D
100
AcDbLine
370
9
 62
0
 48
0
  6
_SOLID
 10
0.2446872539
 20
2.5254927594
 30
0
 11
0.2416604224
 21
2.5263394464
 31
0
  0
LINE
  5
156
100
AcDbEntity
  8
SEMA2D
100
AcDbLine
370
9
 62
0
 48
0
  6
_SOLID
 10
0.2416604224
 20
2.5263394464
 30
0
 11
0.2416604224
 21
2.5280019464
 31
0
  0
LINE
  5
157
100
AcDbEntity
  8
SEMA2D
100
AcDbLine
370
9
 62
0
 48
0
  6
_SOLID
 10
0.2416604224
 20
2.5280019464
 30
0
 11
0.2380204224
 21
2.5280019464
 31
0
  0
LINE
  5
158
100
AcDbEntity
  8
SEMA2D
100
AcDbLine
370
9
 62
0
 48
0
  6
_SOLID
 10
0.2380204224
 20
2.5280019464
 30
0
 11
0.2380204224
 21
2.5270519464
 31
0
  0
LINE
  5
159
100
AcDbEntity
  8
SEMA2D
100
AcDbLine
370
9
 62
0
 48
0
  6
_SOLID
 10
0.2380204224
 20
2.5270519464
 30
0
 11
0.2321678472
 21
2.5254148221
 31
0
  0
LINE
  5
15A
100
AcDbEntity
  8
SEMA2D
100
AcDbLine
370
9
 62
0
 48
0
  6
_SOLID
 10
0.2321678472
 20
2.5254148221
 30
0
 11
0.2311466037
 21
2.5247402967
 31
0
  0
LINE
  5
15B
100
AcDbEntity
  8
SEMA2D
100
AcDbLine
370
9
 62
0
 48
0
  6
_SOLID
 10
0.2311466037
 20
2.5247402967
 30
0
 11
0.2307095561
 21
2.5235970941
 31
0
  0
LINE
  5
15C
100
AcDbEntity
  8
SEMA2D
100
AcDbLine
370
9
 62
0
 48
0
  6
_SOLID
 10
0.2307095561
 20
2.5235970941
 30
0
 11
0.2232923289
 21
2.3868686095
 31
0
  0
LINE
  5
15D
100
AcDbEntity
  8
SEMA2D
100
AcDbLine
370
9
 62
0
 48
0
  6
_SOLID
 10
0.2232923289
 20
2.3868686095
 30
0
 11
0.2222379133
 21
2.3845761262
 31
0
  0
LINE
  5
15E
100
AcDbEntity
  8
SEMA2D
100
AcDbLine
370
9
 62
0
 48
0
  6
_SOLID
 10
0.2222379133
 20
2.3845761262
 30
0
 11
0.2216200964
 21
2.3729804495
 31
0
  0
LINE
  5
15F
100
AcDbEntity
  8
SEMA2D
100
AcDbLine
370
9
 62
0
 48
0
  6
_SOLID
 10
0.2216200964
 20
2.3729804495
 30
0
 11
0.2224129212
 21
2.3707525668
 31
0
  0
LINE
  5
160
100
AcDbEntity
  8
SEMA2D
100
AcDbLine
370
9
 62
0
 48
0
  6
_SOLID
 10
0.2224129212
 20
2.3707525668
 30
0
 11
0.2152817141
 21
2.2369080996
 31
0
  0
LINE
  5
161
100
AcDbEntity
  8
SEMA2D
100
AcDbLine
370
9
 62
0
 48
0
  6
_SOLID
 10
0.2152817141
 20
2.2369080996
 30
0
 11
0.2162480673
 21
2.2335355516
 31
0
  0
LINE
  5
162
100
AcDbEntity
  8
SEMA2D
100
AcDbLine
370
9
 62
0
 48
0
  6
_SOLID
 10
0.2162480673
 20
2.2335355516
 30
0
 11
0.2185865484
 21
2.2309203223
 31
0
  0
LINE
  5
163
100
AcDbEntity
  8
SEMA2D
100
AcDbLine
370
9
 62
0
 48
0
  6
_SOLID
 10
0.2185865484
 20
2.2309203223
 30
0
 11
0.222405898
 21
2.2298519464
 31
0
  0
LINE
  5
164
100
AcDbEntity
  8
SEMA2D
100
AcDbLine
370
9
 62
0
 48
0
  6
_SOLID
 10
0.222405898
 20
2.2298519464
 30
0
 11
0.222405898
 21
2.2289019464
 31
0
  0
LINE
  5
165
100
AcDbEntity
  8
SEMA2D
100
AcDbLine
370
9
 62
0
 48
0
  6
_SOLID
 10
0.222405898
 20
2.2289019464
 30
0
 11
0.2260347595
 21
2.2289019464
 31
0
  0
LINE
  5
166
100
AcDbEntity
  8
SEMA2D
100
AcDbLine
370
9
 62
0
 48
0
  6
_SOLID
 10
0.2260347595
 20
2.2289019464
 30
0
 11
0.2260347595
 21
2.2305644464
 31
0
  0
LINE
  5
167
100
AcDbEntity
  8
SEMA2D
100
AcDbLine
370
9
 62
0
 48
0
  6
_SOLID
 10
0.2260347595
 20
2.2305644464
 30
0
 11
0.2273612257
 21
2.2309354951
 31
0
  0
LINE
  5
168
100
AcDbEntity
  8
SEMA2D
100
AcDbLine
370
9
 62
0
 48
0
  6
_SOLID
 10
0.2273612257
 20
2.2309354951
 30
0
 11
0.2307397164
 21
2.2936171937
 31
0
  0
LINE
  5
169
100
AcDbEntity
  8
SEMA2D
100
AcDbLine
370
9
 62
0
 48
0
  6
_SOLID
 10
0.2307397164
 20
2.2936171937
 30
0
 11
0.2307384363
 21
2.2936172627
 31
0
  0
LINE
  5
16A
100
AcDbEntity
  8
SEMA2D
100
AcDbLine
370
9
 62
0
 48
0
  6
_SOLID
 10
0.2307384363
 20
2.2936172627
 30
0
 11
0.2308815687
 21
2.2941327994
 31
0
  0
LINE
  5
16B
100
AcDbEntity
  8
SEMA2D
100
AcDbLine
370
9
 62
0
 48
0
  6
_SOLID
 10
0.2308815687
 20
2.2941327994
 30
0
 11
0.2312699924
 21
2.294500756
 31
0
  0
LINE
  5
16C
100
AcDbEntity
  8
SEMA2D
100
AcDbLine
370
9
 62
0
 48
0
  6
_SOLID
 10
0.2312699924
 20
2.294500756
 30
0
 11
0.2317925151
 21
2.2946157994
 31
0
  0
LINE
  5
16D
100
AcDbEntity
  8
SEMA2D
100
AcDbLine
370
9
 62
0
 48
0
  6
_SOLID
 10
0.2317925151
 20
2.2946157994
 30
0
 11
0.2318460783
 21
2.2946157994
 31
0
  0
LINE
  5
16E
100
AcDbEntity
  8
SEMA2D
100
AcDbLine
370
9
 62
0
 48
0
  6
_SOLID
 10
0.2318460783
 20
2.2946157994
 30
0
 11
0.2320614872
 21
2.2946157994
 31
0
  0
LINE
  5
16F
100
AcDbEntity
  8
SEMA2D
100
AcDbLine
370
9
 62
0
 48
0
  6
_SOLID
 10
0.2320614872
 20
2.2946157994
 30
0
 11
0.2332897698
 21
2.2951246223
 31
0
  0
LINE
  5
170
100
AcDbEntity
  8
SEMA2D
100
AcDbLine
370
9
 62
0
 48
0
  6
_SOLID
 10
0.2332897698
 20
2.2951246223
 30
0
 11
0.233947398
 21
2.2964539888
 31
0
  0
LINE
  5
171
100
AcDbEntity
  8
SEMA2D
100
AcDbLine
370
9
 62
0
 48
0
  6
_SOLID
 10
0.233947398
 20
2.2964539888
 30
0
 11
0.2339508216
 21
2.2965052585
 31
0
  0
LINE
  5
172
100
AcDbEntity
  8
SEMA2D
100
AcDbLine
370
9
 62
0
 48
0
  6
_SOLID
 10
0.2339508216
 20
2.2965052585
 30
0
 11
0.2356847356
 21
2.3290487279
 31
0
  0
LINE
  5
173
100
AcDbEntity
  8
SEMA2D
100
AcDbLine
370
9
 62
0
 48
0
  6
_SOLID
 10
0.2356847356
 20
2.3290487279
 30
0
 11
0.2376958647
 21
2.3667951895
 31
0
  0
LINE
  5
174
100
AcDbEntity
  8
SEMA2D
100
AcDbLine
370
9
 62
0
 48
0
  6
_SOLID
 10
0.2376958647
 20
2.3667951895
 30
0
 11
0.2376759829
 21
2.3667627864
 31
0
  0
LINE
  5
175
100
AcDbEntity
  8
SEMA2D
100
AcDbLine
370
9
 62
0
 48
0
  6
_SOLID
 10
0.2376759829
 20
2.3667627864
 30
0
 11
0.2461106366
 21
2.5240693768
 31
0
  0
LINE
  5
176
100
AcDbEntity
  8
SEMA2D
100
AcDbLine
370
9
 62
0
 48
0
  6
_SOLID
 10
0.2461106366
 20
2.5240693768
 30
0
 11
0.2446872539
 21
2.5254927594
 31
0
  0
LINE
  5
177
100
AcDbEntity
  8
SEMA2D
100
AcDbLine
370
9
 62
0
 48
0
  6
_SOLID
 10
0.2446872539
 20
2.5254927594
 30
0
 11
0.2416604224
 21
2.5263394464
 31
0
  0
LINE
  5
178
100
AcDbEntity
  8
SEMA2D
100
AcDbLine
370
9
 62
0
 48
0
  6
_SOLID
 10
0.2416604224
 20
2.5263394464
 30
0
 11
0.2416604224
 21
2.5280019464
 31
0
  0
LINE
  5
179
100
AcDbEntity
  8
SEMA2D
100
AcDbLine
370
9
 62
0
 48
0
  6
_SOLID
 10
0.2416604224
 20
2.5280019464
 30
0
 11
0.2380204224
 21
2.5280019464
 31
0
  0
LINE
  5
17A
100
AcDbEntity
  8
SEMA2D
100
AcDbLine
370
9
 62
0
 48
0
  6
_SOLID
 10
0.2380204224
 20
2.5280019464
 30
0
 11
0.2380204224
 21
2.5270519464
 31
0
  0
LINE
  5
17B
100
AcDbEntity
  8
SEMA2D
100
AcDbLine
370
9
 62
0
 48
0
  6
_SOLID
 10
0.2380204224
 20
2.5270519464
 30
0
 11
0.2321678472
 21
2.5254148221
 31
0
  0
LINE
  5
17C
100
AcDbEntity
  8
SEMA2D
100
AcDbLine
370
9
 62
0
 48
0
  6
_SOLID
 10
0.2321678472
 20
2.5254148221
 30
0
 11
0.2311466037
 21
2.5247402967
 31
0
  0
LINE
  5
17D
100
AcDbEntity
  8
SEMA2D
100
AcDbLine
370
9
 62
0
 48
0
  6
_SOLID
 10
0.2311466037
 20
2.5247402967
 30
0
 11
0.2307095561
 21
2.5235970941
 31
0
  0
LINE
  5
17E
100
AcDbEntity
  8
SEMA2D
100
AcDbLine
370
9
 62
0
 48
0
  6
_SOLID
 10
0.2307095561
 20
2.5235970941
 30
0
 11
0.2232923289
 21
2.3868686095
 31
0
  0
LINE
  5
17F
100
AcDbEntity
  8
SEMA2D
100
AcDbLine
370
9
 62
0
 48
0
  6
_SOLID
 10
0.2232923289
 20
2.3868686095
 30
0
 11
0.2222379133
 21
2.3845761262
 31
0
  0
LINE
  5
180
100
AcDbEntity
  8
SEMA2D
100
AcDbLine
370
9
 62
0
 48
0
  6
_SOLID
 10
0.2222379133
 20
2.3845761262
 30
0
 11
0.2216200964
 21
2.3729804495
 31
0
  0
LINE
  5
181
100
AcDbEntity
  8
SEMA2D
100
AcDbLine
370
9
 62
0
 48
0
  6
_SOLID
 10
0.2216200964
 20
2.3729804495
 30
0
 11
0.2224129212
 21
2.3707525668
 31
0
  0
LINE
  5
182
100
AcDbEntity
  8
SEMA2D
100
AcDbLine
370
9
 62
0
 48
0
  6
_SOLID
 10
0.2224129212
 20
2.3707525668
 30
0
 11
0.2152817141
 21
2.2369080996
 31
0
  0
LINE
  5
183
100
AcDbEntity
  8
SEMA2D
100
AcDbLine
370
9
 62
0
 48
0
  6
_SOLID
 10
0.2152817141
 20
2.2369080996
 30
0
 11
0.2162480673
 21
2.2335355516
 31
0
  0
LINE
  5
184
100
AcDbEntity
  8
SEMA2D
100
AcDbLine
370
9
 62
0
 48
0
  6
_SOLID
 10
0.2162480673
 20
2.2335355516
 30
0
 11
0.2185865484
 21
2.2309203223
 31
0
  0
LINE
  5
185
100
AcDbEntity
  8
SEMA2D
100
AcDbLine
370
9
 62
0
 48
0
  6
_SOLID
 10
0.2185865484
 20
2.2309203223
 30
0
 11
0.222405898
 21
2.2298519464
 31
0
  0
LINE
  5
186
100
AcDbEntity
  8
SEMA2D
100
AcDbLine
370
9
 62
0
 48
0
  6
_SOLID
 10
0.222405898
 20
2.2298519464
 30
0
 11
0.222405898
 21
2.2289019464
 31
0
  0
LINE
  5
187
100
AcDbEntity
  8
SEMA2D
100
AcDbLine
370
9
 62
0
 48
0
  6
_SOLID
 10
0.222405898
 20
2.2289019464
 30
0
 11
0.2260347595
 21
2.2289019464
 31
0
  0
LINE
  5
188
100
AcDbEntity
  8
SEMA2D
100
AcDbLine
370
9
 62
0
 48
0
  6
_SOLID
 10
0.2260347595
 20
2.2289019464
 30
0
 11
0.2260347595
 21
2.2305644464
 31
0
  0
LINE
  5
189
100
AcDbEntity
  8
SEMA2D
100
AcDbLine
370
9
 62
0
 48
0
  6
_SOLID
 10
0.2260347595
 20
2.2305644464
 30
0
 11
0.2273612257
 21
2.2309354951
 31
0
  0
LINE
  5
18A
100
AcDbEntity
  8
SEMA2D
100
AcDbLine
370
9
 62
0
 48
0
  6
_SOLID
 10
0.2273612257
 20
2.2309354951
 30
0
 11
0.2307397164
 21
2.2936171937
 31
0
  0
LINE
  5
18B
100
AcDbEntity
  8
SEMA2D
100
AcDbLine
370
9
 62
0
 48
0
  6
_SOLID
 10
0.2307397164
 20
2.2936171937
 30
0
 11
0.2307384363
 21
2.2936172627
 31
0
  0
LINE
  5
18C
100
AcDbEntity
  8
SEMA2D
100
AcDbLine
370
9
 62
0
 48
0
  6
_SOLID
 10
0.2307384363
 20
2.2936172627
 30
0
 11
0.2308815687
 21
2.2941327994
 31
0
  0
LINE
  5
18D
100
AcDbEntity
  8
SEMA2D
100
AcDbLine
370
9
 62
0
 48
0
  6
_SOLID
 10
0.2308815687
 20
2.2941327994
 30
0
 11
0.2312699924
 21
2.294500756
 31
0
  0
LINE
  5
18E
100
AcDbEntity
  8
SEMA2D
100
AcDbLine
370
9
 62
0
 48
0
  6
_SOLID
 10
0.2312699924
 20
2.294500756
 30
0
 11
0.2317925151
 21
2.2946157994
 31
0
  0
LINE
  5
18F
100
AcDbEntity
  8
SEMA2D
100
AcDbLine
370
9
 62
0
 48
0
  6
_SOLID
 10
0.2317925151
 20
2.2946157994
 30
0
 11
0.2318460783
 21
2.2946157994
 31
0
  0
LINE
  5
190
100
AcDbEntity
  8
SEMA2D
100
AcDbLine
370
9
 62
0
 48
0
  6
_SOLID
 10
0.2318460783
 20
2.2946157994
 30
0
 11
0.2320614872
 21
2.2946157994
 31
0
  0
LINE
  5
191
100
AcDbEntity
  8
SEMA2D
100
AcDbLine
370
9
 62
0
 48
0
  6
_SOLID
 10
0.2320614872
 20
2.2946157994
 30
0
 11
0.2332897698
 21
2.2951246223
 31
0
  0
LINE
  5
192
100
AcDbEntity
  8
SEMA2D
100
AcDbLine
370
9
 62
0
 48
0
  6
_SOLID
 10
0.2332897698
 20
2.2951246223
 30
0
 11
0.233947398
 21
2.2964539888
 31
0
  0
LINE
  5
193
100
AcDbEntity
  8
SEMA2D
100
AcDbLine
370
9
 62
0
 48
0
  6
_SOLID
 10
0.233947398
 20
2.2964539888
 30
0
 11
0.2339508216
 21
2.2965052585
 31
0
  0
LINE
  5
194
100
AcDbEntity
  8
SEMA2D
100
AcDbLine
370
9
 62
0
 48
0
  6
_SOLID
 10
0.2339508216
 20
2.2965052585
 30
0
 11
0.2356847356
 21
2.3290487279
 31
0
  0
LINE
  5
195
100
AcDbEntity
  8
SEMA2D
100
AcDbLine
370
9
 62
0
 48
0
  6
_SOLID
 10
0.5248692695
 20
2.2297173785
 30
0
 11
0.5134355038
 21
2.2330994176
 31
0
  0
LINE
  5
196
100
AcDbEntity
  8
SEMA2D
100
AcDbLine
370
9
 62
0
 48
0
  6
_SOLID
 10
0.5427299989
 20
2.5267298659
 30
0
 11
0.5469464225
 21
2.5280519464
 31
0
  0
LINE
  5
197
100
AcDbEntity
  8
SEMA2D
100
AcDbLine
370
9
 62
0
 48
0
  6
_SOLID
 10
0.508936559
 20
2.2287673785
 30
0
 11
0.688936559
 21
2.2287673785
 31
0
  0
LINE
  5
198
100
AcDbEntity
  8
SEMA2D
100
AcDbLine
370
9
 62
0
 48
0
  6
_SOLID
 10
0.5161381323
 20
2.2297173785
 30
0
 11
0.6817349857
 21
2.2297173785
 31
0
  0
LINE
  5
199
100
AcDbEntity
  8
SEMA2D
100
AcDbLine
370
9
 62
0
 48
0
  6
_SOLID
 10
0.5161381323
 20
2.2297173785
 30
0
 11
0.5161381323
 21
2.2287673785
 31
0
  0
LINE
  5
19A
100
AcDbEntity
  8
SEMA2D
100
AcDbLine
370
9
 62
0
 48
0
  6
_SOLID
 10
0.5248692695
 20
2.2297173785
 30
0
 11
0.5248692695
 21
2.2287673785
 31
0
  0
LINE
  5
19B
100
AcDbEntity
  8
SEMA2D
100
AcDbLine
370
9
 62
0
 48
0
  6
_SOLID
 10
0.5360397373
 20
2.5280519464
 30
0
 11
0.5360397373
 21
2.5290019464
 31
0
  0
LINE
  5
19C
100
AcDbEntity
  8
SEMA2D
100
AcDbLine
370
9
 62
0
 48
0
  6
_SOLID
 10
0.5469464225
 20
2.5280519464
 30
0
 11
0.5469464225
 21
2.5290019464
 31
0
  0
LINE
  5
19D
100
AcDbEntity
  8
SEMA2D
100
AcDbLine
370
9
 62
0
 48
0
  6
_DASHDOT
 10
0.598936559
 20
2.2287673785
 30
0
 11
0.598936559
 21
2.5280019464
 31
0
  0
LINE
  5
19E
100
AcDbEntity
  8
SEMA2D
100
AcDbLine
370
9
 62
0
 48
0
  6
_DASHDOT
 10
0.4973040361
 20
2.3790519464
 30
0
 11
0.7005690818
 21
2.3790519464
 31
0
  0
LINE
  5
19F
100
AcDbEntity
  8
SEMA2D
100
AcDbLine
370
9
 62
0
 48
0
  6
_SOLID
 10
0.6508686205
 20
2.5280519464
 30
0
 11
0.6508686205
 21
2.5290019464
 31
0
  0
LINE
  5
1A0
100
AcDbEntity
  8
SEMA2D
100
AcDbLine
370
9
 62
0
 48
0
  6
_SOLID
 10
0.6617753057
 20
2.5280519464
 30
0
 11
0.6617753057
 21
2.5290019464
 31
0
  0
LINE
  5
1A1
100
AcDbEntity
  8
SEMA2D
100
AcDbLine
370
9
 62
0
 48
0
  6
_SOLID
 10
0.6730038485
 20
2.2297173785
 30
0
 11
0.6730038485
 21
2.2287673785
 31
0
  0
LINE
  5
1A2
100
AcDbEntity
  8
SEMA2D
100
AcDbLine
370
9
 62
0
 48
0
  6
_SOLID
 10
0.6817349857
 20
2.2297173785
 30
0
 11
0.6817349857
 21
2.2287673785
 31
0
  0
LINE
  5
1A3
100
AcDbEntity
  8
SEMA2D
100
AcDbLine
370
9
 62
0
 48
0
  6
_SOLID
 10
0.5298031619
 20
2.5280519464
 30
0
 11
0.6680581151
 21
2.5280519464
 31
0
  0
LINE
  5
1A4
100
AcDbEntity
  8
SEMA2D
100
AcDbLine
370
9
 62
0
 48
0
  6
_SOLID
 10
0.668936559
 20
2.5290019464
 30
0
 11
0.5289247179
 21
2.5290019464
 31
0
  0
LINE
  5
1A5
100
AcDbEntity
  8
SEMA2D
100
AcDbLine
370
9
 62
0
 48
0
  6
_SOLID
 10
0.6730038485
 20
2.2297173785
 30
0
 11
0.6844376146
 21
2.2330994177
 31
0
  0
LINE
  5
1A6
100
AcDbEntity
  8
SEMA2D
100
AcDbLine
370
9
 62
0
 48
0
  6
_SOLID
 10
0.6508686205
 20
2.5280519464
 30
0
 11
0.6550850441
 21
2.5267298659
 31
0
  0
LINE
  5
1A7
100
AcDbEntity
  8
SEMA2D
100
AcDbLine
370
9
 62
0
 48
0
  6
_SOLID
 10
0.508936559
 20
2.2287673785
 30
0
 11
0.528878484
 21
2.5290019464
 31
0
  0
LINE
  5
1A8
100
AcDbEntity
  8
SEMA2D
100
AcDbLine
370
9
 62
0
 48
0
  6
_SOLID
 10
0.5297490053
 20
2.5280446757
 30
0
 11
0.5099326352
 21
2.2297265013
 31
0
  0
LINE
  5
1A9
100
AcDbEntity
  8
SEMA2D
100
AcDbLine
370
9
 62
0
 48
0
  6
_SOLID
 10
0.5132673616
 20
2.2329375132
 30
0
 11
0.508936559
 21
2.2287673785
 31
0
  0
ARC
  5
1AA
100
AcDbEntity
  8
SEMA2D
100
AcDbCircle
370
9
 62
0
 48
0
  6
_SOLID
 10
0.5181226916
 20
2.227895116
 30
0
 40
0.007
100
AcDbArc
 50
90
 51
133.917237911038
  0
LINE
  5
1AB
100
AcDbEntity
  8
SEMA2D
100
AcDbLine
370
9
 62
0
 48
0
  6
_SOLID
 10
0.6879384132
 20
2.2297284943
 30
0
 11
0.6680662166
 21
2.5280445131
 31
0
  0
LINE
  5
1AC
100
AcDbEntity
  8
SEMA2D
100
AcDbLine
370
9
 62
0
 48
0
  6
_SOLID
 10
0.668936559
 20
2.5290019464
 30
0
 11
0.6889348135
 21
2.2287673785
 31
0
  0
LINE
  5
1AD
100
AcDbEntity
  8
SEMA2D
100
AcDbLine
370
9
 62
0
 48
0
  6
_SOLID
 10
0.6797504268
 20
2.234895116
 30
0
 11
0.5181226916
 21
2.234895116
 31
0
  0
ARC
  5
1AE
100
AcDbEntity
  8
SEMA2D
100
AcDbCircle
370
9
 62
0
 48
0
  6
_SOLID
 10
0.6797504268
 20
2.227895116
 30
0
 40
0.007
100
AcDbArc
 50
46.0827591836138
 51
90
  0
LINE
  5
1AF
100
AcDbEntity
  8
SEMA2D
100
AcDbLine
370
9
 62
0
 48
0
  6
_SOLID
 10
0.688936559
 20
2.2287673785
 30
0
 11
0.6846057571
 21
2.232937513
 31
0
  0
LINE
  5
1B0
100
AcDbEntity
  8
SEMA2D
100
AcDbLine
370
9
 62
0
 48
0
  6
_SOLID
 10
0.6664577689
 20
2.5263212395
 30
0
 11
0.5314035083
 21
2.5263212395
 31
0
  0
LINE
  5
1B1
100
AcDbEntity
  8
SEMA2D
100
AcDbLine
370
9
 62
0
 48
0
  6
_SOLID
 10
0.528878484
 20
2.5290019464
 30
0
 11
0.5313572744
 21
2.5263212395
 31
0
  0
LINE
  5
1B2
100
AcDbEntity
  8
SEMA2D
100
AcDbLine
370
9
 62
0
 48
0
  6
_SOLID
 10
0.668936559
 20
2.5290019464
 30
0
 11
0.6664577689
 21
2.5263212395
 31
0
  0
LINE
  5
1B3
100
AcDbEntity
  8
SEMA2D
100
AcDbLine
370
9
 62
0
 48
0
  6
_SOLID
 10
0.2922245561
 20
2.2287673785
 30
0
 11
0.222405898
 21
2.2287673785
 31
0
  0
LINE
  5
1B4
100
AcDbEntity
  8
SEMA2D
100
AcDbLine
370
9
 62
0
 48
0
  6
_SOLID
 10
0.2922245561
 20
2.2304298785
 30
0
 11
0.2260347595
 21
2.2304298785
 31
0
  0
LINE
  5
1B5
100
AcDbEntity
  8
SEMA2D
100
AcDbLine
370
9
 62
0
 48
0
  6
_SOLID
 10
0.2944033287
 20
2.2310393404
 30
0
 11
0.2922245561
 21
2.2304298785
 31
0
  0
ARC
  5
1B6
100
AcDbEntity
  8
SEMA2D
100
AcDbCircle
370
9
 62
0
 48
0
  6
_SOLID
 10
0.2938645561
 20
2.2329654048
 30
0
 40
0.002
100
AcDbArc
 50
285.627750822189
 51
0
  0
LINE
  5
1B7
100
AcDbEntity
  8
SEMA2D
100
AcDbLine
370
9
 62
0
 48
0
  6
_SOLID
 10
0.2958645561
 20
2.2329654048
 30
0
 11
0.2958645561
 21
2.5238039201
 31
0
  0
ARC
  5
1B8
100
AcDbEntity
  8
SEMA2D
100
AcDbCircle
370
9
 62
0
 48
0
  6
_SOLID
 10
0.2938645561
 20
2.5238039201
 30
0
 40
0.002
100
AcDbArc
 50
0
 51
74.3722499396497
  0
LINE
  5
1B9
100
AcDbEntity
  8
SEMA2D
100
AcDbLine
370
9
 62
0
 48
0
  6
_SOLID
 10
0.2922245561
 20
2.2287673785
 30
0
 11
0.2922245561
 21
2.2304298785
 31
0
  0
LINE
  5
1BA
100
AcDbEntity
  8
SEMA2D
100
AcDbLine
370
9
 62
0
 48
0
  6
_SOLID
 10
0.2922245561
 20
2.5263394464
 30
0
 11
0.2922245561
 21
2.5280019464
 31
0
  0
LINE
  5
1BB
100
AcDbEntity
  8
SEMA2D
100
AcDbLine
370
9
 62
0
 48
0
  6
_DASHDOT
 10
0.2958645561
 20
2.3790519464
 30
0
 11
0.1895091078
 21
2.3790519464
 31
0
  0
LINE
  5
1BC
100
AcDbEntity
  8
SEMA2D
100
AcDbLine
370
9
 62
0
 48
0
  6
_SOLID
 10
0.2339481092
 20
2.2964543498
 30
0
 11
0.2356847356
 21
2.3290487279
 31
0
  0
LINE
  5
1BD
100
AcDbEntity
  8
SEMA2D
100
AcDbLine
370
9
 62
0
 48
0
  6
_SOLID
 10
0.2416604224
 20
2.5280019464
 30
0
 11
0.2416604224
 21
2.5263394464
 31
0
  0
LINE
  5
1BE
100
AcDbEntity
  8
SEMA2D
100
AcDbLine
370
9
 62
0
 48
0
  6
_SOLID
 10
0.2380204224
 20
2.5280019464
 30
0
 11
0.2380204224
 21
2.5270519464
 31
0
  0
LINE
  5
1BF
100
AcDbEntity
  8
SEMA2D
100
AcDbLine
370
9
 62
0
 48
0
  6
_SOLID
 10
0.2922245561
 20
2.5263394464
 30
0
 11
0.2944033287
 21
2.5257299845
 31
0
  0
LINE
  5
1C0
100
AcDbEntity
  8
SEMA2D
100
AcDbLine
370
9
 62
0
 48
0
  6
_SOLID
 10
0.2416604224
 20
2.5263394464
 30
0
 11
0.2922245561
 21
2.5263394464
 31
0
  0
LINE
  5
1C1
100
AcDbEntity
  8
SEMA2D
100
AcDbLine
370
9
 62
0
 48
0
  6
_SOLID
 10
0.2922245561
 20
2.5280019464
 30
0
 11
0.2380204224
 21
2.5280019464
 31
0
  0
LINE
  5
1C2
100
AcDbEntity
  8
SEMA2D
100
AcDbLine
370
9
 62
0
 48
0
  6
_SOLID
 10
0.2321678472
 20
2.5254148221
 30
0
 11
0.2380204224
 21
2.5270519464
 31
0
  0
LINE
  5
1C3
100
AcDbEntity
  8
SEMA2D
100
AcDbLine
370
9
 62
0
 48
0
  6
_SOLID
 10
0.2162817141
 20
2.1299019464
 30
0
 11
0.2958645561
 21
2.1299019464
 31
0
  0
MTEXT
  5
1C5
100
AcDbEntity
  8
SEMATEXT
100
AcDbMText
370
9
 62
0
 10
0.254497674408603
 20
2.13406116262529
 30
0
 40
0.00666169972940482
  1
{\fArial Narrow;8}
 50
0
 41
0
  7
STANDARD
 71
7
  0
LINE
  5
1CA
100
AcDbEntity
  8
SEMA2D
100
AcDbLine
370
9
 62
0
 48
0
  6
_SOLID
 10
0.2162817141
 20
2.1299019464
 30
0
 11
0.2162817141
 21
2.13573093366323
 31
0
  0
LINE
  5
1CB
100
AcDbEntity
  8
SEMA2D
100
AcDbLine
370
9
 62
0
 48
0
  6
_SOLID
 10
0.2162817141
 20
2.1299019464
 30
0
 11
0.2162817141
 21
2.12407295913677
 31
0
  0
LINE
  5
1CC
100
AcDbEntity
  8
SEMA2D
100
AcDbLine
370
9
 62
0
 48
0
  6
_SOLID
 10
0.2162817141
 20
2.1299019464
 30
0
 11
0.221329765148292
 21
2.13281644003161
 31
0
  0
LINE
  5
1CD
100
AcDbEntity
  8
SEMA2D
100
AcDbLine
370
9
 62
0
 48
0
  6
_SOLID
 10
0.2162817141
 20
2.1299019464
 30
0
 11
0.211233663051708
 21
2.12698745276839
 31
0
  0
LINE
  5
1CE
100
AcDbEntity
  8
SEMA2D
100
AcDbLine
370
9
 62
0
 48
0
  6
_DOT
 10
0.2162817141
 20
2.2299019464
 30
0
 11
0.2162817141
 21
2.1299019464
 31
0
  0
LINE
  5
1CF
100
AcDbEntity
  8
SEMA2D
100
AcDbLine
370
9
 62
0
 48
0
  6
_SOLID
 10
0.2958645561
 20
2.1299019464
 30
0
 11
0.2958645561
 21
2.13573093366323
 31
0
  0
LINE
  5
1D0
100
AcDbEntity
  8
SEMA2D
100
AcDbLine
370
9
 62
0
 48
0
  6
_SOLID
 10
0.2958645561
 20
2.1299019464
 30
0
 11
0.2958645561
 21
2.12407295913677
 31
0
  0
LINE
  5
1D1
100
AcDbEntity
  8
SEMA2D
100
AcDbLine
370
9
 62
0
 48
0
  6
_SOLID
 10
0.2958645561
 20
2.1299019464
 30
0
 11
0.300912607148292
 21
2.13281644003161
 31
0
  0
LINE
  5
1D2
100
AcDbEntity
  8
SEMA2D
100
AcDbLine
370
9
 62
0
 48
0
  6
_SOLID
 10
0.2958645561
 20
2.1299019464
 30
0
 11
0.290816505051708
 21
2.12698745276839
 31
0
  0
LINE
  5
1D3
100
AcDbEntity
  8
SEMA2D
100
AcDbLine
370
9
 62
0
 48
0
  6
_DOT
 10
0.2958645561
 20
2.2299019464
 30
0
 11
0.2958645561
 21
2.1299019464
 31
0
  0
LINE
  5
1D4
100
AcDbEntity
  8
SEMA2D
100
AcDbLine
370
9
 62
0
 48
0
  6
_SOLID
 10
0.2162817141
 20
2.1799019464
 30
0
 11
0.2958645561
 21
2.1799019464
 31
0
  0
MTEXT
  5
1D5
100
AcDbEntity
  8
SEMATEXT
100
AcDbMText
370
9
 62
0
 10
0.220630792717206
 20
2.18406116262529
 30
0
 40
0.00666169972940482
  1
{\fArial Narrow;15}
 50
0
 41
0
  7
STANDARD
 71
7
  0
MTEXT
  5
1D9
100
AcDbEntity
  8
SEMATEXT
100
AcDbMText
370
9
 62
0
 10
0.260422213717206
 20
2.18406116262529
 30
0
 40
0.00666169972940482
  1
{\fArial Narrow;65}
 50
0
 41
0
  7
STANDARD
 71
7
  0
LINE
  5
1DD
100
AcDbEntity
  8
SEMA2D
100
AcDbLine
370
9
 62
0
 48
0
  6
_SOLID
 10
0.2162817141
 20
2.1799019464
 30
0
 11
0.2162817141
 21
2.18573093366323
 31
0
  0
LINE
  5
1DE
100
AcDbEntity
  8
SEMA2D
100
AcDbLine
370
9
 62
0
 48
0
  6
_SOLID
 10
0.2162817141
 20
2.1799019464
 30
0
 11
0.2162817141
 21
2.17407295913677
 31
0
  0
LINE
  5
1DF
100
AcDbEntity
  8
SEMA2D
100
AcDbLine
370
9
 62
0
 48
0
  6
_SOLID
 10
0.2162817141
 20
2.1799019464
 30
0
 11
0.221329765148292
 21
2.18281644003162
 31
0
  0
LINE
  5
1E0
100
AcDbEntity
  8
SEMA2D
100
AcDbLine
370
9
 62
0
 48
0
  6
_SOLID
 10
0.2162817141
 20
2.1799019464
 30
0
 11
0.211233663051708
 21
2.17698745276839
 31
0
  0
LINE
  5
1E1
100
AcDbEntity
  8
SEMA2D
100
AcDbLine
370
9
 62
0
 48
0
  6
_DOT
 10
0.2162817141
 20
2.2299019464
 30
0
 11
0.2162817141
 21
2.1799019464
 31
0
  0
LINE
  5
1E2
100
AcDbEntity
  8
SEMA2D
100
AcDbLine
370
9
 62
0
 48
0
  6
_SOLID
 10
0.2312817141
 20
2.1799019464
 30
0
 11
0.2312817141
 21
2.18573093366323
 31
0
  0
LINE
  5
1E3
100
AcDbEntity
  8
SEMA2D
100
AcDbLine
370
9
 62
0
 48
0
  6
_SOLID
 10
0.2312817141
 20
2.1799019464
 30
0
 11
0.2312817141
 21
2.17407295913677
 31
0
  0
LINE
  5
1E4
100
AcDbEntity
  8
SEMA2D
100
AcDbLine
370
9
 62
0
 48
0
  6
_SOLID
 10
0.2312817141
 20
2.1799019464
 30
0
 11
0.236329765148292
 21
2.18281644003162
 31
0
  0
LINE
  5
1E5
100
AcDbEntity
  8
SEMA2D
100
AcDbLine
370
9
 62
0
 48
0
  6
_SOLID
 10
0.2312817141
 20
2.1799019464
 30
0
 11
0.226233663051708
 21
2.17698745276839
 31
0
  0
LINE
  5
1E6
100
AcDbEntity
  8
SEMA2D
100
AcDbLine
370
9
 62
0
 48
0
  6
_DOT
 10
0.2312817141
 20
2.2299019464
 30
0
 11
0.2312817141
 21
2.1799019464
 31
0
  0
LINE
  5
1E7
100
AcDbEntity
  8
SEMA2D
100
AcDbLine
370
9
 62
0
 48
0
  6
_SOLID
 10
0.2958645561
 20
2.1799019464
 30
0
 11
0.2958645561
 21
2.18573093366323
 31
0
  0
LINE
  5
1E8
100
AcDbEntity
  8
SEMA2D
100
AcDbLine
370
9
 62
0
 48
0
  6
_SOLID
 10
0.2958645561
 20
2.1799019464
 30
0
 11
0.2958645561
 21
2.17407295913677
 31
0
  0
LINE
  5
1E9
100
AcDbEntity
  8
SEMA2D
100
AcDbLine
370
9
 62
0
 48
0
  6
_SOLID
 10
0.2958645561
 20
2.1799019464
 30
0
 11
0.300912607148292
 21
2.18281644003162
 31
0
  0
LINE
  5
1EA
100
AcDbEntity
  8
SEMA2D
100
AcDbLine
370
9
 62
0
 48
0
  6
_SOLID
 10
0.2958645561
 20
2.1799019464
 30
0
 11
0.290816505051708
 21
2.17698745276839
 31
0
  0
LINE
  5
1EB
100
AcDbEntity
  8
SEMA2D
100
AcDbLine
370
9
 62
0
 48
0
  6
_DOT
 10
0.2958645561
 20
2.2299019464
 30
0
 11
0.2958645561
 21
2.1799019464
 31
0
  0
LINE
  5
1EC
100
AcDbEntity
  8
SEMA2D
100
AcDbLine
370
9
 62
0
 48
0
  6
_SOLID
 10
0.2461106366
 20
2.5780019464
 30
0
 11
0.2958645561
 21
2.5780019464
 31
0
  0
MTEXT
  5
1ED
100
AcDbEntity
  8
SEMATEXT
100
AcDbMText
370
9
 62
0
 10
0.269412135658603
 20
2.58216116262529
 30
0
 40
0.00666169972940482
  1
{\fArial Narrow;5}
 50
0
 41
0
  7
STANDARD
 71
7
  0
LINE
  5
1F1
100
AcDbEntity
  8
SEMA2D
100
AcDbLine
370
9
 62
0
 48
0
  6
_SOLID
 10
0.2461106366
 20
2.5780019464
 30
0
 11
0.2461106366
 21
2.58383093366323
 31
0
  0
LINE
  5
1F2
100
AcDbEntity
  8
SEMA2D
100
AcDbLine
370
9
 62
0
 48
0
  6
_SOLID
 10
0.2461106366
 20
2.5780019464
 30
0
 11
0.2461106366
 21
2.57217295913677
 31
0
  0
LINE
  5
1F3
100
AcDbEntity
  8
SEMA2D
100
AcDbLine
370
9
 62
0
 48
0
  6
_SOLID
 10
0.2461106366
 20
2.5780019464
 30
0
 11
0.251158687648292
 21
2.58091644003161
 31
0
  0
LINE
  5
1F4
100
AcDbEntity
  8
SEMA2D
100
AcDbLine
370
9
 62
0
 48
0
  6
_SOLID
 10
0.2461106366
 20
2.5780019464
 30
0
 11
0.241062585551708
 21
2.57508745276838
 31
0
  0
LINE
  5
1F5
100
AcDbEntity
  8
SEMA2D
100
AcDbLine
370
9
 62
0
 48
0
  6
_DOT
 10
0.2461106366
 20
2.5280019464
 30
0
 11
0.2461106366
 21
2.5780019464
 31
0
  0
LINE
  5
1F6
100
AcDbEntity
  8
SEMA2D
100
AcDbLine
370
9
 62
0
 48
0
  6
_SOLID
 10
0.2958645561
 20
2.5780019464
 30
0
 11
0.2958645561
 21
2.58383093366323
 31
0
  0
LINE
  5
1F7
100
AcDbEntity
  8
SEMA2D
100
AcDbLine
370
9
 62
0
 48
0
  6
_SOLID
 10
0.2958645561
 20
2.5780019464
 30
0
 11
0.2958645561
 21
2.57217295913677
 31
0
  0
LINE
  5
1F8
100
AcDbEntity
  8
SEMA2D
100
AcDbLine
370
9
 62
0
 48
0
  6
_SOLID
 10
0.2958645561
 20
2.5780019464
 30
0
 11
0.300912607148292
 21
2.58091644003161
 31
0
  0
LINE
  5
1F9
100
AcDbEntity
  8
SEMA2D
100
AcDbLine
370
9
 62
0
 48
0
  6
_SOLID
 10
0.2958645561
 20
2.5780019464
 30
0
 11
0.290816505051708
 21
2.57508745276838
 31
0
  0
LINE
  5
1FA
100
AcDbEntity
  8
SEMA2D
100
AcDbLine
370
9
 62
0
 48
0
  6
_DOT
 10
0.2958645561
 20
2.5280019464
 30
0
 11
0.2958645561
 21
2.5780019464
 31
0
  0
LINE
  5
1FB
100
AcDbEntity
  8
SEMA2D
100
AcDbLine
370
9
 62
0
 48
0
  6
_SOLID
 10
0.2307095561
 20
2.6280019464
 30
0
 11
0.2958645561
 21
2.6280019464
 31
0
  0
MTEXT
  5
1FC
100
AcDbEntity
  8
SEMATEXT
100
AcDbMText
370
9
 62
0
 10
0.260136134717206
 20
2.63216116262529
 30
0
 40
0.00666169972940482
  1
{\fArial Narrow;65}
 50
0
 41
0
  7
STANDARD
 71
7
  0
LINE
  5
200
100
AcDbEntity
  8
SEMA2D
100
AcDbLine
370
9
 62
0
 48
0
  6
_SOLID
 10
0.2307095561
 20
2.6280019464
 30
0
 11
0.2307095561
 21
2.63383093366323
 31
0
  0
LINE
  5
201
100
AcDbEntity
  8
SEMA2D
100
AcDbLine
370
9
 62
0
 48
0
  6
_SOLID
 10
0.2307095561
 20
2.6280019464
 30
0
 11
0.2307095561
 21
2.62217295913677
 31
0
  0
LINE
  5
202
100
AcDbEntity
  8
SEMA2D
100
AcDbLine
370
9
 62
0
 48
0
  6
_SOLID
 10
0.2307095561
 20
2.6280019464
 30
0
 11
0.235757607148292
 21
2.63091644003161
 31
0
  0
LINE
  5
203
100
AcDbEntity
  8
SEMA2D
100
AcDbLine
370
9
 62
0
 48
0
  6
_SOLID
 10
0.2307095561
 20
2.6280019464
 30
0
 11
0.225661505051708
 21
2.62508745276839
 31
0
  0
LINE
  5
204
100
AcDbEntity
  8
SEMA2D
100
AcDbLine
370
9
 62
0
 48
0
  6
_DOT
 10
0.2307095561
 20
2.5780019464
 30
0
 11
0.2307095561
 21
2.6280019464
 31
0
  0
LINE
  5
205
100
AcDbEntity
  8
SEMA2D
100
AcDbLine
370
9
 62
0
 48
0
  6
_SOLID
 10
0.2958645561
 20
2.6280019464
 30
0
 11
0.2958645561
 21
2.63383093366323
 31
0
  0
LINE
  5
206
100
AcDbEntity
  8
SEMA2D
100
AcDbLine
370
9
 62
0
 48
0
  6
_SOLID
 10
0.2958645561
 20
2.6280019464
 30
0
 11
0.2958645561
 21
2.62217295913677
 31
0
  0
LINE
  5
207
100
AcDbEntity
  8
SEMA2D
100
AcDbLine
370
9
 62
0
 48
0
  6
_SOLID
 10
0.2958645561
 20
2.6280019464
 30
0
 11
0.300912607148292
 21
2.63091644003161
 31
0
  0
LINE
  5
208
100
AcDbEntity
  8
SEMA2D
100
AcDbLine
370
9
 62
0
 48
0
  6
_SOLID
 10
0.2958645561
 20
2.6280019464
 30
0
 11
0.290816505051708
 21
2.62508745276839
 31
0
  0
LINE
  5
209
100
AcDbEntity
  8
SEMA2D
100
AcDbLine
370
9
 62
0
 48
0
  6
_DOT
 10
0.2958645561
 20
2.5780019464
 30
0
 11
0.2958645561
 21
2.6280019464
 31
0
  0
LINE
  5
20A
100
AcDbEntity
  8
SEMA2D
100
AcDbLine
370
9
 62
0
 48
0
  6
_SOLID
 10
0.7895900029
 20
2.2287673785
 30
0
 11
0.7895900029
 21
2.5290019464
 31
0
  0
MTEXT
  5
20B
100
AcDbEntity
  8
SEMATEXT
100
AcDbMText
370
9
 62
0
 10
0.785430786674712
 20
2.37468343393961
 30
0
 40
0.00666169972940482
  1
{\fArial Narrow;30}
 50
90
 41
0
  7
STANDARD
 71
7
  0
LINE
  5
20F
100
AcDbEntity
  8
SEMA2D
100
AcDbLine
370
9
 62
0
 48
0
  6
_SOLID
 10
0.7895900029
 20
2.2287673785
 30
0
 11
0.783761015636771
 21
2.2287673785
 31
0
  0
LINE
  5
210
100
AcDbEntity
  8
SEMA2D
100
AcDbLine
370
9
 62
0
 48
0
  6
_SOLID
 10
0.7895900029
 20
2.2287673785
 30
0
 11
0.795418990163229
 21
2.2287673785
 31
0
  0
LINE
  5
211
100
AcDbEntity
  8
SEMA2D
100
AcDbLine
370
9
 62
0
 48
0
  6
_SOLID
 10
0.7895900029
 20
2.2287673785
 30
0
 11
0.786675509268385
 21
2.23381542954829
 31
0
  0
LINE
  5
212
100
AcDbEntity
  8
SEMA2D
100
AcDbLine
370
9
 62
0
 48
0
  6
_SOLID
 10
0.7895900029
 20
2.2287673785
 30
0
 11
0.792504496531614
 21
2.22371932745171
 31
0
  0
LINE
  5
213
100
AcDbEntity
  8
SEMA2D
100
AcDbLine
370
9
 62
0
 48
0
  6
_DOT
 10
0.7265481607
 20
2.2287673785
 30
0
 11
0.7895900029
 21
2.2287673785
 31
0
  0
LINE
  5
214
100
AcDbEntity
  8
SEMA2D
100
AcDbLine
370
9
 62
0
 48
0
  6
_SOLID
 10
0.7895900029
 20
2.5290019464
 30
0
 11
0.783761015636771
 21
2.5290019464
 31
0
  0
LINE
  5
215
100
AcDbEntity
  8
SEMA2D
100
AcDbLine
370
9
 62
0
 48
0
  6
_SOLID
 10
0.7895900029
 20
2.5290019464
 30
0
 11
0.795418990163229
 21
2.5290019464
 31
0
  0
LINE
  5
216
100
AcDbEntity
  8
SEMA2D
100
AcDbLine
370
9
 62
0
 48
0
  6
_SOLID
 10
0.7895900029
 20
2.5290019464
 30
0
 11
0.786675509268385
 21
2.53404999744829
 31
0
  0
LINE
  5
217
100
AcDbEntity
  8
SEMA2D
100
AcDbLine
370
9
 62
0
 48
0
  6
_SOLID
 10
0.7895900029
 20
2.5290019464
 30
0
 11
0.792504496531614
 21
2.52395389535171
 31
0
  0
LINE
  5
218
100
AcDbEntity
  8
SEMA2D
100
AcDbLine
370
9
 62
0
 48
0
  6
_DOT
 10
0.7265481607
 20
2.5290019464
 30
0
 11
0.7895900029
 21
2.5290019464
 31
0
  0
CIRCLE
  5
219
100
AcDbEntity
  8
SEMA2D
100
AcDbCircle
370
9
 62
0
 48
0
  6
_SOLID
 10
0.5989365589
 20
2.3790519464
 30
0
 40
0.003
  0
CIRCLE
  5
21A
100
AcDbEntity
  8
SEMA2D
100
AcDbCircle
370
9
 62
0
 48
0
  6
_SOLID
 10
0.5989365589
 20
2.3790519464
 30
0
 40
0.004
  0
CIRCLE
  5
21B
100
AcDbEntity
  8
SEMA2D
100
AcDbCircle
370
9
 62
0
 48
0
  6
_SOLID
 10
0.5989365589
 20
2.3790519464
 30
0
 40
0.005
  0
CIRCLE
  5
21C
100
AcDbEntity
  8
SEMA2D
100
AcDbCircle
370
9
 62
0
 48
0
  6
_SOLID
 10
0.5989365589
 20
2.3790519464
 30
0
 40
0.008
  0
CIRCLE
  5
21D
100
AcDbEntity
  8
SEMA2D
100
AcDbCircle
370
9
 62
0
 48
0
  6
_SOLID
 10
0.598936559
 20
2.5040019464
 30
0
 40
0.005
  0
CIRCLE
  5
21E
100
AcDbEntity
  8
SEMA2D
100
AcDbCircle
370
9
 62
0
 48
0
  6
_SOLID
 10
0.598936559
 20
2.5040019464
 30
0
 40
0.006
  0
LINE
  5
21F
100
AcDbEntity
  8
SEMA2D
100
AcDbLine
370
9
 62
0
 48
0
  6
_SOLID
 10
0.7395900029
 20
2.5040019464
 30
0
 11
0.7395900029
 21
2.5290019464
 31
0
  0
MTEXT
  5
220
100
AcDbEntity
  8
SEMATEXT
100
AcDbMText
370
9
 62
0
 10
0.735430786674713
 20
2.51230071788961
 30
0
 40
0.00666169972940482
  1
{\fArial Narrow;25}
 50
90
 41
0
  7
STANDARD
 71
7
  0
LINE
  5
224
100
AcDbEntity
  8
SEMA2D
100
AcDbLine
370
9
 62
0
 48
0
  6
_SOLID
 10
0.7395900029
 20
2.5040019464
 30
0
 11
0.733761015636771
 21
2.5040019464
 31
0
  0
LINE
  5
225
100
AcDbEntity
  8
SEMA2D
100
AcDbLine
370
9
 62
0
 48
0
  6
_SOLID
 10
0.7395900029
 20
2.5040019464
 30
0
 11
0.745418990163229
 21
2.5040019464
 31
0
  0
LINE
  5
226
100
AcDbEntity
  8
SEMA2D
100
AcDbLine
370
9
 62
0
 48
0
  6
_SOLID
 10
0.7395900029
 20
2.5040019464
 30
0
 11
0.736675509268386
 21
2.50904999744829
 31
0
  0
LINE
  5
227
100
AcDbEntity
  8
SEMA2D
100
AcDbLine
370
9
 62
0
 48
0
  6
_SOLID
 10
0.7395900029
 20
2.5040019464
 30
0
 11
0.742504496531615
 21
2.49895389535171
 31
0
  0
LINE
  5
228
100
AcDbEntity
  8
SEMA2D
100
AcDbLine
370
9
 62
0
 48
0
  6
_DOT
 10
0.6895900029
 20
2.5040019464
 30
0
 11
0.7395900029
 21
2.5040019464
 31
0
  0
LINE
  5
229
100
AcDbEntity
  8
SEMA2D
100
AcDbLine
370
9
 62
0
 48
0
  6
_SOLID
 10
0.7395900029
 20
2.5290019464
 30
0
 11
0.733761015636771
 21
2.5290019464
 31
0
  0
LINE
  5
22A
100
AcDbEntity
  8
SEMA2D
100
AcDbLine
370
9
 62
0
 48
0
  6
_SOLID
 10
0.7395900029
 20
2.5290019464
 30
0
 11
0.745418990163229
 21
2.5290019464
 31
0
  0
LINE
  5
22B
100
AcDbEntity
  8
SEMA2D
100
AcDbLine
370
9
 62
0
 48
0
  6
_SOLID
 10
0.7395900029
 20
2.5290019464
 30
0
 11
0.736675509268386
 21
2.53404999744829
 31
0
  0
LINE
  5
22C
100
AcDbEntity
  8
SEMA2D
100
AcDbLine
370
9
 62
0
 48
0
  6
_SOLID
 10
0.7395900029
 20
2.5290019464
 30
0
 11
0.742504496531615
 21
2.52395389535171
 31
0
  0
LINE
  5
22D
100
AcDbEntity
  8
SEMA2D
100
AcDbLine
370
9
 62
0
 48
0
  6
_DOT
 10
0.6895900029
 20
2.5290019464
 30
0
 11
0.7395900029
 21
2.5290019464
 31
0
  0
LINE
  5
22E
100
AcDbEntity
  8
SEMA2D
100
AcDbLine
370
9
 62
0
 48
0
  6
_SOLID
 10
0.4686792103
 20
2.3790519464
 30
0
 11
0.4686792103
 21
2.5290019464
 31
0
  0
MTEXT
  5
22F
100
AcDbEntity
  8
SEMATEXT
100
AcDbMText
370
9
 62
0
 10
0.464519994074712
 20
2.44982571788961
 30
0
 40
0.00666169972940482
  1
{\fArial Narrow;15}
 50
90
 41
0
  7
STANDARD
 71
7
  0
LINE
  5
233
100
AcDbEntity
  8
SEMA2D
100
AcDbLine
370
9
 62
0
 48
0
  6
_SOLID
 10
0.4686792103
 20
2.3790519464
 30
0
 11
0.462850223036771
 21
2.3790519464
 31
0
  0
LINE
  5
234
100
AcDbEntity
  8
SEMA2D
100
AcDbLine
370
9
 62
0
 48
0
  6
_SOLID
 10
0.4686792103
 20
2.3790519464
 30
0
 11
0.474508197563229
 21
2.3790519464
 31
0
  0
LINE
  5
235
100
AcDbEntity
  8
SEMA2D
100
AcDbLine
370
9
 62
0
 48
0
  6
_SOLID
 10
0.4686792103
 20
2.3790519464
 30
0
 11
0.465764716668385
 21
2.38409999744829
 31
0
  0
LINE
  5
236
100
AcDbEntity
  8
SEMA2D
100
AcDbLine
370
9
 62
0
 48
0
  6
_SOLID
 10
0.4686792103
 20
2.3790519464
 30
0
 11
0.471593703931615
 21
2.37400389535171
 31
0
  0
LINE
  5
237
100
AcDbEntity
  8
SEMA2D
100
AcDbLine
370
9
 62
0
 48
0
  6
_DOT
 10
0.4973040361
 20
2.3790519464
 30
0
 11
0.4686792103
 21
2.3790519464
 31
0
  0
LINE
  5
238
100
AcDbEntity
  8
SEMA2D
100
AcDbLine
370
9
 62
0
 48
0
  6
_SOLID
 10
0.4686792103
 20
2.5290019464
 30
0
 11
0.462850223036771
 21
2.5290019464
 31
0
  0
LINE
  5
239
100
AcDbEntity
  8
SEMA2D
100
AcDbLine
370
9
 62
0
 48
0
  6
_SOLID
 10
0.4686792103
 20
2.5290019464
 30
0
 11
0.474508197563229
 21
2.5290019464
 31
0
  0
LINE
  5
23A
100
AcDbEntity
  8
SEMA2D
100
AcDbLine
370
9
 62
0
 48
0
  6
_SOLID
 10
0.4686792103
 20
2.5290019464
 30
0
 11
0.465764716668385
 21
2.53404999744829
 31
0
  0
LINE
  5
23B
100
AcDbEntity
  8
SEMA2D
100
AcDbLine
370
9
 62
0
 48
0
  6
_SOLID
 10
0.4686792103
 20
2.5290019464
 30
0
 11
0.471593703931615
 21
2.52395389535171
 31
0
  0
LINE
  5
23C
100
AcDbEntity
  8
SEMA2D
100
AcDbLine
370
9
 62
0
 48
0
  6
_DOT
 10
0.4973040361
 20
2.5290019464
 30
0
 11
0.4686792103
 21
2.5290019464
 31
0
  0
LINE
  5
23D
100
AcDbEntity
  8
SEMA2D
100
AcDbLine
370
9
 62
0
 48
0
  6
_DOT
 10
0.2307095561
 20
2.5780019464
 30
0
 11
0.2307095561
 21
2.2297042374
 31
0
  0
LINE
  5
23E
100
AcDbEntity
  8
SEMA2D
100
AcDbLine
370
9
 62
0
 48
0
  6
_SOLID
 10
0.3458645561
 20
2.2277673785
 30
0
 11
0.3458645561
 21
2.5280019464
 31
0
  0
MTEXT
  5
23F
100
AcDbEntity
  8
SEMATEXT
100
AcDbMText
370
9
 62
0
 10
0.341705339874712
 20
2.37368343393961
 30
0
 40
0.00666169972940482
  1
{\fArial Narrow;30}
 50
90
 41
0
  7
STANDARD
 71
7
  0
LINE
  5
243
100
AcDbEntity
  8
SEMA2D
100
AcDbLine
370
9
 62
0
 48
0
  6
_SOLID
 10
0.3458645561
 20
2.2277673785
 30
0
 11
0.340035568836771
 21
2.2277673785
 31
0
  0
LINE
  5
244
100
AcDbEntity
  8
SEMA2D
100
AcDbLine
370
9
 62
0
 48
0
  6
_SOLID
 10
0.3458645561
 20
2.2277673785
 30
0
 11
0.351693543363229
 21
2.2277673785
 31
0
  0
LINE
  5
245
100
AcDbEntity
  8
SEMA2D
100
AcDbLine
370
9
 62
0
 48
0
  6
_SOLID
 10
0.3458645561
 20
2.2277673785
 30
0
 11
0.342950062468385
 21
2.23281542954829
 31
0
  0
LINE
  5
246
100
AcDbEntity
  8
SEMA2D
100
AcDbLine
370
9
 62
0
 48
0
  6
_SOLID
 10
0.3458645561
 20
2.2277673785
 30
0
 11
0.348779049731615
 21
2.22271932745171
 31
0
  0
LINE
  5
247
100
AcDbEntity
  8
SEMA2D
100
AcDbLine
370
9
 62
0
 48
0
  6
_DOT
 10
0.2958645561
 20
2.2277673785
 30
0
 11
0.3458645561
 21
2.2277673785
 31
0
  0
LINE
  5
248
100
AcDbEntity
  8
SEMA2D
100
AcDbLine
370
9
 62
0
 48
0
  6
_SOLID
 10
0.3458645561
 20
2.5280019464
 30
0
 11
0.340035568836771
 21
2.5280019464
 31
0
  0
LINE
  5
249
100
AcDbEntity
  8
SEMA2D
100
AcDbLine
370
9
 62
0
 48
0
  6
_SOLID
 10
0.3458645561
 20
2.5280019464
 30
0
 11
0.351693543363229
 21
2.5280019464
 31
0
  0
LINE
  5
24A
100
AcDbEntity
  8
SEMA2D
100
AcDbLine
370
9
 62
0
 48
0
  6
_SOLID
 10
0.3458645561
 20
2.5280019464
 30
0
 11
0.342950062468385
 21
2.53304999744829
 31
0
  0
LINE
  5
24B
100
AcDbEntity
  8
SEMA2D
100
AcDbLine
370
9
 62
0
 48
0
  6
_SOLID
 10
0.3458645561
 20
2.5280019464
 30
0
 11
0.348779049731615
 21
2.52295389535171
 31
0
  0
LINE
  5
24C
100
AcDbEntity
  8
SEMA2D
100
AcDbLine
370
9
 62
0
 48
0
  6
_DOT
 10
0.2958645561
 20
2.5280019464
 30
0
 11
0.3458645561
 21
2.5280019464
 31
0
  0
LINE
  5
24D
100
AcDbEntity
  8
SEMA2D
100
AcDbLine
370
9
 62
1
 48
0
  6
_SOLID
 10
0.7645900029
 20
2.4690019464
 30
0
 11
0.7645900029
 21
2.5290019464
 31
0
  0
MTEXT
  5
24E
100
AcDbEntity
  8
SEMATEXT
100
AcDbMText
370
9
 62
1
 10
0.760430786674712
 20
2.4969013321448
 30
0
 40
0.00666169972940482
  1
{\fArial Narrow;6}
 50
90
 41
0
  7
STANDARD
 71
7
  0
LINE
  5
252
100
AcDbEntity
  8
SEMA2D
100
AcDbLine
370
9
 62
1
 48
0
  6
_SOLID
 10
0.7645900029
 20
2.4690019464
 30
0
 11
0.758761015636771
 21
2.4690019464
 31
0
  0
LINE
  5
253
100
AcDbEntity
  8
SEMA2D
100
AcDbLine
370
9
 62
1
 48
0
  6
_SOLID
 10
0.7645900029
 20
2.4690019464
 30
0
 11
0.770418990163229
 21
2.4690019464
 31
0
  0
LINE
  5
254
100
AcDbEntity
  8
SEMA2D
100
AcDbLine
370
9
 62
1
 48
0
  6
_SOLID
 10
0.7645900029
 20
2.4690019464
 30
0
 11
0.761675509268385
 21
2.47404999744829
 31
0
  0
LINE
  5
255
100
AcDbEntity
  8
SEMA2D
100
AcDbLine
370
9
 62
1
 48
0
  6
_SOLID
 10
0.7645900029
 20
2.4690019464
 30
0
 11
0.767504496531615
 21
2.46395389535171
 31
0
  0
LINE
  5
256
100
AcDbEntity
  8
SEMA2D
100
AcDbLine
370
9
 62
1
 48
0
  6
_DOT
 10
0.7395900029
 20
2.4690019464
 30
0
 11
0.7645900029
 21
2.4690019464
 31
0
  0
LINE
  5
257
100
AcDbEntity
  8
SEMA2D
100
AcDbLine
370
9
 62
1
 48
0
  6
_SOLID
 10
0.7645900029
 20
2.5290019464
 30
0
 11
0.758761015636771
 21
2.5290019464
 31
0
  0
LINE
  5
258
100
AcDbEntity
  8
SEMA2D
100
AcDbLine
370
9
 62
1
 48
0
  6
_SOLID
 10
0.7645900029
 20
2.5290019464
 30
0
 11
0.770418990163229
 21
2.5290019464
 31
0
  0
LINE
  5
259
100
AcDbEntity
  8
SEMA2D
100
AcDbLine
370
9
 62
1
 48
0
  6
_SOLID
 10
0.7645900029
 20
2.5290019464
 30
0
 11
0.761675509268385
 21
2.53404999744829
 31
0
  0
LINE
  5
25A
100
AcDbEntity
  8
SEMA2D
100
AcDbLine
370
9
 62
1
 48
0
  6
_SOLID
 10
0.7645900029
 20
2.5290019464
 30
0
 11
0.767504496531615
 21
2.52395389535171
 31
0
  0
LINE
  5
25B
100
AcDbEntity
  8
SEMA2D
100
AcDbLine
370
9
 62
1
 48
0
  6
_DOT
 10
0.7395900029
 20
2.5290019464
 30
0
 11
0.7645900029
 21
2.5290019464
 31
0
  0
MTEXT
  5
25C
100
AcDbEntity
  8
SEMATEXT
100
AcDbMText
370
9
 62
1
 10
0.7585900029
 20
2.4043019464
 30
0
 40
0.00666169972940482
  1
{\fArial Narrow;Überdeckung}
 50
90
 41
0
  7
STANDARD
 71
7
  0
LINE
  5
260
100
AcDbEntity
  8
SEMA2D
100
AcDbLine
370
9
 62
0
 48
0
  6
_SOLID
 10
0.5089365503
 20
2.0203197767
 30
0
 11
0.6889365503
 21
2.0203197767
 31
0
  0
MTEXT
  5
261
100
AcDbEntity
  8
SEMATEXT
100
AcDbMText
370
9
 62
0
 10
0.595785628917206
 20
2.02447899292529
 30
0
 40
0.00666169972940482
  1
{\fArial Narrow;18}
 50
0
 41
0
  7
STANDARD
 71
7
  0
LINE
  5
265
100
AcDbEntity
  8
SEMA2D
100
AcDbLine
370
9
 62
0
 48
0
  6
_SOLID
 10
0.5089365503
 20
2.0203197767
 30
0
 11
0.5089365503
 21
2.02614876396323
 31
0
  0
LINE
  5
266
100
AcDbEntity
  8
SEMA2D
100
AcDbLine
370
9
 62
0
 48
0
  6
_SOLID
 10
0.5089365503
 20
2.0203197767
 30
0
 11
0.5089365503
 21
2.01449078943677
 31
0
  0
LINE
  5
267
100
AcDbEntity
  8
SEMA2D
100
AcDbLine
370
9
 62
0
 48
0
  6
_SOLID
 10
0.5089365503
 20
2.0203197767
 30
0
 11
0.513984601348292
 21
2.02323427033161
 31
0
  0
LINE
  5
268
100
AcDbEntity
  8
SEMA2D
100
AcDbLine
370
9
 62
0
 48
0
  6
_SOLID
 10
0.5089365503
 20
2.0203197767
 30
0
 11
0.503888499251708
 21
2.01740528306839
 31
0
  0
LINE
  5
269
100
AcDbEntity
  8
SEMA2D
100
AcDbLine
370
9
 62
0
 48
0
  6
_DOT
 10
0.5089365503
 20
2.060041186
 30
0
 11
0.5089365503
 21
2.0203197767
 31
0
  0
LINE
  5
26A
100
AcDbEntity
  8
SEMA2D
100
AcDbLine
370
9
 62
0
 48
0
  6
_SOLID
 10
0.6889365503
 20
2.0203197767
 30
0
 11
0.6889365503
 21
2.02614876396323
 31
0
  0
LINE
  5
26B
100
AcDbEntity
  8
SEMA2D
100
AcDbLine
370
9
 62
0
 48
0
  6
_SOLID
 10
0.6889365503
 20
2.0203197767
 30
0
 11
0.6889365503
 21
2.01449078943677
 31
0
  0
LINE
  5
26C
100
AcDbEntity
  8
SEMA2D
100
AcDbLine
370
9
 62
0
 48
0
  6
_SOLID
 10
0.6889365503
 20
2.0203197767
 30
0
 11
0.693984601348292
 21
2.02323427033161
 31
0
  0
LINE
  5
26D
100
AcDbEntity
  8
SEMA2D
100
AcDbLine
370
9
 62
0
 48
0
  6
_SOLID
 10
0.6889365503
 20
2.0203197767
 30
0
 11
0.683888499251708
 21
2.01740528306839
 31
0
  0
LINE
  5
26E
100
AcDbEntity
  8
SEMA2D
100
AcDbLine
370
9
 62
0
 48
0
  6
_DOT
 10
0.6889365503
 20
2.060041186
 30
0
 11
0.6889365503
 21
2.0203197767
 31
0
  0
LINE
  5
26F
100
AcDbEntity
  8
SEMA2D
100
AcDbLine
370
9
 62
0
 48
0
  6
_SOLID
 10
0.4686792103
 20
2.060041186
 30
0
 11
0.4686792103
 21
2.1400411308
 31
0
  0
MTEXT
  5
270
100
AcDbEntity
  8
SEMATEXT
100
AcDbMText
370
9
 62
0
 10
0.464519994074712
 20
2.0979405441448
 30
0
 40
0.00666169972940482
  1
{\fArial Narrow;8}
 50
90
 41
0
  7
STANDARD
 71
7
  0
LINE
  5
274
100
AcDbEntity
  8
SEMA2D
100
AcDbLine
370
9
 62
0
 48
0
  6
_SOLID
 10
0.4686792103
 20
2.060041186
 30
0
 11
0.462850223036771
 21
2.060041186
 31
0
  0
LINE
  5
275
100
AcDbEntity
  8
SEMA2D
100
AcDbLine
370
9
 62
0
 48
0
  6
_SOLID
 10
0.4686792103
 20
2.060041186
 30
0
 11
0.474508197563229
 21
2.060041186
 31
0
  0
LINE
  5
276
100
AcDbEntity
  8
SEMA2D
100
AcDbLine
370
9
 62
0
 48
0
  6
_SOLID
 10
0.4686792103
 20
2.060041186
 30
0
 11
0.465764716668385
 21
2.06508923704829
 31
0
  0
LINE
  5
277
100
AcDbEntity
  8
SEMA2D
100
AcDbLine
370
9
 62
0
 48
0
  6
_SOLID
 10
0.4686792103
 20
2.060041186
 30
0
 11
0.471593703931615
 21
2.05499313495171
 31
0
  0
LINE
  5
278
100
AcDbEntity
  8
SEMA2D
100
AcDbLine
370
9
 62
0
 48
0
  6
_DOT
 10
0.5081407591
 20
2.060041186
 30
0
 11
0.4686792103
 21
2.060041186
 31
0
  0
LINE
  5
279
100
AcDbEntity
  8
SEMA2D
100
AcDbLine
370
9
 62
0
 48
0
  6
_SOLID
 10
0.4686792103
 20
2.1400411308
 30
0
 11
0.462850223036771
 21
2.1400411308
 31
0
  0
LINE
  5
27A
100
AcDbEntity
  8
SEMA2D
100
AcDbLine
370
9
 62
0
 48
0
  6
_SOLID
 10
0.4686792103
 20
2.1400411308
 30
0
 11
0.474508197563229
 21
2.1400411308
 31
0
  0
LINE
  5
27B
100
AcDbEntity
  8
SEMA2D
100
AcDbLine
370
9
 62
0
 48
0
  6
_SOLID
 10
0.4686792103
 20
2.1400411308
 30
0
 11
0.465764716668385
 21
2.14508918184829
 31
0
  0
LINE
  5
27C
100
AcDbEntity
  8
SEMA2D
100
AcDbLine
370
9
 62
0
 48
0
  6
_SOLID
 10
0.4686792103
 20
2.1400411308
 30
0
 11
0.471593703931615
 21
2.13499307975171
 31
0
  0
LINE
  5
27D
100
AcDbEntity
  8
SEMA2D
100
AcDbLine
370
9
 62
0
 48
0
  6
_DOT
 10
0.5081407591
 20
2.1400411308
 30
0
 11
0.4686792103
 21
2.1400411308
 31
0
  0
LINE
  5
27E
100
AcDbEntity
  8
SEMA2D
100
AcDbLine
370
9
 62
0
 48
0
  6
_SOLID
 10
0.52095306998264
 20
2.1799019029
 30
0
 11
0.67692001078264
 21
2.1799019464
 31
0
  0
MTEXT
  5
27F
100
AcDbEntity
  8
SEMATEXT
100
AcDbMText
370
9
 62
0
 10
0.594210157148422
 20
2.18406113955707
 30
0
 40
0.00666169972940482
  1
{\fArial Narrow;156}
 50
1.59800947585609E-5
 41
0
  7
STANDARD
 71
7
  0
LINE
  5
283
100
AcDbEntity
  8
SEMA2D
100
AcDbLine
370
9
 62
0
 48
0
  6
_SOLID
 10
0.52095306998264
 20
2.1799019029
 30
0
 11
0.520953068356905
 21
2.18573089016323
 31
0
  0
LINE
  5
284
100
AcDbEntity
  8
SEMA2D
100
AcDbLine
370
9
 62
0
 48
0
  6
_SOLID
 10
0.52095306998264
 20
2.1799019029
 30
0
 11
0.520953071608375
 21
2.17407291563677
 31
0
  0
LINE
  5
285
100
AcDbEntity
  8
SEMA2D
100
AcDbLine
370
9
 62
0
 48
0
  6
_SOLID
 10
0.52095306998264
 20
2.1799019029
 30
0
 11
0.526001120218065
 21
2.18281639793954
 31
0
  0
LINE
  5
286
100
AcDbEntity
  8
SEMA2D
100
AcDbLine
370
9
 62
0
 48
0
  6
_SOLID
 10
0.52095306998264
 20
2.1799019029
 30
0
 11
0.515905019747215
 21
2.17698740786046
 31
0
  0
LINE
  5
287
100
AcDbEntity
  8
SEMA2D
100
AcDbLine
370
9
 62
0
 48
0
  6
_DOT
 10
0.5209530811
 20
2.1400411982
 30
0
 11
0.52095306998264
 21
2.1799019029
 31
0
  0
LINE
  5
288
100
AcDbEntity
  8
SEMA2D
100
AcDbLine
370
9
 62
0
 48
0
  6
_SOLID
 10
0.67692001078264
 20
2.1799019464
 30
0
 11
0.676920009156905
 21
2.18573093366323
 31
0
  0
LINE
  5
289
100
AcDbEntity
  8
SEMA2D
100
AcDbLine
370
9
 62
0
 48
0
  6
_SOLID
 10
0.67692001078264
 20
2.1799019464
 30
0
 11
0.676920012408375
 21
2.17407295913677
 31
0
  0
LINE
  5
28A
100
AcDbEntity
  8
SEMA2D
100
AcDbLine
370
9
 62
0
 48
0
  6
_SOLID
 10
0.67692001078264
 20
2.1799019464
 30
0
 11
0.681968061018065
 21
2.18281644143954
 31
0
  0
LINE
  5
28B
100
AcDbEntity
  8
SEMA2D
100
AcDbLine
370
9
 62
0
 48
0
  6
_SOLID
 10
0.67692001078264
 20
2.1799019464
 30
0
 11
0.671871960547215
 21
2.17698745136046
 31
0
  0
LINE
  5
28C
100
AcDbEntity
  8
SEMA2D
100
AcDbLine
370
9
 62
0
 48
0
  6
_DOT
 10
0.6769200219
 20
2.1400412417
 30
0
 11
0.67692001078264
 21
2.1799019464
 31
0
  0
LINE
  5
28D
100
AcDbEntity
  8
SEMA2D
100
AcDbLine
370
9
 62
0
 48
0
  6
_SOLID
 10
0.529030520279393
 20
2.7352685537
 30
0
 11
0.668842560079393
 21
2.7352685527
 31
0
  0
MTEXT
  5
28E
100
AcDbEntity
  8
SEMATEXT
100
AcDbMText
370
9
 62
0
 10
0.595785618826348
 20
2.73942776944782
 30
0
 40
0.00666169972940482
  1
{\fArial Narrow;14}
 50
-4.09805807066732E-7
 41
0
  7
STANDARD
 71
7
  0
LINE
  5
292
100
AcDbEntity
  8
SEMA2D
100
AcDbLine
370
9
 62
0
 48
0
  6
_SOLID
 10
0.529030520279393
 20
2.7352685537
 30
0
 11
0.529030520321085
 21
2.74109754096323
 31
0
  0
LINE
  5
293
100
AcDbEntity
  8
SEMA2D
100
AcDbLine
370
9
 62
0
 48
0
  6
_SOLID
 10
0.529030520279393
 20
2.7352685537
 30
0
 11
0.529030520237701
 21
2.72943956643677
 31
0
  0
LINE
  5
294
100
AcDbEntity
  8
SEMA2D
100
AcDbLine
370
9
 62
0
 48
0
  6
_SOLID
 10
0.529030520279393
 20
2.7352685537
 30
0
 11
0.534078571348531
 21
2.73818304729551
 31
0
  0
LINE
  5
295
100
AcDbEntity
  8
SEMA2D
100
AcDbLine
370
9
 62
0
 48
0
  6
_SOLID
 10
0.529030520279393
 20
2.7352685537
 30
0
 11
0.523982469210255
 21
2.73235406010449
 31
0
  0
LINE
  5
296
100
AcDbEntity
  8
SEMA2D
100
AcDbLine
370
9
 62
0
 48
0
  6
_DOT
 10
0.52903052
 20
2.6962060642
 30
0
 11
0.529030520279393
 21
2.7352685537
 31
0
  0
LINE
  5
297
100
AcDbEntity
  8
SEMA2D
100
AcDbLine
370
9
 62
0
 48
0
  6
_SOLID
 10
0.668842560079393
 20
2.7352685527
 30
0
 11
0.668842560121085
 21
2.74109753996323
 31
0
  0
LINE
  5
298
100
AcDbEntity
  8
SEMA2D
100
AcDbLine
370
9
 62
0
 48
0
  6
_SOLID
 10
0.668842560079393
 20
2.7352685527
 30
0
 11
0.668842560037701
 21
2.72943956543677
 31
0
  0
LINE
  5
299
100
AcDbEntity
  8
SEMA2D
100
AcDbLine
370
9
 62
0
 48
0
  6
_SOLID
 10
0.668842560079393
 20
2.7352685527
 30
0
 11
0.673890611148531
 21
2.73818304629551
 31
0
  0
LINE
  5
29A
100
AcDbEntity
  8
SEMA2D
100
AcDbLine
370
9
 62
0
 48
0
  6
_SOLID
 10
0.668842560079393
 20
2.7352685527
 30
0
 11
0.663794509010255
 21
2.73235405910449
 31
0
  0
LINE
  5
29B
100
AcDbEntity
  8
SEMA2D
100
AcDbLine
370
9
 62
0
 48
0
  6
_DOT
 10
0.6688425598
 20
2.6962060632
 30
0
 11
0.668842560079393
 21
2.7352685527
 31
0
  0
LINE
  5
29C
100
AcDbEntity
  8
SEMA2D
100
AcDbLine
370
9
 62
0
 48
0
  6
_SOLID
 10
0.4686792103
 20
2.6175331512
 30
0
 11
0.4686792103
 21
2.6676542401
 31
0
  0
MTEXT
  5
29D
100
AcDbEntity
  8
SEMATEXT
100
AcDbMText
370
9
 62
0
 10
0.464519994074712
 20
2.6404930813948
 30
0
 40
0.00666169972940482
  1
{\fArial Narrow;5}
 50
90
 41
0
  7
STANDARD
 71
7
  0
LINE
  5
2A1
100
AcDbEntity
  8
SEMA2D
100
AcDbLine
370
9
 62
0
 48
0
  6
_SOLID
 10
0.4686792103
 20
2.6175331512
 30
0
 11
0.462850223036771
 21
2.6175331512
 31
0
  0
LINE
  5
2A2
100
AcDbEntity
  8
SEMA2D
100
AcDbLine
370
9
 62
0
 48
0
  6
_SOLID
 10
0.4686792103
 20
2.6175331512
 30
0
 11
0.474508197563229
 21
2.6175331512
 31
0
  0
LINE
  5
2A3
100
AcDbEntity
  8
SEMA2D
100
AcDbLine
370
9
 62
0
 48
0
  6
_SOLID
 10
0.4686792103
 20
2.6175331512
 30
0
 11
0.465764716668385
 21
2.62258120224829
 31
0
  0
LINE
  5
2A4
100
AcDbEntity
  8
SEMA2D
100
AcDbLine
370
9
 62
0
 48
0
  6
_SOLID
 10
0.4686792103
 20
2.6175331512
 30
0
 11
0.471593703931615
 21
2.61248510015171
 31
0
  0
LINE
  5
2A5
100
AcDbEntity
  8
SEMA2D
100
AcDbLine
370
9
 62
0
 48
0
  6
_DOT
 10
0.5133184255
 20
2.6175331512
 30
0
 11
0.4686792103
 21
2.6175331512
 31
0
  0
LINE
  5
2A6
100
AcDbEntity
  8
SEMA2D
100
AcDbLine
370
9
 62
0
 48
0
  6
_SOLID
 10
0.4686792103
 20
2.6676542401
 30
0
 11
0.462850223036771
 21
2.6676542401
 31
0
  0
LINE
  5
2A7
100
AcDbEntity
  8
SEMA2D
100
AcDbLine
370
9
 62
0
 48
0
  6
_SOLID
 10
0.4686792103
 20
2.6676542401
 30
0
 11
0.474508197563229
 21
2.6676542401
 31
0
  0
LINE
  5
2A8
100
AcDbEntity
  8
SEMA2D
100
AcDbLine
370
9
 62
0
 48
0
  6
_SOLID
 10
0.4686792103
 20
2.6676542401
 30
0
 11
0.465764716668385
 21
2.67270229114829
 31
0
  0
LINE
  5
2A9
100
AcDbEntity
  8
SEMA2D
100
AcDbLine
370
9
 62
0
 48
0
  6
_SOLID
 10
0.4686792103
 20
2.6676542401
 30
0
 11
0.471593703931615
 21
2.66260618905171
 31
0
  0
LINE
  5
2AA
100
AcDbEntity
  8
SEMA2D
100
AcDbLine
370
9
 62
0
 48
0
  6
_DOT
 10
0.5133184255
 20
2.6676542401
 30
0
 11
0.4686792103
 21
2.6676542401
 31
0
  0
LINE
  5
2AB
100
AcDbEntity
  8
SEMA2D
100
AcDbLine
370
9
 62
0
 48
0
  6
_SOLID
 10
0.543936551648436
 20
2.5780019151
 30
0
 11
0.653936551648436
 21
2.5780019464
 31
0
  0
MTEXT
  5
2AC
100
AcDbEntity
  8
SEMATEXT
100
AcDbMText
370
9
 62
0
 10
0.595785629082156
 20
2.58216114607871
 30
0
 40
0.00666169972940482
  1
{\fArial Narrow;11}
 50
1.63032545970054E-5
 41
0
  7
STANDARD
 71
7
  0
LINE
  5
2B0
100
AcDbEntity
  8
SEMA2D
100
AcDbLine
370
9
 62
0
 48
0
  6
_SOLID
 10
0.543936551648436
 20
2.5780019151
 30
0
 11
0.543936549989824
 21
2.58383090236323
 31
0
  0
LINE
  5
2B1
100
AcDbEntity
  8
SEMA2D
100
AcDbLine
370
9
 62
0
 48
0
  6
_SOLID
 10
0.543936551648436
 20
2.5780019151
 30
0
 11
0.543936553307048
 21
2.57217292783677
 31
0
  0
LINE
  5
2B2
100
AcDbEntity
  8
SEMA2D
100
AcDbLine
370
9
 62
0
 48
0
  6
_SOLID
 10
0.543936551648436
 20
2.5780019151
 30
0
 11
0.548984601867422
 21
2.58091641016802
 31
0
  0
LINE
  5
2B3
100
AcDbEntity
  8
SEMA2D
100
AcDbLine
370
9
 62
0
 48
0
  6
_SOLID
 10
0.543936551648436
 20
2.5780019151
 30
0
 11
0.53888850142945
 21
2.57508742003199
 31
0
  0
LINE
  5
2B4
100
AcDbEntity
  8
SEMA2D
100
AcDbLine
370
9
 62
0
 48
0
  6
_DOT
 10
0.5439365404
 20
2.6175331599
 30
0
 11
0.543936551648436
 21
2.5780019151
 31
0
  0
LINE
  5
2B5
100
AcDbEntity
  8
SEMA2D
100
AcDbLine
370
9
 62
0
 48
0
  6
_SOLID
 10
0.653936551648436
 20
2.5780019464
 30
0
 11
0.653936549989824
 21
2.58383093366323
 31
0
  0
LINE
  5
2B6
100
AcDbEntity
  8
SEMA2D
100
AcDbLine
370
9
 62
0
 48
0
  6
_SOLID
 10
0.653936551648436
 20
2.5780019464
 30
0
 11
0.653936553307048
 21
2.57217295913677
 31
0
  0
LINE
  5
2B7
100
AcDbEntity
  8
SEMA2D
100
AcDbLine
370
9
 62
0
 48
0
  6
_SOLID
 10
0.653936551648436
 20
2.5780019464
 30
0
 11
0.658984601867423
 21
2.58091644146802
 31
0
  0
LINE
  5
2B8
100
AcDbEntity
  8
SEMA2D
100
AcDbLine
370
9
 62
0
 48
0
  6
_SOLID
 10
0.653936551648436
 20
2.5780019464
 30
0
 11
0.64888850142945
 21
2.57508745133199
 31
0
  0
LINE
  5
2B9
100
AcDbEntity
  8
SEMA2D
100
AcDbLine
370
9
 62
0
 48
0
  6
_DOT
 10
0.6539365404
 20
2.6175331912
 30
0
 11
0.653936551648436
 21
2.5780019464
 31
0
  0
LINE
  5
2BA
100
AcDbEntity
  8
SEMA2D
100
AcDbLine
370
9
 62
0
 48
0
  6
_DASHDOT
 10
0.5989365504
 20
2.1400411561
 30
0
 11
0.5989365504
 21
2.0441526223
 31
0
  0
LINE
  5
2BB
100
AcDbEntity
  8
SEMA2D
100
AcDbLine
370
9
 62
0
 48
0
  6
_DASHDOT
 10
0.492015281
 20
2.1400411263
 30
0
 11
0.705857818
 21
2.140041186
 31
0
  0
LINE
  5
2BC
100
AcDbEntity
  8
SEMA2D
100
AcDbLine
370
9
 62
0
 48
0
  6
_SOLID
 10
0.509953439
 20
2.1388322176
 30
0
 11
0.5095332079
 21
2.1371507332
 31
0
  0
ARC
  5
2BD
100
AcDbEntity
  8
SEMA2D
100
AcDbCircle
370
9
 62
0
 48
0
  6
_SOLID
 10
0.5115192137
 20
2.1384523181
 30
0
 40
0.00160070205
100
AcDbArc
 50
90
 51
166.362022287564
  0
LINE
  5
2BE
100
AcDbEntity
  8
SEMA2D
100
AcDbLine
370
9
 62
0
 48
0
  6
_SOLID
 10
0.5081407591
 20
2.1342577369
 30
0
 11
0.5081407591
 21
2.1371494555
 31
0
  0
LINE
  5
2BF
100
AcDbEntity
  8
SEMA2D
100
AcDbLine
370
9
 62
0
 48
0
  6
_SOLID
 10
0.5258450478
 20
2.1342577369
 30
0
 11
0.5258450478
 21
2.1371494555
 31
0
  0
LINE
  5
2C0
100
AcDbEntity
  8
SEMA2D
100
AcDbLine
370
9
 62
0
 48
0
  6
_SOLID
 10
0.5346286843
 20
2.1400411691
 30
0
 11
0.5346286843
 21
2.1387016198
 31
0
  0
LINE
  5
2C1
100
AcDbEntity
  8
SEMA2D
100
AcDbLine
370
9
 62
0
 48
0
  6
_SOLID
 10
0.5370131623
 20
2.110619776
 30
0
 11
0.54001663
 21
2.1123426228
 31
0
  0
ARC
  5
2C2
100
AcDbEntity
  8
SEMA2D
100
AcDbCircle
370
9
 62
0
 48
0
  6
_SOLID
 10
0.66276929
 20
2.1360690332
 30
0
 40
0.0040017551
100
AcDbArc
 50
90
 51
170.28855679894
  0
ARC
  5
2C3
100
AcDbEntity
  8
SEMA2D
100
AcDbCircle
370
9
 62
0
 48
0
  6
_SOLID
 10
0.5351044367
 20
2.1360689965
 30
0
 40
0.0040017551
100
AcDbArc
 50
9.69117345186841
 51
90
  0
LINE
  5
2C4
100
AcDbEntity
  8
SEMA2D
100
AcDbLine
370
9
 62
0
 48
0
  6
_SOLID
 10
0.5878930573
 20
2.0890746346
 30
0
 11
0.6099800609
 21
2.0890746346
 31
0
  0
LINE
  5
2C5
100
AcDbEntity
  8
SEMA2D
100
AcDbLine
370
9
 62
0
 48
0
  6
_SOLID
 10
0.5316189792
 20
2.1342577369
 30
0
 11
0.5081407591
 21
2.1342577369
 31
0
  0
LINE
  5
2C6
100
AcDbEntity
  8
SEMA2D
100
AcDbLine
370
9
 62
0
 48
0
  6
_SOLID
 10
0.6662541215
 20
2.1342577369
 30
0
 11
0.6897323415
 21
2.1342577369
 31
0
  0
LINE
  5
2C7
100
AcDbEntity
  8
SEMA2D
100
AcDbLine
370
9
 62
0
 48
0
  6
_SOLID
 10
0.534212916
 20
2.1371494555
 30
0
 11
0.5081407591
 21
2.1371494555
 31
0
  0
LINE
  5
2C8
100
AcDbEntity
  8
SEMA2D
100
AcDbLine
370
9
 62
0
 48
0
  6
_SOLID
 10
0.6636601848
 20
2.1371494555
 30
0
 11
0.6897323415
 21
2.1371494555
 31
0
  0
LINE
  5
2C9
100
AcDbEntity
  8
SEMA2D
100
AcDbLine
370
9
 62
0
 48
0
  6
_SOLID
 10
0.5098869765
 20
2.1385474658
 30
0
 11
0.5271805346
 21
2.1385467669
 31
0
  0
LINE
  5
2CA
100
AcDbEntity
  8
SEMA2D
100
AcDbLine
370
9
 62
0
 48
0
  6
_SOLID
 10
0.670692566
 20
2.1385467669
 30
0
 11
0.6879861242
 21
2.1385474658
 31
0
  0
LINE
  5
2CB
100
AcDbEntity
  8
SEMA2D
100
AcDbLine
370
9
 62
0
 48
0
  6
_SOLID
 10
0.5290309999
 20
2.1387016198
 30
0
 11
0.5358374258
 21
2.1387016198
 31
0
  0
ARC
  5
2CC
100
AcDbEntity
  8
SEMA2D
100
AcDbCircle
370
9
 62
0
 48
0
  6
_SOLID
 10
0.5358374258
 20
2.1371127635
 30
0
 40
0.00160070205
100
AcDbArc
 50
9.85598352930811
 51
90
  0
LINE
  5
2CD
100
AcDbEntity
  8
SEMA2D
100
AcDbLine
370
9
 62
0
 48
0
  6
_SOLID
 10
0.6632444163
 20
2.1387016198
 30
0
 11
0.6688421007
 21
2.1387016198
 31
0
  0
LINE
  5
2CE
100
AcDbEntity
  8
SEMA2D
100
AcDbLine
370
9
 62
0
 48
0
  6
_SOLID
 10
0.6861018123
 20
2.1400411741
 30
0
 11
0.66276929
 21
2.1400411741
 31
0
  0
LINE
  5
2CF
100
AcDbEntity
  8
SEMA2D
100
AcDbLine
370
9
 62
0
 48
0
  6
_SOLID
 10
0.5115192162
 20
2.1400411745
 30
0
 11
0.5351044431
 21
2.1400411375
 31
0
  0
LINE
  5
2D0
100
AcDbEntity
  8
SEMA2D
100
AcDbLine
370
9
 62
0
 48
0
  6
_SOLID
 10
0.6578564708
 20
2.1123426227
 30
0
 11
0.6608599384
 21
2.110619776
 31
0
  0
LINE
  5
2D1
100
AcDbEntity
  8
SEMA2D
100
AcDbLine
370
9
 62
0
 48
0
  6
_SOLID
 10
0.6632444163
 20
2.1400411741
 30
0
 11
0.6632444163
 21
2.1387016198
 31
0
  0
LINE
  5
2D2
100
AcDbEntity
  8
SEMA2D
100
AcDbLine
370
9
 62
0
 48
0
  6
_SOLID
 10
0.6720280528
 20
2.1371494555
 30
0
 11
0.6720280528
 21
2.1342577369
 31
0
  0
LINE
  5
2D3
100
AcDbEntity
  8
SEMA2D
100
AcDbLine
370
9
 62
0
 48
0
  6
_SOLID
 10
0.6897323415
 20
2.1371494555
 30
0
 11
0.6897323415
 21
2.1342577369
 31
0
  0
LINE
  5
2D4
100
AcDbEntity
  8
SEMA2D
100
AcDbLine
370
9
 62
0
 48
0
  6
_SOLID
 10
0.6867242726
 20
2.139942873
 30
0
 11
0.6866028093
 21
2.1399780041
 31
0
  0
LINE
  5
2D5
100
AcDbEntity
  8
SEMA2D
100
AcDbLine
370
9
 62
0
 48
0
  6
_SOLID
 10
0.6866028093
 20
2.1399780041
 30
0
 11
0.68647924
 21
2.1400055052
 31
0
  0
LINE
  5
2D6
100
AcDbEntity
  8
SEMA2D
100
AcDbLine
370
9
 62
0
 48
0
  6
_SOLID
 10
0.68647924
 20
2.1400055052
 30
0
 11
0.6863541566
 21
2.1400252653
 31
0
  0
LINE
  5
2D7
100
AcDbEntity
  8
SEMA2D
100
AcDbLine
370
9
 62
0
 48
0
  6
_SOLID
 10
0.6863541566
 20
2.1400252653
 30
0
 11
0.6862281797
 21
2.1400371825
 31
0
  0
LINE
  5
2D8
100
AcDbEntity
  8
SEMA2D
100
AcDbLine
370
9
 62
0
 48
0
  6
_SOLID
 10
0.6862281797
 20
2.1400371825
 30
0
 11
0.6861018296
 21
2.1400411741
 31
0
  0
LINE
  5
2D9
100
AcDbEntity
  8
SEMA2D
100
AcDbLine
370
9
 62
0
 48
0
  6
_SOLID
 10
0.6883398928
 20
2.1371507332
 30
0
 11
0.6879654122
 21
2.1386491547
 31
0
  0
ARC
  5
2DA
100
AcDbEntity
  8
SEMA2D
100
AcDbCircle
370
9
 62
0
 48
0
  6
_SOLID
 10
0.5976217135
 20
2.1485802702
 30
0
 40
0.0898688602
100
AcDbArc
 50
189.309602241767
 51
270.836357075148
  0
ARC
  5
2DB
100
AcDbEntity
  8
SEMA2D
100
AcDbCircle
370
9
 62
0
 48
0
  6
_SOLID
 10
0.6003643208
 20
2.148447201
 30
0
 40
0.0897356402
100
AcDbArc
 50
269.086388628923
 51
350.763828193941
  0
ARC
  5
2DC
100
AcDbEntity
  8
SEMA2D
100
AcDbCircle
370
9
 62
0
 48
0
  6
_SOLID
 10
0.6010830946
 20
2.1460212269
 30
0
 40
0.0584765009
100
AcDbArc
 50
278.751308750043
 51
350.739034375474
  0
ARC
  5
2DD
100
AcDbEntity
  8
SEMA2D
100
AcDbCircle
370
9
 62
0
 48
0
  6
_SOLID
 10
0.5967280398
 20
2.1459588817
 30
0
 40
0.058404555
100
AcDbArc
 50
189.21103767016
 51
261.299346049405
  0
ARC
  5
2DE
100
AcDbEntity
  8
SEMA2D
100
AcDbCircle
370
9
 62
0
 48
0
  6
_SOLID
 10
0.5967280398
 20
2.1459588817
 30
0
 40
0.0718655541
100
AcDbArc
 50
189.510909642182
 51
270
  0
ARC
  5
2DF
100
AcDbEntity
  8
SEMA2D
100
AcDbCircle
370
9
 62
0
 48
0
  6
_SOLID
 10
0.5967280398
 20
2.1459588817
 30
0
 40
0.0661829921
100
AcDbArc
 50
190.336879923076
 51
270
  0
ARC
  5
2E0
100
AcDbEntity
  8
SEMA2D
100
AcDbCircle
370
9
 62
0
 48
0
  6
_SOLID
 10
0.5967280398
 20
2.1459588817
 30
0
 40
0.0631466757
100
AcDbArc
 50
188.139129893059
 51
270
  0
ARC
  5
2E1
100
AcDbEntity
  8
SEMA2D
100
AcDbCircle
370
9
 62
0
 48
0
  6
_SOLID
 10
0.5967280398
 20
2.1459588817
 30
0
 40
0.0599436309
100
AcDbArc
 50
188.139129893059
 51
270
  0
ARC
  5
2E2
100
AcDbEntity
  8
SEMA2D
100
AcDbCircle
370
9
 62
0
 48
0
  6
_SOLID
 10
0.5967280398
 20
2.1459588817
 30
0
 40
0.0696569431
100
AcDbArc
 50
201.002488380859
 51
270
  0
LINE
  5
2E3
100
AcDbEntity
  8
SEMA2D
100
AcDbLine
370
9
 62
0
 48
0
  6
_SOLID
 10
0.531698758
 20
2.1213600526
 30
0
 11
0.5258450478
 21
2.1342577369
 31
0
  0
ARC
  5
2E4
100
AcDbEntity
  8
SEMA2D
100
AcDbCircle
370
9
 62
0
 48
0
  6
_SOLID
 10
0.6863538871
 20
2.1384523181
 30
0
 40
0.00160070205
100
AcDbArc
 50
13.6379777124359
 51
90
  0
LINE
  5
2E5
100
AcDbEntity
  8
SEMA2D
100
AcDbLine
370
9
 62
0
 48
0
  6
_SOLID
 10
0.6720280529
 20
2.1342577369
 30
0
 11
0.6720280529
 21
2.1371494555
 31
0
  0
LINE
  5
2E6
100
AcDbEntity
  8
SEMA2D
100
AcDbLine
370
9
 62
0
 48
0
  6
_SOLID
 10
0.6632444164
 20
2.1400411691
 30
0
 11
0.6632444164
 21
2.1387016198
 31
0
  0
LINE
  5
2E7
100
AcDbEntity
  8
SEMA2D
100
AcDbLine
370
9
 62
0
 48
0
  6
_SOLID
 10
0.6608599385
 20
2.110619776
 30
0
 11
0.6578564708
 21
2.1123426228
 31
0
  0
ARC
  5
2E8
100
AcDbEntity
  8
SEMA2D
100
AcDbCircle
370
9
 62
0
 48
0
  6
_SOLID
 10
0.662768664
 20
2.1360689965
 30
0
 40
0.0040017551
100
AcDbArc
 50
90
 51
170.308826548132
  0
LINE
  5
2E9
100
AcDbEntity
  8
SEMA2D
100
AcDbLine
370
9
 62
0
 48
0
  6
_SOLID
 10
0.6688421008
 20
2.1387016198
 30
0
 11
0.6620356749
 21
2.1387016198
 31
0
  0
ARC
  5
2EA
100
AcDbEntity
  8
SEMA2D
100
AcDbCircle
370
9
 62
0
 48
0
  6
_SOLID
 10
0.6620356749
 20
2.1371127635
 30
0
 40
0.00160070205
100
AcDbArc
 50
90
 51
170.144016470692
  0
ARC
  5
2EB
100
AcDbEntity
  8
SEMA2D
100
AcDbCircle
370
9
 62
0
 48
0
  6
_SOLID
 10
0.6011450609
 20
2.1459588817
 30
0
 40
0.0718655541
100
AcDbArc
 50
270
 51
350.489090357818
  0
ARC
  5
2EC
100
AcDbEntity
  8
SEMA2D
100
AcDbCircle
370
9
 62
0
 48
0
  6
_SOLID
 10
0.6011450609
 20
2.1459588817
 30
0
 40
0.0661829921
100
AcDbArc
 50
270
 51
349.663120076924
  0
ARC
  5
2ED
100
AcDbEntity
  8
SEMA2D
100
AcDbCircle
370
9
 62
0
 48
0
  6
_SOLID
 10
0.6011450609
 20
2.1459588817
 30
0
 40
0.0631466757
100
AcDbArc
 50
270
 51
351.860870106941
  0
ARC
  5
2EE
100
AcDbEntity
  8
SEMA2D
100
AcDbCircle
370
9
 62
0
 48
0
  6
_SOLID
 10
0.6011450609
 20
2.1459588817
 30
0
 40
0.0599436309
100
AcDbArc
 50
270
 51
351.860870106941
  0
ARC
  5
2EF
100
AcDbEntity
  8
SEMA2D
100
AcDbCircle
370
9
 62
0
 48
0
  6
_SOLID
 10
0.6011450609
 20
2.1459588817
 30
0
 40
0.0696569431
100
AcDbArc
 50
270
 51
338.997511619141
  0
LINE
  5
2F0
100
AcDbEntity
  8
SEMA2D
100
AcDbLine
370
9
 62
0
 48
0
  6
_SOLID
 10
0.6661743428
 20
2.1213600526
 30
0
 11
0.6720280529
 21
2.1342577369
 31
0
  0
LINE
  5
2F1
100
AcDbEntity
  8
SEMA2D
100
AcDbLine
370
9
 62
0
 48
0
  6
_SOLID
 10
0.6031406384
 20
2.0742516333
 30
0
 11
0.5949552774
 21
2.0742536016
 31
0
  0
ARC
  5
2F2
100
AcDbEntity
  8
SEMA2D
100
AcDbCircle
370
9
 62
0
 48
0
  6
_SOLID
 10
0.5990521207
 20
2.0910595123
 30
0
 40
0.0175416194
100
AcDbArc
 50
256.493840796669
 51
283.478193540579
  0
ARC
  5
2F3
100
AcDbEntity
  8
SEMA2D
100
AcDbCircle
370
9
 62
0
 48
0
  6
_SOLID
 10
0.5989780764
 20
2.0739903302
 30
0
 40
0.0080535527
100
AcDbArc
 50
242.365109380627
 51
297.737894511793
  0
ARC
  5
2F4
100
AcDbEntity
  8
SEMA2D
100
AcDbCircle
370
9
 62
0
 48
0
  6
_SOLID
 10
0.5989225477
 20
2.1353768698
 30
0
 40
0.0696086437
100
AcDbArc
 50
266.982685886239
 51
273.119447805254
  0
LINE
  5
2F5
100
AcDbEntity
  8
SEMA2D
100
AcDbLine
370
9
 62
0
 48
0
  6
_SOLID
 10
0.5271805346
 20
2.1384522801
 30
0
 11
0.5271805346
 21
2.1371494555
 31
0
  0
ARC
  5
2F6
100
AcDbEntity
  8
SEMA2D
100
AcDbCircle
370
9
 62
0
 48
0
  6
_SOLID
 10
0.5287930824
 20
2.1384522801
 30
0
 40
0.00160070205
100
AcDbArc
 50
90
 51
180
  0
LINE
  5
2F7
100
AcDbEntity
  8
SEMA2D
100
AcDbLine
370
9
 62
0
 48
0
  6
_SOLID
 10
0.5346388572
 20
2.1400411382
 30
0
 11
0.5287930819
 21
2.1400411365
 31
0
  0
LINE
  5
2F8
100
AcDbEntity
  8
SEMA2D
100
AcDbLine
370
9
 62
0
 48
0
  6
_SOLID
 10
0.5290309999
 20
2.1387016198
 30
0
 11
0.5287930824
 21
2.1400411365
 31
0
  0
LINE
  5
2F9
100
AcDbEntity
  8
SEMA2D
100
AcDbLine
370
9
 62
0
 48
0
  6
_SOLID
 10
0.5290309999
 20
2.1387016198
 30
0
 11
0.5271805346
 21
2.1371494555
 31
0
  0
LINE
  5
2FA
100
AcDbEntity
  8
SEMA2D
100
AcDbLine
370
9
 62
0
 48
0
  6
_SOLID
 10
0.6707027389
 20
2.1384522801
 30
0
 11
0.6707027389
 21
2.1371494555
 31
0
  0
ARC
  5
2FB
100
AcDbEntity
  8
SEMA2D
100
AcDbCircle
370
9
 62
0
 48
0
  6
_SOLID
 10
0.6690901911
 20
2.1384522801
 30
0
 40
0.00160070205
100
AcDbArc
 50
0
 51
90
  0
LINE
  5
2FC
100
AcDbEntity
  8
SEMA2D
100
AcDbLine
370
9
 62
0
 48
0
  6
_SOLID
 10
0.6632444163
 20
2.1400411382
 30
0
 11
0.6690901916
 21
2.1400411365
 31
0
  0
LINE
  5
2FD
100
AcDbEntity
  8
SEMA2D
100
AcDbLine
370
9
 62
0
 48
0
  6
_SOLID
 10
0.6688522736
 20
2.1387016198
 30
0
 11
0.6690901911
 21
2.1400411365
 31
0
  0
LINE
  5
2FE
100
AcDbEntity
  8
SEMA2D
100
AcDbLine
370
9
 62
0
 48
0
  6
_SOLID
 10
0.6688522736
 20
2.1387016198
 30
0
 11
0.6707027389
 21
2.1371494555
 31
0
  0
LINE
  5
2FF
100
AcDbEntity
  8
SEMA2D
100
AcDbLine
370
9
 62
0
 48
0
  6
_SOLID
 10
0.5967280398
 20
2.0868959353
 30
0
 11
0.6011625461
 21
2.0868959353
 31
0
  0
LINE
  5
300
100
AcDbEntity
  8
SEMA2D
100
AcDbLine
370
9
 62
0
 48
0
  6
_SOLID
 10
0.5967280398
 20
2.0751491676
 30
0
 11
0.6011450609
 21
2.0751491676
 31
0
  0
LINE
  5
301
100
AcDbEntity
  8
SEMA2D
100
AcDbLine
370
9
 62
0
 48
0
  6
_SOLID
 10
0.6011450609
 20
2.0773253299
 30
0
 11
0.5967280398
 21
2.0773253299
 31
0
  0
LINE
  5
302
100
AcDbEntity
  8
SEMA2D
100
AcDbLine
370
9
 62
0
 48
0
  6
_SOLID
 10
0.5967280398
 20
2.080748242
 30
0
 11
0.6011450609
 21
2.080748242
 31
0
  0
LINE
  5
303
100
AcDbEntity
  8
SEMA2D
100
AcDbLine
370
9
 62
0
 48
0
  6
_SOLID
 10
0.5967280398
 20
2.0837399493
 30
0
 11
0.6011450609
 21
2.0837399493
 31
0
  0
ARC
  5
304
100
AcDbEntity
  8
SEMA2D
100
AcDbCircle
370
9
 62
0
 48
0
  6
_SOLID
 10
0.598936559
 20
2.1417470891
 30
0
 40
0.0545866342
100
AcDbArc
 50
258.327843317222
 51
281.672156810859
  0
LINE
  5
305
100
AcDbEntity
  8
SEMA2D
100
AcDbLine
370
9
 62
5
 48
0
  6
_SOLID
 10
0.5121277843
 20
2.0383911141
 30
0
 11
0.5646181197
 21
2.0662190318
 31
0
  0
LINE
  5
306
100
AcDbEntity
  8
SEMA2D
100
AcDbLine
370
9
 62
5
 48
0
  6
_SOLID
 10
0.5121277843
 20
2.0383911141
 30
0
 11
0.5002065522
 21
2.0383911141
 31
0
  0
MTEXT
  5
307
100
AcDbEntity
  8
SEMATEXT
100
AcDbMText
370
9
 62
5
 10
0.444540274437312
 20
2.0383911141
 30
0
 40
0.00666169972940482
  1
{\fArial Narrow;Bogenmass 267 mm}
 50
0
 41
0
  7
STANDARD
 71
7
  0
LINE
  5
30B
100
AcDbEntity
  8
SEMA2D
100
AcDbLine
370
9
 62
92
 48
0
  6
_SOLID
 10
0.7032549826
 20
2.0669086381
 30
0
 11
0.6507646472
 21
2.0947365558
 31
0
  0
LINE
  5
30C
100
AcDbEntity
  8
SEMA2D
100
AcDbLine
370
9
 62
92
 48
0
  6
_SOLID
 10
0.7032549826
 20
2.0669086381
 30
0
 11
0.7151762147
 21
2.0669086381
 31
0
  0
MTEXT
  5
30D
100
AcDbEntity
  8
SEMATEXT
100
AcDbMText
370
9
 62
92
 10
0.7151762147
 20
2.0669086381
 30
0
 40
0.00666169972940482
  1
{\fArial Narrow;Bogenmass 227 mm}
 50
0
 41
0
  7
STANDARD
 71
7
  0
LINE
  5
311
100
AcDbEntity
  8
SEMA2D
100
AcDbLine
370
9
 62
0
 48
0
  6
_SOLID
 10
0.2307397164
 20
2.2936171937
 30
0
 11
0.2273612257
 21
2.2309354951
 31
0
  0
ARC
  5
312
100
AcDbEntity
  8
SEMA2D
100
AcDbCircle
370
9
 62
0
 48
0
  6
_SOLID
 10
0.2317384363
 20
2.2936172627
 30
0
 40
0.001
100
AcDbArc
 50
90
 51
180
  0
LINE
  5
313
100
AcDbEntity
  8
SEMA2D
100
AcDbLine
370
9
 62
0
 48
0
  6
_SOLID
 10
0.2339508216
 20
2.2965052585
 30
0
 11
0.2305804632
 21
2.2332477061
 31
0
  0
ARC
  5
314
100
AcDbEntity
  8
SEMA2D
100
AcDbCircle
370
9
 62
0
 48
0
  6
_SOLID
 10
0.2285832959
 20
2.2333541151
 30
0
 40
0.002
100
AcDbArc
 50
285.627751094527
 51
-3.04983178913641
  0
LINE
  5
315
100
AcDbEntity
  8
SEMA2D
100
AcDbLine
370
9
 62
0
 48
0
  6
_SOLID
 10
0.2273612257
 20
2.2309354951
 30
0
 11
0.2291220685
 21
2.2314280507
 31
0
  0
LINE
  5
316
100
AcDbEntity
  8
SEMA2D
100
AcDbLine
370
9
 62
0
 48
0
  6
_SOLID
 10
0.5146314691
 20
2.6203756511
 30
0
 11
0.5150277363
 21
2.6187220605
 31
0
  0
ARC
  5
317
100
AcDbEntity
  8
SEMA2D
100
AcDbCircle
370
9
 62
0
 48
0
  6
_SOLID
 10
0.5165042218
 20
2.619095658
 30
0
 40
0.0015415455
100
AcDbArc
 50
194.199608821612
 51
270
  0
LINE
  5
318
100
AcDbEntity
  8
SEMA2D
100
AcDbLine
370
9
 62
0
 48
0
  6
_SOLID
 10
0.5133184255
 20
2.6232206569
 30
0
 11
0.5133184255
 21
2.6203769077
 31
0
  0
LINE
  5
319
100
AcDbEntity
  8
SEMA2D
100
AcDbLine
370
9
 62
0
 48
0
  6
_SOLID
 10
0.5168021593
 20
2.6175331584
 30
0
 11
0.5168021593
 21
2.6188505137
 31
0
  0
LINE
  5
31A
100
AcDbEntity
  8
SEMA2D
100
AcDbLine
370
9
 62
0
 48
0
  6
_SOLID
 10
0.5219381871
 20
2.6175331584
 30
0
 11
0.5219381871
 21
2.6188504914
 31
0
  0
LINE
  5
31B
100
AcDbEntity
  8
SEMA2D
100
AcDbLine
370
9
 62
0
 48
0
  6
_DASHDOT
 10
0.4981125126
 20
2.6175331469
 30
0
 11
0.6997605687
 21
2.6175332042
 31
0
  0
LINE
  5
31C
100
AcDbEntity
  8
SEMA2D
100
AcDbLine
370
9
 62
0
 48
0
  6
_SOLID
 10
0.5219381871
 20
2.6175331584
 30
0
 11
0.5386904715
 21
2.6175331583
 31
0
  0
LINE
  5
31D
100
AcDbEntity
  8
SEMA2D
100
AcDbLine
370
9
 62
0
 48
0
  6
_SOLID
 10
0.6810709952
 20
2.6188504902
 30
0
 11
0.6756162232
 21
2.6188504902
 31
0
  0
ARC
  5
31E
100
AcDbEntity
  8
SEMA2D
100
AcDbCircle
370
9
 62
0
 48
0
  6
_SOLID
 10
0.6756162232
 20
2.620789004
 30
0
 40
0.0019125171
100
AcDbArc
 50
180
 51
270
  0
LINE
  5
31F
100
AcDbEntity
  8
SEMA2D
100
AcDbLine
370
9
 62
0
 48
0
  6
_SOLID
 10
0.5219381871
 20
2.6188504914
 30
0
 11
0.5168020845
 21
2.6188504915
 31
0
  0
LINE
  5
320
100
AcDbEntity
  8
SEMA2D
100
AcDbLine
370
9
 62
0
 48
0
  6
_SOLID
 10
0.6591829061
 20
2.6175331934
 30
0
 11
0.6759348927
 21
2.6175331657
 31
0
  0
ARC
  5
321
100
AcDbEntity
  8
SEMA2D
100
AcDbCircle
370
9
 62
0
 48
0
  6
_SOLID
 10
0.6813688579
 20
2.6190956563
 30
0
 40
0.0015415455
100
AcDbArc
 50
258.996870631394
 51
345.800392665811
  0
LINE
  5
322
100
AcDbEntity
  8
SEMA2D
100
AcDbLine
370
9
 62
0
 48
0
  6
_SOLID
 10
0.5280461958
 20
2.6433456146
 30
0
 11
0.5211232334
 21
2.6465318453
 31
0
  0
LINE
  5
323
100
AcDbEntity
  8
SEMA2D
100
AcDbLine
370
9
 62
0
 48
0
  6
_SOLID
 10
0.5133184255
 20
2.6203769077
 30
0
 11
0.5212913435
 21
2.6203769076
 31
0
  0
LINE
  5
324
100
AcDbEntity
  8
SEMA2D
100
AcDbLine
370
9
 62
0
 48
0
  6
_SOLID
 10
0.6765817363
 20
2.6203769064
 30
0
 11
0.6845546543
 21
2.6203769064
 31
0
  0
LINE
  5
325
100
AcDbEntity
  8
SEMA2D
100
AcDbLine
370
9
 62
0
 48
0
  6
_SOLID
 10
0.6845546543
 20
2.6232206556
 30
0
 11
0.6790793292
 21
2.6232206557
 31
0
  0
LINE
  5
326
100
AcDbEntity
  8
SEMA2D
100
AcDbLine
370
9
 62
0
 48
0
  6
_SOLID
 10
0.5133184255
 20
2.6232206569
 30
0
 11
0.5187937505
 21
2.6232206569
 31
0
  0
LINE
  5
327
100
AcDbEntity
  8
SEMA2D
100
AcDbLine
370
9
 62
0
 48
0
  6
_SOLID
 10
0.5693936206
 20
2.6676542381
 30
0
 11
0.5693936206
 21
2.669276676
 31
0
  0
LINE
  5
328
100
AcDbEntity
  8
SEMA2D
100
AcDbLine
370
9
 62
0
 48
0
  6
_SOLID
 10
0.5720840266
 20
2.665435286
 30
0
 11
0.5726905728
 21
2.6657282212
 31
0
  0
LINE
  5
329
100
AcDbEntity
  8
SEMA2D
100
AcDbLine
370
9
 62
0
 48
0
  6
_SOLID
 10
0.5910883057
 20
2.6676542382
 30
0
 11
0.5910883057
 21
2.6692766758
 31
0
  0
LINE
  5
32A
100
AcDbEntity
  8
SEMA2D
100
AcDbLine
370
9
 62
0
 48
0
  6
_SOLID
 10
0.5962842119
 20
2.6687206436
 30
0
 11
0.5962842119
 21
2.670343082
 31
0
  0
LINE
  5
32B
100
AcDbEntity
  8
SEMA2D
100
AcDbLine
370
9
 62
0
 48
0
  6
_DASHDOT
 10
0.5989365399
 20
2.6175331755
 30
0
 11
0.5989365399
 21
2.7118310595
 31
0
  0
LINE
  5
32C
100
AcDbEntity
  8
SEMA2D
100
AcDbLine
370
9
 62
0
 48
0
  6
_SOLID
 10
0.6015888679
 20
2.6687206441
 30
0
 11
0.6015888679
 21
2.6703430817
 31
0
  0
LINE
  5
32D
100
AcDbEntity
  8
SEMA2D
100
AcDbLine
370
9
 62
0
 48
0
  6
_SOLID
 10
0.6067847741
 20
2.6676542394
 30
0
 11
0.6067847741
 21
2.6692766757
 31
0
  0
LINE
  5
32E
100
AcDbEntity
  8
SEMA2D
100
AcDbLine
370
9
 62
0
 48
0
  6
_SOLID
 10
0.587676961
 20
2.6676542382
 30
0
 11
0.5650397317
 21
2.6676542384
 31
0
  0
LINE
  5
32F
100
AcDbEntity
  8
SEMA2D
100
AcDbLine
370
9
 62
0
 48
0
  6
_SOLID
 10
0.6101961189
 20
2.667654238
 30
0
 11
0.587676961
 21
2.6676542382
 31
0
  0
LINE
  5
330
100
AcDbEntity
  8
SEMA2D
100
AcDbLine
370
9
 62
0
 48
0
  6
_SOLID
 10
0.6328333473
 20
2.6676542379
 30
0
 11
0.6101961189
 21
2.667654238
 31
0
  0
LINE
  5
331
100
AcDbEntity
  8
SEMA2D
100
AcDbLine
370
9
 62
0
 48
0
  6
_SOLID
 10
0.6015888373
 20
2.6687206441
 30
0
 11
0.5962842424
 21
2.6687206441
 31
0
  0
LINE
  5
332
100
AcDbEntity
  8
SEMA2D
100
AcDbLine
370
9
 62
0
 48
0
  6
_SOLID
 10
0.6284794845
 20
2.6692766755
 30
0
 11
0.6067847741
 21
2.6692766757
 31
0
  0
LINE
  5
333
100
AcDbEntity
  8
SEMA2D
100
AcDbLine
370
9
 62
0
 48
0
  6
_SOLID
 10
0.5910883057
 20
2.6692766758
 30
0
 11
0.5693935953
 21
2.669276676
 31
0
  0
LINE
  5
334
100
AcDbEntity
  8
SEMA2D
100
AcDbLine
370
9
 62
0
 48
0
  6
_SOLID
 10
0.6015888679
 20
2.6703430817
 30
0
 11
0.5962842119
 21
2.6703430817
 31
0
  0
LINE
  5
335
100
AcDbEntity
  8
SEMA2D
100
AcDbLine
370
9
 62
0
 48
0
  6
_SOLID
 10
0.6284794593
 20
2.6676542379
 30
0
 11
0.6284794593
 21
2.6692766755
 31
0
  0
LINE
  5
336
100
AcDbEntity
  8
SEMA2D
100
AcDbLine
370
9
 62
0
 48
0
  6
_SOLID
 10
0.6698268841
 20
2.6433456135
 30
0
 11
0.6767269055
 21
2.6465212857
 31
0
  0
LINE
  5
337
100
AcDbEntity
  8
SEMA2D
100
AcDbLine
370
9
 62
0
 48
0
  6
_SOLID
 10
0.6759348927
 20
2.6175331581
 30
0
 11
0.6759348927
 21
2.6188504902
 31
0
  0
LINE
  5
338
100
AcDbEntity
  8
SEMA2D
100
AcDbLine
370
9
 62
0
 48
0
  6
_SOLID
 10
0.6810709205
 20
2.6175331572
 30
0
 11
0.6810709205
 21
2.6188504902
 31
0
  0
LINE
  5
339
100
AcDbEntity
  8
SEMA2D
100
AcDbLine
370
9
 62
0
 48
0
  6
_SOLID
 10
0.6845546543
 20
2.6203769064
 30
0
 11
0.6845546543
 21
2.6232206556
 31
0
  0
LINE
  5
33A
100
AcDbEntity
  8
SEMA2D
100
AcDbLine
370
9
 62
0
 48
0
  6
_SOLID
 10
0.6832416107
 20
2.6203756498
 30
0
 11
0.6828453435
 21
2.6187220588
 31
0
  0
LINE
  5
33B
100
AcDbEntity
  8
SEMA2D
100
AcDbLine
370
9
 62
0
 48
0
  6
_SOLID
 10
0.6810709952
 20
2.6188504902
 30
0
 11
0.6832416107
 21
2.6203756498
 31
0
  0
LINE
  5
33C
100
AcDbEntity
  8
SEMA2D
100
AcDbLine
370
9
 62
0
 48
0
  6
_SOLID
 10
0.5168020845
 20
2.6188504915
 30
0
 11
0.5146314691
 21
2.6203756511
 31
0
  0
ARC
  5
33D
100
AcDbEntity
  8
SEMA2D
100
AcDbCircle
370
9
 62
0
 48
0
  6
_SOLID
 10
0.6006597457
 20
2.6114070547
 30
0
 40
0.0555329253
100
AcDbArc
 50
9.33568226376133
 51
80.111889921074
  0
ARC
  5
33E
100
AcDbEntity
  8
SEMA2D
100
AcDbCircle
370
9
 62
0
 48
0
  6
_SOLID
 10
0.5972133342
 20
2.6114070547
 30
0
 40
0.0555329253
100
AcDbArc
 50
9.33568226376133
 51
80.111889921074
  0
ARC
  5
33F
100
AcDbEntity
  8
SEMA2D
100
AcDbCircle
370
9
 62
0
 48
0
  6
_SOLID
 10
0.6325851302
 20
2.6462769412
 30
0
 40
0.0208001541
100
AcDbArc
 50
47.2132907845483
 51
89.3164392219393
  0
ARC
  5
340
100
AcDbEntity
  8
SEMA2D
100
AcDbCircle
370
9
 62
0
 48
0
  6
_SOLID
 10
0.6244821061
 20
2.6462822235
 30
0
 40
0.0207895048
100
AcDbArc
 50
55.06010688831
 51
85.7960912444303
  0
ARC
  5
341
100
AcDbEntity
  8
SEMA2D
100
AcDbCircle
370
9
 62
0
 48
0
  6
_SOLID
 10
0.5734220964
 20
2.6462192219
 30
0
 40
0.0208575923
100
AcDbArc
 50
91.2644573587151
 51
124.91351746089
  0
ARC
  5
342
100
AcDbEntity
  8
SEMA2D
100
AcDbCircle
370
9
 62
0
 48
0
  6
_SOLID
 10
0.5653226119
 20
2.6462079715
 30
0
 40
0.0208729678
100
AcDbArc
 50
90.7765229386366
 51
132.731385153054
  0
ARC
  5
343
100
AcDbEntity
  8
SEMA2D
100
AcDbCircle
370
9
 62
0
 48
0
  6
_SOLID
 10
0.6002297164
 20
2.6092012839
 30
0
 40
0.0846811199
100
AcDbArc
 50
9.27283090046454
 51
90.8769522239376
  0
ARC
  5
344
100
AcDbEntity
  8
SEMA2D
100
AcDbCircle
370
9
 62
0
 48
0
  6
_SOLID
 10
0.5975370875
 20
2.6093316588
 30
0
 40
0.0845558573
100
AcDbArc
 50
89.0536253876748
 51
170.800415351181
  0
ARC
  5
345
100
AcDbEntity
  8
SEMA2D
100
AcDbCircle
370
9
 62
0
 48
0
  6
_SOLID
 10
0.6002297164
 20
2.6092012839
 30
0
 40
0.0771226383
100
AcDbArc
 50
8.10689692077996
 51
90
  0
ARC
  5
346
100
AcDbEntity
  8
SEMA2D
100
AcDbCircle
370
9
 62
0
 48
0
  6
_SOLID
 10
0.6002297164
 20
2.6092012839
 30
0
 40
0.0800147927
100
AcDbArc
 50
9.81669489765728
 51
90
  0
ARC
  5
347
100
AcDbEntity
  8
SEMA2D
100
AcDbCircle
370
9
 62
0
 48
0
  6
_SOLID
 10
0.6759348927
 20
2.6214394472
 30
0
 40
0.0038538637
100
AcDbArc
 50
191.760113738504
 51
270
  0
LINE
  5
348
100
AcDbEntity
  8
SEMA2D
100
AcDbLine
370
9
 62
0
 48
0
  6
_SOLID
 10
0.6554571309
 20
2.6206637927
 30
0
 11
0.6722091115
 21
2.6206637926
 31
0
  0
LINE
  5
349
100
AcDbEntity
  8
SEMA2D
100
AcDbLine
370
9
 62
0
 48
0
  6
_SOLID
 10
0.6722091115
 20
2.6206637974
 30
0
 11
0.6737297029
 21
2.6206637974
 31
0
  0
ARC
  5
34A
100
AcDbEntity
  8
SEMA2D
100
AcDbCircle
370
9
 62
0
 48
0
  6
_SOLID
 10
0.6002297164
 20
2.6092012839
 30
0
 40
0.0743387668
100
AcDbArc
 50
8.7227314174864
 51
90
  0
ARC
  5
34B
100
AcDbEntity
  8
SEMA2D
100
AcDbCircle
370
9
 62
0
 48
0
  6
_SOLID
 10
0.5976433634
 20
2.6092012839
 30
0
 40
0.0771226383
100
AcDbArc
 50
8.10689692077996
 51
90
  0
ARC
  5
34C
100
AcDbEntity
  8
SEMA2D
100
AcDbCircle
370
9
 62
0
 48
0
  6
_SOLID
 10
0.5976433634
 20
2.6092012839
 30
0
 40
0.0800147927
100
AcDbArc
 50
9.81669489765728
 51
90
  0
ARC
  5
34D
100
AcDbEntity
  8
SEMA2D
100
AcDbCircle
370
9
 62
0
 48
0
  6
_SOLID
 10
0.5976433634
 20
2.6092012839
 30
0
 40
0.0743387668
100
AcDbArc
 50
8.7227314174864
 51
90
  0
ARC
  5
34E
100
AcDbEntity
  8
SEMA2D
100
AcDbCircle
370
9
 62
0
 48
0
  6
_SOLID
 10
0.5222568566
 20
2.6207890052
 30
0
 40
0.0019125171
100
AcDbArc
 50
270
 51
0
  0
ARC
  5
34F
100
AcDbEntity
  8
SEMA2D
100
AcDbCircle
370
9
 62
0
 48
0
  6
_SOLID
 10
0.5219381871
 20
2.6214394484
 30
0
 40
0.0038538637
100
AcDbArc
 50
270
 51
348.239886261496
  0
LINE
  5
350
100
AcDbEntity
  8
SEMA2D
100
AcDbLine
370
9
 62
0
 48
0
  6
_SOLID
 10
0.5256639684
 20
2.6206637986
 30
0
 11
0.524143377
 21
2.6206637986
 31
0
  0
ARC
  5
351
100
AcDbEntity
  8
SEMA2D
100
AcDbCircle
370
9
 62
0
 48
0
  6
_SOLID
 10
0.5989365399
 20
2.6103965444
 30
0
 40
0.0692894462
100
AcDbArc
 50
46.4066483823984
 51
133.593351674304
  0
ARC
  5
352
100
AcDbEntity
  8
SEMA2D
100
AcDbCircle
370
9
 62
0
 48
0
  6
_SOLID
 10
0.5989365399
 20
2.6054369527
 30
0
 40
0.0687939456
100
AcDbArc
 50
64.5679066598151
 51
115.432093340185
  0
ARC
  5
353
100
AcDbEntity
  8
SEMA2D
100
AcDbCircle
370
9
 62
0
 48
0
  6
_SOLID
 10
0.6308364011
 20
2.6478235971
 30
0
 40
0.0210102966
100
AcDbArc
 50
40.9126319751794
 51
96.4409476614144
  0
ARC
  5
354
100
AcDbEntity
  8
SEMA2D
100
AcDbCircle
370
9
 62
0
 48
0
  6
_SOLID
 10
0.5674928561
 20
2.6466227538
 30
0
 40
0.0221281004
100
AcDbArc
 50
85.0723875765214
 51
137.574032831815
  0
LINE
  5
355
100
AcDbEntity
  8
SEMA2D
100
AcDbLine
370
9
 62
0
 48
0
  6
_SOLID
 10
0.6759348927
 20
2.6175331982
 30
0
 11
0.6810709205
 21
2.6175331997
 31
0
  0
LINE
  5
356
100
AcDbEntity
  8
SEMA2D
100
AcDbLine
370
9
 62
0
 48
0
  6
_SOLID
 10
0.5165042218
 20
2.6175331584
 30
0
 11
0.5219381871
 21
2.61753316
 31
0
  0
LINE
  5
357
100
AcDbEntity
  8
SEMA2D
100
AcDbLine
370
9
 62
0
 48
0
  6
_SOLID
 10
0.5976433634
 20
2.6840506987
 30
0
 11
0.6002297164
 21
2.6840506987
 31
0
  0
LINE
  5
358
100
AcDbEntity
  8
SEMA2D
100
AcDbLine
370
9
 62
0
 48
0
  6
_SOLID
 10
0.6002297164
 20
2.6855888625
 30
0
 11
0.5976433634
 21
2.6855888625
 31
0
  0
LINE
  5
359
100
AcDbEntity
  8
SEMA2D
100
AcDbLine
370
9
 62
0
 48
0
  6
_SOLID
 10
0.6002297164
 20
2.6884494588
 30
0
 11
0.5976433634
 21
2.6884494588
 31
0
  0
LINE
  5
35A
100
AcDbEntity
  8
SEMA2D
100
AcDbLine
370
9
 62
0
 48
0
  6
_SOLID
 10
0.6002297164
 20
2.6914213223
 30
0
 11
0.5976433634
 21
2.6914213223
 31
0
  0
LINE
  5
35B
100
AcDbEntity
  8
SEMA2D
100
AcDbLine
370
9
 62
5
 48
0
  6
_SOLID
 10
0.4989808914
 20
2.6917955018
 30
0
 11
0.5484779384
 21
2.664429208
 31
0
  0
LINE
  5
35C
100
AcDbEntity
  8
SEMA2D
100
AcDbLine
370
9
 62
5
 48
0
  6
_SOLID
 10
0.4989808914
 20
2.6917955018
 30
0
 11
0.4877394737
 21
2.6917955019
 31
0
  0
MTEXT
  5
35D
100
AcDbEntity
  8
SEMATEXT
100
AcDbMText
370
9
 62
5
 10
0.432073195937312
 20
2.69179550233363
 30
0
 40
0.00666169972940482
  1
{\fArial Narrow;Bogenmass 213 mm}
 50
-4.463222751383E-7
 41
0
  7
STANDARD
 71
7
  0
LINE
  5
361
100
AcDbEntity
  8
SEMA2D
100
AcDbLine
370
9
 62
92
 48
0
  6
_SOLID
 10
0.6706834227
 20
2.6917955005
 30
0
 11
0.6211863757
 21
2.6644292074
 31
0
  0
LINE
  5
362
100
AcDbEntity
  8
SEMA2D
100
AcDbLine
370
9
 62
92
 48
0
  6
_SOLID
 10
0.6706834227
 20
2.6917955005
 30
0
 11
0.6819248404
 21
2.6917955004
 31
0
  0
MTEXT
  5
363
100
AcDbEntity
  8
SEMATEXT
100
AcDbMText
370
9
 62
92
 10
0.6819248404
 20
2.6917955004
 30
0
 40
0.00666169972940482
  1
{\fArial Narrow;Bogenmass 164 mm}
 50
-4.463222751383E-7
 41
0
  7
STANDARD
 71
7
  0
VIEWPORT
  5
37E
100
AcDbEntity
 67
1
  8
0
100
AcDbViewport
370
-1
 48
0
 10
0
 20
0
 30
0
 40
-2E20
 41
-2E20
 68
1
 69
1
 12
0
 22
0
 32
0
 16
0
 26
0
 36
1
 17
0
 27
0
 37
0
 42
50
 43
0
 44
0
 45
-2E20
 51
0
 90
32800
340
0
  0
ENDSEC
  0
SECTION
  2
OBJECTS
  0
DICTIONARY
  5
37F
100
AcDbDictionary
  3
ACAD_GROUP
350
380
  3
ACAD_MATERIAL
350
381
  3
ACAD_WIPEOUT_VARS
350
382
  3
ACAD_MLINESTYLE
350
383
  3
ACAD_LAYOUT
350
384
  0
DICTIONARY
  5
380
100
AcDbDictionary
  0
DICTIONARY
  5
381
100
AcDbDictionary
  0
WIPEOUTVARIABLES
  5
382
100
AcDbWipeoutVariables
 70
1
  0
DICTIONARY
  5
383
100
AcDbDictionary
  3
STANDARD
350
385
  0
MLINESTYLE
  5
385
100
AcDbMlineStyle
  2
STANDARD
 70
0
  3

 62
256
 51
90
 52
90
 71
2
 49
0.5
 62
256
  6
ByLayer
 49
-0.5
 62
256
  6
ByLayer
  0
DICTIONARY
  5
384
100
AcDbDictionary
  3
Model
350
367
  3
Layout1
350
368
  0
LAYOUT
  5
367
100
AcDbPlotSettings
100
AcDbLayout
  1
Model
 70
1
 71
1
 10
0.1895091078
 20
2.01449078943677
 11
0.795418990163229
 21
2.74614339447137
 12
0
 22
0
 32
0
 14
0.1895091078
 24
2.01449078943677
 34
0
 15
0.795418990163229
 25
2.74614339447137
 35
0
146
0
 13
0
 23
0
 33
0
 16
1
 26
0
 36
0
 17
0
 27
1
 37
0
 76
0
330
36C
  0
LAYOUT
  5
368
100
AcDbPlotSettings
100
AcDbLayout
  1
Layout1
 70
1
 71
2
 10
1E20
 20
1E20
 11
-1E20
 21
-1E20
 12
0
 22
0
 32
0
 14
1E20
 24
1E20
 34
1E20
 15
-1E20
 25
-1E20
 35
-1E20
146
0
 13
0
 23
0
 33
0
 16
1
 26
0
 36
0
 17
0
 27
1
 37
0
 76
0
330
36D
  0
ENDSEC
  0
EOF
