999
Created by Soft Gold Ltd. www.cadsofttools.com
999

  0
SECTION
  2
HEADER
  9
$ACADVER
  1
AC1015
  9
$CLAYER
  8
0
  9
$CELTYPE
  6
BYLAYER
  9
$CELTSCALE
 40
1
  9
$CELWEIGHT
370
-1
  9
$DIMSTYLE
  2
STANDARD
  9
$DIMALT
 70
0
  9
$DIMALTF
 40
1
  9
$DIMAPOST
  1

  9
$DIMASZ
 40
0.18
  9
$DIMCLRD
 70
0
  9
$DIMCLRE
 70
0
  9
$DIMCLRT
 70
0
  9
$DIMEXE
 40
0.18
  9
$DIMEXO
 40
0.0625
  9
$DIMGAP
 40
0.0625
  9
$DIMLFAC
 40
1
  9
$DIMDEC
 70
4
  9
$DIMTAD
 70
0
  9
$DIMTIH
 70
1
  9
$DIMTIX
 70
0
  9
$DIMTOH
 70
1
  9
$DIMPOST
  1

  9
$DIMBLK
  1
_CLOSEDFILLED
  9
$DIMBLK1
  1

  9
$DIMBLK2
  1

  9
$DIMLDRBLK
  1

  9
$DIMTXT
 40
0.18
  9
$DIMTXSTY
  7
STANDARD
  9
$TEXTSIZE
 40
0.18
  9
$TEXTSTYLE
  7
STANDARD
  9
$HANDSEED
  5
000000000000043D
  9
$FILLETRAD
 40
0.5
  9
$INSUNITS
 70
4
  9
$LIMMIN
 10
0.0531686861214479
 20
1.80941172713511
  9
$LIMMAX
 10
0.913166599642058
 20
2.876707909784
  9
$LTSCALE
 40
1
  9
$MEASUREMENT
 70
0
  9
$PDMODE
 70
0
  9
$PDSIZE
 40
0
  9
$TILEMODE
 70
1
  9
$UCSORG
 10
0
 20
0
 30
0
  9
$UCSXDIR
 10
1
 20
0
 30
0
  9
$UCSYDIR
 10
0
 20
1
 30
0
  0
ENDSEC
  0
SECTION
  2
CLASSES
  0
CLASS
  1
IMAGE
  2
AcDbRasterImage
  3
ISM
 90
2175
280
0
281
1
  0
CLASS
  1
IMAGEDEF
  2
AcDbRasterImageDef
  3
ISM
 90
0
280
0
281
0
  0
CLASS
  1
WIPEOUT
  2
AcDbWipeout
  3
"WipeOut"
 90
2175
280
0
281
1
  0
CLASS
  1
WIPEOUTVARIABLES
  2
AcDbWipeoutVariables
  3
"WipeOut"
 90
0
280
0
281
0
  0
CLASS
  1
MPOLYGON
  2
AcDbMPolygon
  3
"AcMPolygonObj15"
 90
3071
280
0
281
1
  0
ENDSEC
  0
SECTION
  2
TABLES
  0
TABLE
  2
APPID
  5
41F
100
AcDbSymbolTable
  0
APPID
  5
420
100
AcDbSymbolTableRecord
100
AcDbRegAppTableRecord
  2
ACAD
 70
0
  0
ENDTAB
  0
TABLE
  2
BLOCK_RECORD
  5
421
100
AcDbSymbolTable
  0
BLOCK_RECORD
  5
422
100
AcDbSymbolTableRecord
100
AcDbBlockTableRecord
  2
*MODEL_SPACE
  0
BLOCK_RECORD
  5
423
100
AcDbSymbolTableRecord
100
AcDbBlockTableRecord
  2
*PAPER_SPACE
  0
ENDTAB
  0
TABLE
  2
STYLE
  5
424
100
AcDbSymbolTable
  0
STYLE
  5
294
100
AcDbSymbolTableRecord
100
AcDbTextStyleTableRecord
  2
STANDARD
 70
0
 40
0
 41
1
 50
0
 71
0
 42
2.5
  3
txt
  4

  0
ENDTAB
  0
TABLE
  2
LTYPE
  5
425
100
AcDbSymbolTable
  0
LTYPE
  5
1
100
AcDbSymbolTableRecord
100
AcDbLinetypeTableRecord
  2
_SOLID
 70
0
  3
_.
 72
65
 73
2
 40
5
 49
5
 74
0
 49
0
 74
0
  0
LTYPE
  5
2
100
AcDbSymbolTableRecord
100
AcDbLinetypeTableRecord
  2
_DASH
 70
0
  3
_ 
 72
65
 73
2
 40
7
 49
5
 74
0
 49
-2
 74
0
  0
LTYPE
  5
3
100
AcDbSymbolTableRecord
100
AcDbLinetypeTableRecord
  2
_DOT
 70
0
  3
_ 
 72
65
 73
2
 40
4
 49
2
 74
0
 49
-2
 74
0
  0
LTYPE
  5
4
100
AcDbSymbolTableRecord
100
AcDbLinetypeTableRecord
  2
_DASHDOT
 70
0
  3
_ _ 
 72
65
 73
4
 40
11
 49
5
 74
0
 49
-2
 74
0
 49
2
 74
0
 49
-2
 74
0
  0
LTYPE
  5
5
100
AcDbSymbolTableRecord
100
AcDbLinetypeTableRecord
  2
_DASHDOTDOT
 70
0
  3
_ _ _ 
 72
65
 73
6
 40
15
 49
5
 74
0
 49
-2
 74
0
 49
2
 74
0
 49
-2
 74
0
 49
2
 74
0
 49
-2
 74
0
  0
LTYPE
  5
6
100
AcDbSymbolTableRecord
100
AcDbLinetypeTableRecord
  2
ISO128-20-02
 70
0
  3
_ 
 72
65
 73
2
 40
15
 49
12
 74
0
 49
-3
 74
0
  0
LTYPE
  5
7
100
AcDbSymbolTableRecord
100
AcDbLinetypeTableRecord
  2
ISO128-20-03
 70
0
  3
_ 
 72
65
 73
2
 40
30
 49
12
 74
0
 49
-18
 74
0
  0
LTYPE
  5
8
100
AcDbSymbolTableRecord
100
AcDbLinetypeTableRecord
  2
ISO128-20-04
 70
0
  3
_ . 
 72
65
 73
4
 40
30
 49
24
 74
0
 49
-3
 74
0
 49
0
 74
0
 49
-3
 74
0
  0
LTYPE
  5
9
100
AcDbSymbolTableRecord
100
AcDbLinetypeTableRecord
  2
ISO128-20-05
 70
0
  3
_ . . 
 72
65
 73
6
 40
33
 49
24
 74
0
 49
-3
 74
0
 49
0
 74
0
 49
-3
 74
0
 49
0
 74
0
 49
-3
 74
0
  0
LTYPE
  5
A
100
AcDbSymbolTableRecord
100
AcDbLinetypeTableRecord
  2
ISO128-20-06
 70
0
  3
_ . . . 
 72
65
 73
8
 40
36
 49
24
 74
0
 49
-3
 74
0
 49
0
 74
0
 49
-3
 74
0
 49
0
 74
0
 49
-3
 74
0
 49
0
 74
0
 49
-3
 74
0
  0
LTYPE
  5
B
100
AcDbSymbolTableRecord
100
AcDbLinetypeTableRecord
  2
ISO128-20-07
 70
0
  3
. 
 72
65
 73
2
 40
3
 49
0
 74
0
 49
-3
 74
0
  0
LTYPE
  5
C
100
AcDbSymbolTableRecord
100
AcDbLinetypeTableRecord
  2
ISO128-20-08
 70
0
  3
_ _ 
 72
65
 73
4
 40
36
 49
24
 74
0
 49
-3
 74
0
 49
6
 74
0
 49
-3
 74
0
  0
LTYPE
  5
D
100
AcDbSymbolTableRecord
100
AcDbLinetypeTableRecord
  2
ISO128-20-09
 70
0
  3
_ _ _ 
 72
65
 73
6
 40
45
 49
24
 74
0
 49
-3
 74
0
 49
6
 74
0
 49
-3
 74
0
 49
6
 74
0
 49
-3
 74
0
  0
LTYPE
  5
E
100
AcDbSymbolTableRecord
100
AcDbLinetypeTableRecord
  2
ISO128-20-10
 70
0
  3
_ . 
 72
65
 73
4
 40
18
 49
12
 74
0
 49
-3
 74
0
 49
0
 74
0
 49
-3
 74
0
  0
LTYPE
  5
F
100
AcDbSymbolTableRecord
100
AcDbLinetypeTableRecord
  2
ISO128-20-11
 70
0
  3
_ _ . 
 72
65
 73
6
 40
33
 49
12
 74
0
 49
-3
 74
0
 49
12
 74
0
 49
-3
 74
0
 49
0
 74
0
 49
-3
 74
0
  0
LTYPE
  5
10
100
AcDbSymbolTableRecord
100
AcDbLinetypeTableRecord
  2
ISO128-20-12
 70
0
  3
_ . . 
 72
65
 73
6
 40
21
 49
12
 74
0
 49
-3
 74
0
 49
0
 74
0
 49
-3
 74
0
 49
0
 74
0
 49
-3
 74
0
  0
LTYPE
  5
11
100
AcDbSymbolTableRecord
100
AcDbLinetypeTableRecord
  2
ISO128-20-13
 70
0
  3
_ _ . . 
 72
65
 73
8
 40
36
 49
12
 74
0
 49
-3
 74
0
 49
12
 74
0
 49
-3
 74
0
 49
0
 74
0
 49
-3
 74
0
 49
0
 74
0
 49
-3
 74
0
  0
LTYPE
  5
12
100
AcDbSymbolTableRecord
100
AcDbLinetypeTableRecord
  2
ISO128-20-14
 70
0
  3
_ . . . 
 72
65
 73
8
 40
24
 49
12
 74
0
 49
-3
 74
0
 49
0
 74
0
 49
-3
 74
0
 49
0
 74
0
 49
-3
 74
0
 49
0
 74
0
 49
-3
 74
0
  0
LTYPE
  5
13
100
AcDbSymbolTableRecord
100
AcDbLinetypeTableRecord
  2
ISO128-20-15
 70
0
  3
_ _ . . . 
 72
65
 73
10
 40
39
 49
12
 74
0
 49
-3
 74
0
 49
12
 74
0
 49
-3
 74
0
 49
0
 74
0
 49
-3
 74
0
 49
0
 74
0
 49
-3
 74
0
 49
0
 74
0
 49
-3
 74
0
  0
LTYPE
  5
426
100
AcDbSymbolTableRecord
100
AcDbLinetypeTableRecord
  2
ByBlock
 70
0
  3

 72
65
 73
0
 40
0
  0
LTYPE
  5
427
100
AcDbSymbolTableRecord
100
AcDbLinetypeTableRecord
  2
ByLayer
 70
0
  3

 72
65
 73
0
 40
0
  0
ENDTAB
  0
TABLE
  2
LAYER
  5
428
100
AcDbSymbolTable
  0
LAYER
  5
429
100
AcDbSymbolTableRecord
100
AcDbLayerTableRecord
  2
0
 70
0
 62
7
  6
CONTINUOUS
370
-3
390
0
  0
LAYER
  5
14
100
AcDbSymbolTableRecord
100
AcDbLayerTableRecord
  2
SEMA2D
 70
0
 62
7
290
1
370
-3
390
0
  0
LAYER
  5
292
100
AcDbSymbolTableRecord
100
AcDbLayerTableRecord
  2
SEMATEXT
 70
0
 62
7
290
1
370
-3
390
0
  0
ENDTAB
  0
TABLE
  2
VPORT
  5
42A
100
AcDbSymbolTable
  0
VPORT
  5
42B
100
AcDbSymbolTableRecord
100
AcDbViewportTableRecord
  2
*ACTIVE
 70
0
 10
0
 20
0
 11
1
 21
1
 12
0.483167642881753
 22
2.34305981845956
 32
0
 13
0
 23
0
 14
1
 24
1
 15
1
 25
1
 16
0
 26
0
 36
1
 17
0
 27
0
 37
0
 40
0.853836946119114
 41
0.805772500175355
 42
50
 43
0
 44
0
 50
0
 51
0
 71
0
 72
100
 73
1
 74
1
 75
0
 76
0
 77
0
 78
0
  0
ENDTAB
  0
TABLE
  2
VIEW
  5
42C
100
AcDbSymbolTable
  0
ENDTAB
  0
TABLE
  2
UCS
  5
42D
100
AcDbSymbolTable
  0
ENDTAB
  0
TABLE
  2
DIMSTYLE
  5
42E
100
AcDbSymbolTable
 70
1
100
AcDbDimStyleTable
 71
0
  0
DIMSTYLE
105
42F
100
AcDbSymbolTableRecord
100
AcDbDimStyleTableRecord
  2
STANDARD
 70
0
340
0
  0
ENDTAB
  0
ENDSEC
  0
SECTION
  2
BLOCKS
  0
BLOCK
  5
430
100
AcDbEntity
  8
0
100
AcDbBlockBegin
  2
*MODEL_SPACE
 70
0
 10
0
 20
0
  0
ENDBLK
  5
431
100
AcDbEntity
  8
0
100
AcDbBlockEnd
  0
BLOCK
  5
432
100
AcDbEntity
  8
0
100
AcDbBlockBegin
  2
*PAPER_SPACE
 70
0
 10
0
 20
0
  0
ENDBLK
  5
433
100
AcDbEntity
  8
0
100
AcDbBlockEnd
  0
ENDSEC
  0
SECTION
  2
ENTITIES
  0
LINE
  5
15
100
AcDbEntity
  8
SEMA2D
100
AcDbLine
370
9
 62
0
 48
0
  6
_SOLID
 10
0.583936559
 20
2.4700019464
 30
0
 11
0.583936559
 21
2.4680019464
 31
0
  0
LINE
  5
17
100
AcDbEntity
  8
SEMA2D
100
AcDbLine
370
9
 62
0
 48
0
  6
_SOLID
 10
0.583936559
 20
2.4680019464
 30
0
 11
0.613936559
 21
2.4680019464
 31
0
  0
LINE
  5
18
100
AcDbEntity
  8
SEMA2D
100
AcDbLine
370
9
 62
0
 48
0
  6
_SOLID
 10
0.613936559
 20
2.4680019464
 30
0
 11
0.613936559
 21
2.4700019464
 31
0
  0
LINE
  5
19
100
AcDbEntity
  8
SEMA2D
100
AcDbLine
370
9
 62
0
 48
0
  6
_SOLID
 10
0.613936559
 20
2.4700019464
 30
0
 11
0.583936559
 21
2.4700019464
 31
0
  0
LINE
  5
1A
100
AcDbEntity
  8
SEMA2D
100
AcDbLine
370
9
 62
0
 48
0
  6
_SOLID
 10
0.583936559
 20
2.4700019464
 30
0
 11
0.583936559
 21
2.4680019464
 31
0
  0
LINE
  5
1B
100
AcDbEntity
  8
SEMA2D
100
AcDbLine
370
9
 62
0
 48
0
  6
_SOLID
 10
0.583936559
 20
2.4680019464
 30
0
 11
0.613936559
 21
2.4680019464
 31
0
  0
LINE
  5
1C
100
AcDbEntity
  8
SEMA2D
100
AcDbLine
370
9
 62
0
 48
0
  6
_SOLID
 10
0.613936559
 20
2.4680019464
 30
0
 11
0.613936559
 21
2.4700019464
 31
0
  0
LINE
  5
1D
100
AcDbEntity
  8
SEMA2D
100
AcDbLine
370
9
 62
0
 48
0
  6
_SOLID
 10
0.613936559
 20
2.4700019464
 30
0
 11
0.583936559
 21
2.4700019464
 31
0
  0
LINE
  5
1E
100
AcDbEntity
  8
SEMA2D
100
AcDbLine
370
9
 62
0
 48
0
  6
_SOLID
 10
0.583936559
 20
2.4700019464
 30
0
 11
0.583936559
 21
2.4680019464
 31
0
  0
LINE
  5
1F
100
AcDbEntity
  8
SEMA2D
100
AcDbLine
370
9
 62
0
 48
0
  6
_SOLID
 10
0.583936559
 20
2.4680019464
 30
0
 11
0.613936559
 21
2.4680019464
 31
0
  0
LINE
  5
20
100
AcDbEntity
  8
SEMA2D
100
AcDbLine
370
9
 62
0
 48
0
  6
_SOLID
 10
0.613936559
 20
2.4680019464
 30
0
 11
0.613936559
 21
2.4700019464
 31
0
  0
LINE
  5
21
100
AcDbEntity
  8
SEMA2D
100
AcDbLine
370
9
 62
0
 48
0
  6
_SOLID
 10
0.613936559
 20
2.4700019464
 30
0
 11
0.583936559
 21
2.4700019464
 31
0
  0
LINE
  5
22
100
AcDbEntity
  8
SEMA2D
100
AcDbLine
370
9
 62
0
 48
0
  6
_SOLID
 10
0.5961974022
 20
1.9921587743
 30
0
 11
0.58056745756875
 21
1.99353968546719
 31
0
  0
LINE
  5
23
100
AcDbEntity
  8
SEMA2D
100
AcDbLine
370
9
 62
0
 48
0
  6
_SOLID
 10
0.58056745756875
 20
1.99353968546719
 30
0
 11
0.565533469725
 21
1.9975993958875
 31
0
  0
LINE
  5
24
100
AcDbEntity
  8
SEMA2D
100
AcDbLine
370
9
 62
0
 48
0
  6
_SOLID
 10
0.565533469725
 20
1.9975993958875
 30
0
 11
0.55143533604375
 21
2.00421337093906
 31
0
  0
LINE
  5
25
100
AcDbEntity
  8
SEMA2D
100
AcDbLine
370
9
 62
0
 48
0
  6
_SOLID
 10
0.55143533604375
 20
2.00421337093906
 30
0
 11
0.5386129539
 21
2.013257076
 31
0
  0
LINE
  5
26
100
AcDbEntity
  8
SEMA2D
100
AcDbLine
370
9
 62
0
 48
0
  6
_SOLID
 10
0.5386129539
 20
2.013257076
 30
0
 11
0.527578604810937
 21
2.0244043348125
 31
0
  0
LINE
  5
27
100
AcDbEntity
  8
SEMA2D
100
AcDbLine
370
9
 62
0
 48
0
  6
_SOLID
 10
0.527578604810937
 20
2.0244043348125
 30
0
 11
0.5187280757875
 21
2.0372101557
 31
0
  0
LINE
  5
28
100
AcDbEntity
  8
SEMA2D
100
AcDbLine
370
9
 62
0
 48
0
  6
_SOLID
 10
0.5187280757875
 20
2.0372101557
 30
0
 11
0.512240150695312
 21
2.0513602460625
 31
0
  0
LINE
  5
29
100
AcDbEntity
  8
SEMA2D
100
AcDbLine
370
9
 62
0
 48
0
  6
_SOLID
 10
0.512240150695312
 20
2.0513602460625
 30
0
 11
0.5082936134
 21
2.0665403133
 31
0
  0
LINE
  5
2A
100
AcDbEntity
  8
SEMA2D
100
AcDbLine
370
9
 62
0
 48
0
  6
_SOLID
 10
0.5082936134
 20
2.0665403133
 30
0
 11
0.508283115
 21
2.0665637912
 31
0
  0
LINE
  5
2B
100
AcDbEntity
  8
SEMA2D
100
AcDbLine
370
9
 62
0
 48
0
  6
_SOLID
 10
0.508283115
 20
2.0665637912
 30
0
 11
0.508283115
 21
2.0702026919
 31
0
  0
LINE
  5
2C
100
AcDbEntity
  8
SEMA2D
100
AcDbLine
370
9
 62
0
 48
0
  6
_SOLID
 10
0.508283115
 20
2.0702026919
 30
0
 11
0.5099394837
 21
2.0702026919
 31
0
  0
LINE
  5
2D
100
AcDbEntity
  8
SEMA2D
100
AcDbLine
370
9
 62
0
 48
0
  6
_SOLID
 10
0.5099394837
 20
2.0702026919
 30
0
 11
0.5099394837
 21
2.0718426446
 31
0
  0
LINE
  5
2E
100
AcDbEntity
  8
SEMA2D
100
AcDbLine
370
9
 62
0
 48
0
  6
_SOLID
 10
0.5099394837
 20
2.0718426446
 30
0
 11
0.5102074329
 21
2.0728426446
 31
0
  0
LINE
  5
2F
100
AcDbEntity
  8
SEMA2D
100
AcDbLine
370
9
 62
0
 48
0
  6
_SOLID
 10
0.5102074329
 20
2.0728426446
 30
0
 11
0.5109394837
 21
2.0735746954
 31
0
  0
LINE
  5
30
100
AcDbEntity
  8
SEMA2D
100
AcDbLine
370
9
 62
0
 48
0
  6
_SOLID
 10
0.5109394837
 20
2.0735746954
 30
0
 11
0.5119394837
 21
2.0738426985
 31
0
  0
LINE
  5
31
100
AcDbEntity
  8
SEMA2D
100
AcDbLine
370
9
 62
0
 48
0
  6
_SOLID
 10
0.5119394837
 20
2.0738426985
 30
0
 11
0.4905151644
 21
2.0738426924
 31
0
  0
LINE
  5
32
100
AcDbEntity
  8
SEMA2D
100
AcDbLine
370
9
 62
0
 48
0
  6
_SOLID
 10
0.4905151644
 20
2.0738426924
 30
0
 11
0.4892815538
 21
2.073416924
 31
0
  0
LINE
  5
33
100
AcDbEntity
  8
SEMA2D
100
AcDbLine
370
9
 62
0
 48
0
  6
_SOLID
 10
0.4892815538
 20
2.073416924
 30
0
 11
0.4885731757
 21
2.0723208974
 31
0
  0
LINE
  5
34
100
AcDbEntity
  8
SEMA2D
100
AcDbLine
370
9
 62
0
 48
0
  6
_SOLID
 10
0.4885731757
 20
2.0723208974
 30
0
 11
0.4880519743
 21
2.0702043002
 31
0
  0
LINE
  5
35
100
AcDbEntity
  8
SEMA2D
100
AcDbLine
370
9
 62
0
 48
0
  6
_SOLID
 10
0.4880519743
 20
2.0702043002
 30
0
 11
0.4863249572
 21
2.0702026919
 31
0
  0
LINE
  5
36
100
AcDbEntity
  8
SEMA2D
100
AcDbLine
370
9
 62
0
 48
0
  6
_SOLID
 10
0.4863249572
 20
2.0702026919
 30
0
 11
0.4863249572
 21
2.0665626919
 31
0
  0
LINE
  5
37
100
AcDbEntity
  8
SEMA2D
100
AcDbLine
370
9
 62
0
 48
0
  6
_SOLID
 10
0.4863249572
 20
2.0665626919
 30
0
 11
0.4873119558
 21
2.0665603126
 31
0
  0
LINE
  5
38
100
AcDbEntity
  8
SEMA2D
100
AcDbLine
370
9
 62
0
 48
0
  6
_SOLID
 10
0.4873119558
 20
2.0665603126
 30
0
 11
0.492262979620313
 21
2.04731102775937
 31
0
  0
LINE
  5
39
100
AcDbEntity
  8
SEMA2D
100
AcDbLine
370
9
 62
0
 48
0
  6
_SOLID
 10
0.492262979620313
 20
2.04731102775937
 30
0
 11
0.5004780429375
 21
2.029381350575
 31
0
  0
LINE
  5
3A
100
AcDbEntity
  8
SEMA2D
100
AcDbLine
370
9
 62
0
 48
0
  6
_SOLID
 10
0.5004780429375
 20
2.029381350575
 30
0
 11
0.511724137410937
 21
2.01317993247812
 31
0
  0
LINE
  5
3B
100
AcDbEntity
  8
SEMA2D
100
AcDbLine
370
9
 62
0
 48
0
  6
_SOLID
 10
0.511724137410937
 20
2.01317993247812
 30
0
 11
0.5257682547
 21
1.9991154249
 31
0
  0
LINE
  5
3C
100
AcDbEntity
  8
SEMA2D
100
AcDbLine
370
9
 62
0
 48
0
  6
_SOLID
 10
0.5257682547
 20
1.9991154249
 30
0
 11
0.540876369525
 21
1.9884688792
 31
0
  0
LINE
  5
3D
100
AcDbEntity
  8
SEMA2D
100
AcDbLine
370
9
 62
0
 48
0
  6
_SOLID
 10
0.540876369525
 20
1.9884688792
 30
0
 11
0.5574026871
 21
1.9805168813
 31
0
  0
LINE
  5
3E
100
AcDbEntity
  8
SEMA2D
100
AcDbLine
370
9
 62
0
 48
0
  6
_SOLID
 10
0.5574026871
 20
1.9805168813
 30
0
 11
0.5777348629125
 21
1.97486085565
 31
0
  0
LINE
  5
3F
100
AcDbEntity
  8
SEMA2D
100
AcDbLine
370
9
 62
0
 48
0
  6
_SOLID
 10
0.5777348629125
 20
1.97486085565
 30
0
 11
0.5989327749
 21
1.9731413454
 31
0
  0
LINE
  5
40
100
AcDbEntity
  8
SEMA2D
100
AcDbLine
370
9
 62
0
 48
0
  6
_SOLID
 10
0.5989327749
 20
1.9731413454
 30
0
 11
0.6138583358375
 21
1.97390663329219
 31
0
  0
LINE
  5
41
100
AcDbEntity
  8
SEMA2D
100
AcDbLine
370
9
 62
0
 48
0
  6
_SOLID
 10
0.6138583358375
 20
1.97390663329219
 30
0
 11
0.628440007675
 21
1.9766376313125
 31
0
  0
LINE
  5
42
100
AcDbEntity
  8
SEMA2D
100
AcDbLine
370
9
 62
0
 48
0
  6
_SOLID
 10
0.628440007675
 20
1.9766376313125
 30
0
 11
0.64248984675
 21
1.98126776390156
 31
0
  0
LINE
  5
43
100
AcDbEntity
  8
SEMA2D
100
AcDbLine
370
9
 62
0
 48
0
  6
_SOLID
 10
0.64248984675
 20
1.98126776390156
 30
0
 11
0.6558199094
 21
1.9877304555
 31
0
  0
LINE
  5
44
100
AcDbEntity
  8
SEMA2D
100
AcDbLine
370
9
 62
0
 48
0
  6
_SOLID
 10
0.6558199094
 20
1.9877304555
 30
0
 11
0.6721360377
 21
1.9990722462
 31
0
  0
LINE
  5
45
100
AcDbEntity
  8
SEMA2D
100
AcDbLine
370
9
 62
0
 48
0
  6
_SOLID
 10
0.6721360377
 20
1.9990722462
 30
0
 11
0.6882826199
 21
2.015739236
 31
0
  0
LINE
  5
46
100
AcDbEntity
  8
SEMA2D
100
AcDbLine
370
9
 62
0
 48
0
  6
_SOLID
 10
0.6882826199
 20
2.015739236
 30
0
 11
0.696197174951563
 21
2.02725170448906
 31
0
  0
LINE
  5
47
100
AcDbEntity
  8
SEMA2D
100
AcDbLine
370
9
 62
0
 48
0
  6
_SOLID
 10
0.696197174951563
 20
2.02725170448906
 30
0
 11
0.7026037045625
 21
2.0396564193375
 31
0
  0
LINE
  5
48
100
AcDbEntity
  8
SEMA2D
100
AcDbLine
370
9
 62
0
 48
0
  6
_SOLID
 10
0.7026037045625
 20
2.0396564193375
 30
0
 11
0.707419327367187
 21
2.05280781166719
 31
0
  0
LINE
  5
49
100
AcDbEntity
  8
SEMA2D
100
AcDbLine
370
9
 62
0
 48
0
  6
_SOLID
 10
0.707419327367187
 20
2.05280781166719
 30
0
 11
0.710561162
 21
2.0665603126
 31
0
  0
LINE
  5
4A
100
AcDbEntity
  8
SEMA2D
100
AcDbLine
370
9
 62
0
 48
0
  6
_SOLID
 10
0.710561162
 20
2.0665603126
 30
0
 11
0.7115481607
 21
2.0665626919
 31
0
  0
LINE
  5
4B
100
AcDbEntity
  8
SEMA2D
100
AcDbLine
370
9
 62
0
 48
0
  6
_SOLID
 10
0.7115481607
 20
2.0665626919
 30
0
 11
0.7115481607
 21
2.0702026919
 31
0
  0
LINE
  5
4C
100
AcDbEntity
  8
SEMA2D
100
AcDbLine
370
9
 62
0
 48
0
  6
_SOLID
 10
0.7115481607
 20
2.0702026919
 30
0
 11
0.7098211436
 21
2.0702043002
 31
0
  0
LINE
  5
4D
100
AcDbEntity
  8
SEMA2D
100
AcDbLine
370
9
 62
0
 48
0
  6
_SOLID
 10
0.7098211436
 20
2.0702043002
 30
0
 11
0.7092999423
 21
2.0723208973
 31
0
  0
LINE
  5
4E
100
AcDbEntity
  8
SEMA2D
100
AcDbLine
370
9
 62
0
 48
0
  6
_SOLID
 10
0.7092999423
 20
2.0723208973
 30
0
 11
0.7085915642
 21
2.073416924
 31
0
  0
LINE
  5
4F
100
AcDbEntity
  8
SEMA2D
100
AcDbLine
370
9
 62
0
 48
0
  6
_SOLID
 10
0.7085915642
 20
2.073416924
 30
0
 11
0.7073580068
 21
2.0738426507
 31
0
  0
LINE
  5
50
100
AcDbEntity
  8
SEMA2D
100
AcDbLine
370
9
 62
0
 48
0
  6
_SOLID
 10
0.7073580068
 20
2.0738426507
 30
0
 11
0.6859462513
 21
2.0738426446
 31
0
  0
LINE
  5
51
100
AcDbEntity
  8
SEMA2D
100
AcDbLine
370
9
 62
0
 48
0
  6
_SOLID
 10
0.6859462513
 20
2.0738426446
 30
0
 11
0.6869462513
 21
2.0735746954
 31
0
  0
LINE
  5
52
100
AcDbEntity
  8
SEMA2D
100
AcDbLine
370
9
 62
0
 48
0
  6
_SOLID
 10
0.6869462513
 20
2.0735746954
 30
0
 11
0.6876783021
 21
2.0728426446
 31
0
  0
LINE
  5
53
100
AcDbEntity
  8
SEMA2D
100
AcDbLine
370
9
 62
0
 48
0
  6
_SOLID
 10
0.6876783021
 20
2.0728426446
 30
0
 11
0.6879462513
 21
2.0718426446
 31
0
  0
LINE
  5
54
100
AcDbEntity
  8
SEMA2D
100
AcDbLine
370
9
 62
0
 48
0
  6
_SOLID
 10
0.6879462513
 20
2.0718426446
 30
0
 11
0.6879462513
 21
2.0702026919
 31
0
  0
LINE
  5
55
100
AcDbEntity
  8
SEMA2D
100
AcDbLine
370
9
 62
0
 48
0
  6
_SOLID
 10
0.6879462513
 20
2.0702026919
 30
0
 11
0.6895834413
 21
2.0702026919
 31
0
  0
LINE
  5
56
100
AcDbEntity
  8
SEMA2D
100
AcDbLine
370
9
 62
0
 48
0
  6
_SOLID
 10
0.6895834413
 20
2.0702026919
 30
0
 11
0.6895834413
 21
2.0665637912
 31
0
  0
LINE
  5
57
100
AcDbEntity
  8
SEMA2D
100
AcDbLine
370
9
 62
0
 48
0
  6
_SOLID
 10
0.6895834413
 20
2.0665637912
 30
0
 11
0.6856388917375
 21
2.051376868725
 31
0
  0
LINE
  5
58
100
AcDbEntity
  8
SEMA2D
100
AcDbLine
370
9
 62
0
 48
0
  6
_SOLID
 10
0.6856388917375
 20
2.051376868725
 30
0
 11
0.67915083845
 21
2.037220343575
 31
0
  0
LINE
  5
59
100
AcDbEntity
  8
SEMA2D
100
AcDbLine
370
9
 62
0
 48
0
  6
_SOLID
 10
0.67915083845
 20
2.037220343575
 30
0
 11
0.6702982672875
 21
2.0244088634375
 31
0
  0
LINE
  5
5A
100
AcDbEntity
  8
SEMA2D
100
AcDbLine
370
9
 62
0
 48
0
  6
_SOLID
 10
0.6702982672875
 20
2.0244088634375
 30
0
 11
0.6592601641
 21
2.013257076
 31
0
  0
LINE
  5
5B
100
AcDbEntity
  8
SEMA2D
100
AcDbLine
370
9
 62
0
 48
0
  6
_SOLID
 10
0.6592601641
 20
2.013257076
 30
0
 11
0.64643778195625
 21
2.00421337093906
 31
0
  0
LINE
  5
5C
100
AcDbEntity
  8
SEMA2D
100
AcDbLine
370
9
 62
0
 48
0
  6
_SOLID
 10
0.64643778195625
 20
2.00421337093906
 30
0
 11
0.632339648275
 21
1.9975993958875
 31
0
  0
LINE
  5
5D
100
AcDbEntity
  8
SEMA2D
100
AcDbLine
370
9
 62
0
 48
0
  6
_SOLID
 10
0.632339648275
 20
1.9975993958875
 30
0
 11
0.61730566043125
 21
1.99353968546719
 31
0
  0
LINE
  5
5E
100
AcDbEntity
  8
SEMA2D
100
AcDbLine
370
9
 62
0
 48
0
  6
_SOLID
 10
0.61730566043125
 20
1.99353968546719
 30
0
 11
0.6016757158
 21
1.9921587743
 31
0
  0
LINE
  5
5F
100
AcDbEntity
  8
SEMA2D
100
AcDbLine
370
9
 62
0
 48
0
  6
_SOLID
 10
0.6016757158
 20
1.9921587743
 30
0
 11
0.5961974022
 21
1.9921587743
 31
0
  0
LINE
  5
60
100
AcDbEntity
  8
SEMA2D
100
AcDbLine
370
9
 62
0
 48
0
  6
_SOLID
 10
0.5961974022
 20
1.9921587743
 30
0
 11
0.5386129539
 21
2.013257076
 31
0
  0
LINE
  5
61
100
AcDbEntity
  8
SEMA2D
100
AcDbLine
370
9
 62
0
 48
0
  6
_SOLID
 10
0.5386129539
 20
2.013257076
 30
0
 11
0.5082936134
 21
2.0665403133
 31
0
  0
LINE
  5
62
100
AcDbEntity
  8
SEMA2D
100
AcDbLine
370
9
 62
0
 48
0
  6
_SOLID
 10
0.5082936134
 20
2.0665403133
 30
0
 11
0.508283115
 21
2.0665637912
 31
0
  0
LINE
  5
63
100
AcDbEntity
  8
SEMA2D
100
AcDbLine
370
9
 62
0
 48
0
  6
_SOLID
 10
0.508283115
 20
2.0665637912
 30
0
 11
0.508283115
 21
2.0702026919
 31
0
  0
LINE
  5
64
100
AcDbEntity
  8
SEMA2D
100
AcDbLine
370
9
 62
0
 48
0
  6
_SOLID
 10
0.508283115
 20
2.0702026919
 30
0
 11
0.5099394837
 21
2.0702026919
 31
0
  0
LINE
  5
65
100
AcDbEntity
  8
SEMA2D
100
AcDbLine
370
9
 62
0
 48
0
  6
_SOLID
 10
0.5099394837
 20
2.0702026919
 30
0
 11
0.5099394837
 21
2.0718426446
 31
0
  0
LINE
  5
66
100
AcDbEntity
  8
SEMA2D
100
AcDbLine
370
9
 62
0
 48
0
  6
_SOLID
 10
0.5099394837
 20
2.0718426446
 30
0
 11
0.5102074329
 21
2.0728426446
 31
0
  0
LINE
  5
67
100
AcDbEntity
  8
SEMA2D
100
AcDbLine
370
9
 62
0
 48
0
  6
_SOLID
 10
0.5102074329
 20
2.0728426446
 30
0
 11
0.5109394837
 21
2.0735746954
 31
0
  0
LINE
  5
68
100
AcDbEntity
  8
SEMA2D
100
AcDbLine
370
9
 62
0
 48
0
  6
_SOLID
 10
0.5109394837
 20
2.0735746954
 30
0
 11
0.5119394837
 21
2.0738426985
 31
0
  0
LINE
  5
69
100
AcDbEntity
  8
SEMA2D
100
AcDbLine
370
9
 62
0
 48
0
  6
_SOLID
 10
0.5119394837
 20
2.0738426985
 30
0
 11
0.4905151644
 21
2.0738426924
 31
0
  0
LINE
  5
6A
100
AcDbEntity
  8
SEMA2D
100
AcDbLine
370
9
 62
0
 48
0
  6
_SOLID
 10
0.4905151644
 20
2.0738426924
 30
0
 11
0.4892815538
 21
2.073416924
 31
0
  0
LINE
  5
6B
100
AcDbEntity
  8
SEMA2D
100
AcDbLine
370
9
 62
0
 48
0
  6
_SOLID
 10
0.4892815538
 20
2.073416924
 30
0
 11
0.4885731757
 21
2.0723208974
 31
0
  0
LINE
  5
6C
100
AcDbEntity
  8
SEMA2D
100
AcDbLine
370
9
 62
0
 48
0
  6
_SOLID
 10
0.4885731757
 20
2.0723208974
 30
0
 11
0.4880519743
 21
2.0702043002
 31
0
  0
LINE
  5
6D
100
AcDbEntity
  8
SEMA2D
100
AcDbLine
370
9
 62
0
 48
0
  6
_SOLID
 10
0.4880519743
 20
2.0702043002
 30
0
 11
0.4863249572
 21
2.0702026919
 31
0
  0
LINE
  5
6E
100
AcDbEntity
  8
SEMA2D
100
AcDbLine
370
9
 62
0
 48
0
  6
_SOLID
 10
0.4863249572
 20
2.0702026919
 30
0
 11
0.4863249572
 21
2.0665626919
 31
0
  0
LINE
  5
6F
100
AcDbEntity
  8
SEMA2D
100
AcDbLine
370
9
 62
0
 48
0
  6
_SOLID
 10
0.4863249572
 20
2.0665626919
 30
0
 11
0.4873119558
 21
2.0665603126
 31
0
  0
LINE
  5
70
100
AcDbEntity
  8
SEMA2D
100
AcDbLine
370
9
 62
0
 48
0
  6
_SOLID
 10
0.4873119558
 20
2.0665603126
 30
0
 11
0.5257682547
 21
1.9991154249
 31
0
  0
LINE
  5
71
100
AcDbEntity
  8
SEMA2D
100
AcDbLine
370
9
 62
0
 48
0
  6
_SOLID
 10
0.5257682547
 20
1.9991154249
 30
0
 11
0.5574026871
 21
1.9805168813
 31
0
  0
LINE
  5
72
100
AcDbEntity
  8
SEMA2D
100
AcDbLine
370
9
 62
0
 48
0
  6
_SOLID
 10
0.5574026871
 20
1.9805168813
 30
0
 11
0.5989327749
 21
1.9731413454
 31
0
  0
LINE
  5
73
100
AcDbEntity
  8
SEMA2D
100
AcDbLine
370
9
 62
0
 48
0
  6
_SOLID
 10
0.5989327749
 20
1.9731413454
 30
0
 11
0.6558199094
 21
1.9877304555
 31
0
  0
LINE
  5
74
100
AcDbEntity
  8
SEMA2D
100
AcDbLine
370
9
 62
0
 48
0
  6
_SOLID
 10
0.6558199094
 20
1.9877304555
 30
0
 11
0.6721360377
 21
1.9990722462
 31
0
  0
LINE
  5
75
100
AcDbEntity
  8
SEMA2D
100
AcDbLine
370
9
 62
0
 48
0
  6
_SOLID
 10
0.6721360377
 20
1.9990722462
 30
0
 11
0.6882826199
 21
2.015739236
 31
0
  0
LINE
  5
76
100
AcDbEntity
  8
SEMA2D
100
AcDbLine
370
9
 62
0
 48
0
  6
_SOLID
 10
0.6882826199
 20
2.015739236
 30
0
 11
0.710561162
 21
2.0665603126
 31
0
  0
LINE
  5
77
100
AcDbEntity
  8
SEMA2D
100
AcDbLine
370
9
 62
0
 48
0
  6
_SOLID
 10
0.710561162
 20
2.0665603126
 30
0
 11
0.7115481607
 21
2.0665626919
 31
0
  0
LINE
  5
78
100
AcDbEntity
  8
SEMA2D
100
AcDbLine
370
9
 62
0
 48
0
  6
_SOLID
 10
0.7115481607
 20
2.0665626919
 30
0
 11
0.7115481607
 21
2.0702026919
 31
0
  0
LINE
  5
79
100
AcDbEntity
  8
SEMA2D
100
AcDbLine
370
9
 62
0
 48
0
  6
_SOLID
 10
0.7115481607
 20
2.0702026919
 30
0
 11
0.7098211436
 21
2.0702043002
 31
0
  0
LINE
  5
7A
100
AcDbEntity
  8
SEMA2D
100
AcDbLine
370
9
 62
0
 48
0
  6
_SOLID
 10
0.7098211436
 20
2.0702043002
 30
0
 11
0.7092999423
 21
2.0723208973
 31
0
  0
LINE
  5
7B
100
AcDbEntity
  8
SEMA2D
100
AcDbLine
370
9
 62
0
 48
0
  6
_SOLID
 10
0.7092999423
 20
2.0723208973
 30
0
 11
0.7085915642
 21
2.073416924
 31
0
  0
LINE
  5
7C
100
AcDbEntity
  8
SEMA2D
100
AcDbLine
370
9
 62
0
 48
0
  6
_SOLID
 10
0.7085915642
 20
2.073416924
 30
0
 11
0.7073580068
 21
2.0738426507
 31
0
  0
LINE
  5
7D
100
AcDbEntity
  8
SEMA2D
100
AcDbLine
370
9
 62
0
 48
0
  6
_SOLID
 10
0.7073580068
 20
2.0738426507
 30
0
 11
0.6859462513
 21
2.0738426446
 31
0
  0
LINE
  5
7E
100
AcDbEntity
  8
SEMA2D
100
AcDbLine
370
9
 62
0
 48
0
  6
_SOLID
 10
0.6859462513
 20
2.0738426446
 30
0
 11
0.6869462513
 21
2.0735746954
 31
0
  0
LINE
  5
7F
100
AcDbEntity
  8
SEMA2D
100
AcDbLine
370
9
 62
0
 48
0
  6
_SOLID
 10
0.6869462513
 20
2.0735746954
 30
0
 11
0.6876783021
 21
2.0728426446
 31
0
  0
LINE
  5
80
100
AcDbEntity
  8
SEMA2D
100
AcDbLine
370
9
 62
0
 48
0
  6
_SOLID
 10
0.6876783021
 20
2.0728426446
 30
0
 11
0.6879462513
 21
2.0718426446
 31
0
  0
LINE
  5
81
100
AcDbEntity
  8
SEMA2D
100
AcDbLine
370
9
 62
0
 48
0
  6
_SOLID
 10
0.6879462513
 20
2.0718426446
 30
0
 11
0.6879462513
 21
2.0702026919
 31
0
  0
LINE
  5
82
100
AcDbEntity
  8
SEMA2D
100
AcDbLine
370
9
 62
0
 48
0
  6
_SOLID
 10
0.6879462513
 20
2.0702026919
 30
0
 11
0.6895834413
 21
2.0702026919
 31
0
  0
LINE
  5
83
100
AcDbEntity
  8
SEMA2D
100
AcDbLine
370
9
 62
0
 48
0
  6
_SOLID
 10
0.6895834413
 20
2.0702026919
 30
0
 11
0.6895834413
 21
2.0665637912
 31
0
  0
LINE
  5
84
100
AcDbEntity
  8
SEMA2D
100
AcDbLine
370
9
 62
0
 48
0
  6
_SOLID
 10
0.6895834413
 20
2.0665637912
 30
0
 11
0.6592601641
 21
2.013257076
 31
0
  0
LINE
  5
85
100
AcDbEntity
  8
SEMA2D
100
AcDbLine
370
9
 62
0
 48
0
  6
_SOLID
 10
0.6592601641
 20
2.013257076
 30
0
 11
0.6016757158
 21
1.9921587743
 31
0
  0
LINE
  5
86
100
AcDbEntity
  8
SEMA2D
100
AcDbLine
370
9
 62
0
 48
0
  6
_SOLID
 10
0.6016757158
 20
1.9921587743
 30
0
 11
0.5961974022
 21
1.9921587743
 31
0
  0
LINE
  5
87
100
AcDbEntity
  8
SEMA2D
100
AcDbLine
370
9
 62
0
 48
0
  6
_SOLID
 10
0.5961974022
 20
1.9921587743
 30
0
 11
0.5386129539
 21
2.013257076
 31
0
  0
LINE
  5
88
100
AcDbEntity
  8
SEMA2D
100
AcDbLine
370
9
 62
0
 48
0
  6
_SOLID
 10
0.5386129539
 20
2.013257076
 30
0
 11
0.5082936134
 21
2.0665403133
 31
0
  0
LINE
  5
89
100
AcDbEntity
  8
SEMA2D
100
AcDbLine
370
9
 62
0
 48
0
  6
_SOLID
 10
0.5082936134
 20
2.0665403133
 30
0
 11
0.508283115
 21
2.0665637912
 31
0
  0
LINE
  5
8A
100
AcDbEntity
  8
SEMA2D
100
AcDbLine
370
9
 62
0
 48
0
  6
_SOLID
 10
0.508283115
 20
2.0665637912
 30
0
 11
0.508283115
 21
2.0702026919
 31
0
  0
LINE
  5
8B
100
AcDbEntity
  8
SEMA2D
100
AcDbLine
370
9
 62
0
 48
0
  6
_SOLID
 10
0.508283115
 20
2.0702026919
 30
0
 11
0.5099394837
 21
2.0702026919
 31
0
  0
LINE
  5
8C
100
AcDbEntity
  8
SEMA2D
100
AcDbLine
370
9
 62
0
 48
0
  6
_SOLID
 10
0.5099394837
 20
2.0702026919
 30
0
 11
0.5099394837
 21
2.0718426446
 31
0
  0
LINE
  5
8D
100
AcDbEntity
  8
SEMA2D
100
AcDbLine
370
9
 62
0
 48
0
  6
_SOLID
 10
0.5099394837
 20
2.0718426446
 30
0
 11
0.5102074329
 21
2.0728426446
 31
0
  0
LINE
  5
8E
100
AcDbEntity
  8
SEMA2D
100
AcDbLine
370
9
 62
0
 48
0
  6
_SOLID
 10
0.5102074329
 20
2.0728426446
 30
0
 11
0.5109394837
 21
2.0735746954
 31
0
  0
LINE
  5
8F
100
AcDbEntity
  8
SEMA2D
100
AcDbLine
370
9
 62
0
 48
0
  6
_SOLID
 10
0.5109394837
 20
2.0735746954
 30
0
 11
0.5119394837
 21
2.0738426985
 31
0
  0
LINE
  5
90
100
AcDbEntity
  8
SEMA2D
100
AcDbLine
370
9
 62
0
 48
0
  6
_SOLID
 10
0.5119394837
 20
2.0738426985
 30
0
 11
0.4905151644
 21
2.0738426924
 31
0
  0
LINE
  5
91
100
AcDbEntity
  8
SEMA2D
100
AcDbLine
370
9
 62
0
 48
0
  6
_SOLID
 10
0.4905151644
 20
2.0738426924
 30
0
 11
0.4892815538
 21
2.073416924
 31
0
  0
LINE
  5
92
100
AcDbEntity
  8
SEMA2D
100
AcDbLine
370
9
 62
0
 48
0
  6
_SOLID
 10
0.4892815538
 20
2.073416924
 30
0
 11
0.4885731757
 21
2.0723208974
 31
0
  0
LINE
  5
93
100
AcDbEntity
  8
SEMA2D
100
AcDbLine
370
9
 62
0
 48
0
  6
_SOLID
 10
0.4885731757
 20
2.0723208974
 30
0
 11
0.4880519743
 21
2.0702043002
 31
0
  0
LINE
  5
94
100
AcDbEntity
  8
SEMA2D
100
AcDbLine
370
9
 62
0
 48
0
  6
_SOLID
 10
0.4880519743
 20
2.0702043002
 30
0
 11
0.4863249572
 21
2.0702026919
 31
0
  0
LINE
  5
95
100
AcDbEntity
  8
SEMA2D
100
AcDbLine
370
9
 62
0
 48
0
  6
_SOLID
 10
0.4863249572
 20
2.0702026919
 30
0
 11
0.4863249572
 21
2.0665626919
 31
0
  0
LINE
  5
96
100
AcDbEntity
  8
SEMA2D
100
AcDbLine
370
9
 62
0
 48
0
  6
_SOLID
 10
0.4863249572
 20
2.0665626919
 30
0
 11
0.4873119558
 21
2.0665603126
 31
0
  0
LINE
  5
97
100
AcDbEntity
  8
SEMA2D
100
AcDbLine
370
9
 62
0
 48
0
  6
_SOLID
 10
0.4873119558
 20
2.0665603126
 30
0
 11
0.5257682547
 21
1.9991154249
 31
0
  0
LINE
  5
98
100
AcDbEntity
  8
SEMA2D
100
AcDbLine
370
9
 62
0
 48
0
  6
_SOLID
 10
0.5257682547
 20
1.9991154249
 30
0
 11
0.5574026871
 21
1.9805168813
 31
0
  0
LINE
  5
99
100
AcDbEntity
  8
SEMA2D
100
AcDbLine
370
9
 62
0
 48
0
  6
_SOLID
 10
0.5574026871
 20
1.9805168813
 30
0
 11
0.5989327749
 21
1.9731413454
 31
0
  0
LINE
  5
9A
100
AcDbEntity
  8
SEMA2D
100
AcDbLine
370
9
 62
0
 48
0
  6
_SOLID
 10
0.5989327749
 20
1.9731413454
 30
0
 11
0.6558199094
 21
1.9877304555
 31
0
  0
LINE
  5
9B
100
AcDbEntity
  8
SEMA2D
100
AcDbLine
370
9
 62
0
 48
0
  6
_SOLID
 10
0.6558199094
 20
1.9877304555
 30
0
 11
0.6721360377
 21
1.9990722462
 31
0
  0
LINE
  5
9C
100
AcDbEntity
  8
SEMA2D
100
AcDbLine
370
9
 62
0
 48
0
  6
_SOLID
 10
0.6721360377
 20
1.9990722462
 30
0
 11
0.6882826199
 21
2.015739236
 31
0
  0
LINE
  5
9D
100
AcDbEntity
  8
SEMA2D
100
AcDbLine
370
9
 62
0
 48
0
  6
_SOLID
 10
0.6882826199
 20
2.015739236
 30
0
 11
0.710561162
 21
2.0665603126
 31
0
  0
LINE
  5
9E
100
AcDbEntity
  8
SEMA2D
100
AcDbLine
370
9
 62
0
 48
0
  6
_SOLID
 10
0.710561162
 20
2.0665603126
 30
0
 11
0.7115481607
 21
2.0665626919
 31
0
  0
LINE
  5
9F
100
AcDbEntity
  8
SEMA2D
100
AcDbLine
370
9
 62
0
 48
0
  6
_SOLID
 10
0.7115481607
 20
2.0665626919
 30
0
 11
0.7115481607
 21
2.0702026919
 31
0
  0
LINE
  5
A0
100
AcDbEntity
  8
SEMA2D
100
AcDbLine
370
9
 62
0
 48
0
  6
_SOLID
 10
0.7115481607
 20
2.0702026919
 30
0
 11
0.7098211436
 21
2.0702043002
 31
0
  0
LINE
  5
A1
100
AcDbEntity
  8
SEMA2D
100
AcDbLine
370
9
 62
0
 48
0
  6
_SOLID
 10
0.7098211436
 20
2.0702043002
 30
0
 11
0.7092999423
 21
2.0723208973
 31
0
  0
LINE
  5
A2
100
AcDbEntity
  8
SEMA2D
100
AcDbLine
370
9
 62
0
 48
0
  6
_SOLID
 10
0.7092999423
 20
2.0723208973
 30
0
 11
0.7085915642
 21
2.073416924
 31
0
  0
LINE
  5
A3
100
AcDbEntity
  8
SEMA2D
100
AcDbLine
370
9
 62
0
 48
0
  6
_SOLID
 10
0.7085915642
 20
2.073416924
 30
0
 11
0.7073580068
 21
2.0738426507
 31
0
  0
LINE
  5
A4
100
AcDbEntity
  8
SEMA2D
100
AcDbLine
370
9
 62
0
 48
0
  6
_SOLID
 10
0.7073580068
 20
2.0738426507
 30
0
 11
0.6859462513
 21
2.0738426446
 31
0
  0
LINE
  5
A5
100
AcDbEntity
  8
SEMA2D
100
AcDbLine
370
9
 62
0
 48
0
  6
_SOLID
 10
0.6859462513
 20
2.0738426446
 30
0
 11
0.6869462513
 21
2.0735746954
 31
0
  0
LINE
  5
A6
100
AcDbEntity
  8
SEMA2D
100
AcDbLine
370
9
 62
0
 48
0
  6
_SOLID
 10
0.6869462513
 20
2.0735746954
 30
0
 11
0.6876783021
 21
2.0728426446
 31
0
  0
LINE
  5
A7
100
AcDbEntity
  8
SEMA2D
100
AcDbLine
370
9
 62
0
 48
0
  6
_SOLID
 10
0.6876783021
 20
2.0728426446
 30
0
 11
0.6879462513
 21
2.0718426446
 31
0
  0
LINE
  5
A8
100
AcDbEntity
  8
SEMA2D
100
AcDbLine
370
9
 62
0
 48
0
  6
_SOLID
 10
0.6879462513
 20
2.0718426446
 30
0
 11
0.6879462513
 21
2.0702026919
 31
0
  0
LINE
  5
A9
100
AcDbEntity
  8
SEMA2D
100
AcDbLine
370
9
 62
0
 48
0
  6
_SOLID
 10
0.6879462513
 20
2.0702026919
 30
0
 11
0.6895834413
 21
2.0702026919
 31
0
  0
LINE
  5
AA
100
AcDbEntity
  8
SEMA2D
100
AcDbLine
370
9
 62
0
 48
0
  6
_SOLID
 10
0.6895834413
 20
2.0702026919
 30
0
 11
0.6895834413
 21
2.0665637912
 31
0
  0
LINE
  5
AB
100
AcDbEntity
  8
SEMA2D
100
AcDbLine
370
9
 62
0
 48
0
  6
_SOLID
 10
0.6895834413
 20
2.0665637912
 30
0
 11
0.6592601641
 21
2.013257076
 31
0
  0
LINE
  5
AC
100
AcDbEntity
  8
SEMA2D
100
AcDbLine
370
9
 62
0
 48
0
  6
_SOLID
 10
0.6592601641
 20
2.013257076
 30
0
 11
0.6016757158
 21
1.9921587743
 31
0
  0
LINE
  5
AD
100
AcDbEntity
  8
SEMA2D
100
AcDbLine
370
9
 62
0
 48
0
  6
_SOLID
 10
0.6016757158
 20
1.9921587743
 30
0
 11
0.5961974022
 21
1.9921587743
 31
0
  0
LINE
  5
AE
100
AcDbEntity
  8
SEMA2D
100
AcDbLine
370
9
 62
0
 48
0
  6
_SOLID
 10
0.1707092837
 20
2.228222244
 30
0
 11
0.1798914676
 21
2.2290608926
 31
0
  0
LINE
  5
AF
100
AcDbEntity
  8
SEMA2D
100
AcDbLine
370
9
 62
0
 48
0
  6
_SOLID
 10
0.1798914676
 20
2.2290608926
 30
0
 11
0.1811866856
 21
2.2297042374
 31
0
  0
LINE
  5
B0
100
AcDbEntity
  8
SEMA2D
100
AcDbLine
370
9
 62
0
 48
0
  6
_SOLID
 10
0.1811866856
 20
2.2297042374
 30
0
 11
0.1817095561
 21
2.2310526025
 31
0
  0
LINE
  5
B1
100
AcDbEntity
  8
SEMA2D
100
AcDbLine
370
9
 62
0
 48
0
  6
_SOLID
 10
0.1817095561
 20
2.2310526025
 30
0
 11
0.1817095561
 21
2.2373762904
 31
0
  0
LINE
  5
B2
100
AcDbEntity
  8
SEMA2D
100
AcDbLine
370
9
 62
0
 48
0
  6
_SOLID
 10
0.1817095561
 20
2.2373762904
 30
0
 11
0.1811866856
 21
2.2387246555
 31
0
  0
LINE
  5
B3
100
AcDbEntity
  8
SEMA2D
100
AcDbLine
370
9
 62
0
 48
0
  6
_SOLID
 10
0.1811866856
 20
2.2387246555
 30
0
 11
0.1798914676
 21
2.2393680003
 31
0
  0
LINE
  5
B4
100
AcDbEntity
  8
SEMA2D
100
AcDbLine
370
9
 62
0
 48
0
  6
_SOLID
 10
0.1798914676
 20
2.2393680003
 30
0
 11
0.1723791818
 21
2.2400541298
 31
0
  0
LINE
  5
B5
100
AcDbEntity
  8
SEMA2D
100
AcDbLine
370
9
 62
0
 48
0
  6
_SOLID
 10
0.1723791818
 20
2.2400541298
 30
0
 11
0.1716712189
 21
2.2401187912
 31
0
  0
LINE
  5
B6
100
AcDbEntity
  8
SEMA2D
100
AcDbLine
370
9
 62
0
 48
0
  6
_SOLID
 10
0.1716712189
 20
2.2401187912
 30
0
 11
0.1679128068
 21
2.2417835286
 31
0
  0
LINE
  5
B7
100
AcDbEntity
  8
SEMA2D
100
AcDbLine
370
9
 62
0
 48
0
  6
_SOLID
 10
0.1679128068
 20
2.2417835286
 30
0
 11
0.1654108968
 21
2.2458676158
 31
0
  0
LINE
  5
B8
100
AcDbEntity
  8
SEMA2D
100
AcDbLine
370
9
 62
0
 48
0
  6
_SOLID
 10
0.1654108968
 20
2.2458676158
 30
0
 11
0.1698427812
 21
2.329048728
 31
0
  0
LINE
  5
B9
100
AcDbEntity
  8
SEMA2D
100
AcDbLine
370
9
 62
0
 48
0
  6
_SOLID
 10
0.1698427812
 20
2.329048728
 30
0
 11
0.1688734239
 21
2.3318787033
 31
0
  0
LINE
  5
BA
100
AcDbEntity
  8
SEMA2D
100
AcDbLine
370
9
 62
0
 48
0
  6
_SOLID
 10
0.1688734239
 20
2.3318787033
 30
0
 11
0.1662122696
 21
2.3332449656
 31
0
  0
LINE
  5
BB
100
AcDbEntity
  8
SEMA2D
100
AcDbLine
370
9
 62
0
 48
0
  6
_SOLID
 10
0.1662122696
 20
2.3332449656
 30
0
 11
0.1565651779
 21
2.3341260761
 31
0
  0
LINE
  5
BC
100
AcDbEntity
  8
SEMA2D
100
AcDbLine
370
9
 62
0
 48
0
  6
_SOLID
 10
0.1565651779
 20
2.3341260761
 30
0
 11
0.1565651779
 21
2.3389519464
 31
0
  0
LINE
  5
BD
100
AcDbEntity
  8
SEMA2D
100
AcDbLine
370
9
 62
0
 48
0
  6
_SOLID
 10
0.1565651779
 20
2.3389519464
 30
0
 11
0.1565651779
 21
2.3418778168
 31
0
  0
LINE
  5
BE
100
AcDbEntity
  8
SEMA2D
100
AcDbLine
370
9
 62
0
 48
0
  6
_SOLID
 10
0.1565651779
 20
2.3418778168
 30
0
 11
0.1684632957
 21
2.3429645233
 31
0
  0
LINE
  5
BF
100
AcDbEntity
  8
SEMA2D
100
AcDbLine
370
9
 62
0
 48
0
  6
_SOLID
 10
0.1684632957
 20
2.3429645233
 30
0
 11
0.1705417564
 21
2.344181057
 31
0
  0
LINE
  5
C0
100
AcDbEntity
  8
SEMA2D
100
AcDbLine
370
9
 62
0
 48
0
  6
_SOLID
 10
0.1705417564
 20
2.344181057
 30
0
 11
0.1713891205
 21
2.3464353701
 31
0
  0
LINE
  5
C1
100
AcDbEntity
  8
SEMA2D
100
AcDbLine
370
9
 62
0
 48
0
  6
_SOLID
 10
0.1713891205
 20
2.3464353701
 30
0
 11
0.1731680377
 21
2.3484201412
 31
0
  0
LINE
  5
C2
100
AcDbEntity
  8
SEMA2D
100
AcDbLine
370
9
 62
0
 48
0
  6
_SOLID
 10
0.1731680377
 20
2.3484201412
 30
0
 11
0.1756747708
 21
2.3493257634
 31
0
  0
LINE
  5
C3
100
AcDbEntity
  8
SEMA2D
100
AcDbLine
370
9
 62
0
 48
0
  6
_SOLID
 10
0.1756747708
 20
2.3493257634
 30
0
 11
0.1798914676
 21
2.3497108926
 31
0
  0
LINE
  5
C4
100
AcDbEntity
  8
SEMA2D
100
AcDbLine
370
9
 62
0
 48
0
  6
_SOLID
 10
0.1798914676
 20
2.3497108926
 30
0
 11
0.1811866856
 21
2.3503542374
 31
0
  0
LINE
  5
C5
100
AcDbEntity
  8
SEMA2D
100
AcDbLine
370
9
 62
0
 48
0
  6
_SOLID
 10
0.1811866856
 20
2.3503542374
 30
0
 11
0.1817095561
 21
2.3517026025
 31
0
  0
LINE
  5
C6
100
AcDbEntity
  8
SEMA2D
100
AcDbLine
370
9
 62
0
 48
0
  6
_SOLID
 10
0.1817095561
 20
2.3517026025
 30
0
 11
0.1817095561
 21
2.3580262904
 31
0
  0
LINE
  5
C7
100
AcDbEntity
  8
SEMA2D
100
AcDbLine
370
9
 62
0
 48
0
  6
_SOLID
 10
0.1817095561
 20
2.3580262904
 30
0
 11
0.1811866856
 21
2.3593746555
 31
0
  0
LINE
  5
C8
100
AcDbEntity
  8
SEMA2D
100
AcDbLine
370
9
 62
0
 48
0
  6
_SOLID
 10
0.1811866856
 20
2.3593746555
 30
0
 11
0.1802057084
 21
2.3599637776
 31
0
  0
LINE
  5
C9
100
AcDbEntity
  8
SEMA2D
100
AcDbLine
370
9
 62
0
 48
0
  6
_SOLID
 10
0.1802057084
 20
2.3599637776
 30
0
 11
0.1801843873
 21
2.3599912466
 31
0
  0
LINE
  5
CA
100
AcDbEntity
  8
SEMA2D
100
AcDbLine
370
9
 62
0
 48
0
  6
_SOLID
 10
0.1801843873
 20
2.3599912466
 30
0
 11
0.1798914676
 21
2.3600180003
 31
0
  0
LINE
  5
CB
100
AcDbEntity
  8
SEMA2D
100
AcDbLine
370
9
 62
0
 48
0
  6
_SOLID
 10
0.1798914676
 20
2.3600180003
 30
0
 11
0.1744103752
 21
2.3605186121
 31
0
  0
LINE
  5
CC
100
AcDbEntity
  8
SEMA2D
100
AcDbLine
370
9
 62
0
 48
0
  6
_SOLID
 10
0.1744103752
 20
2.3605186121
 30
0
 11
0.1730808608
 21
2.3612005161
 31
0
  0
LINE
  5
CD
100
AcDbEntity
  8
SEMA2D
100
AcDbLine
370
9
 62
0
 48
0
  6
_SOLID
 10
0.1730808608
 20
2.3612005161
 30
0
 11
0.1725949493
 21
2.3626134887
 31
0
  0
LINE
  5
CE
100
AcDbEntity
  8
SEMA2D
100
AcDbLine
370
9
 62
0
 48
0
  6
_SOLID
 10
0.1725949493
 20
2.3626134887
 30
0
 11
0.1765720723
 21
2.4396117189
 31
0
  0
LINE
  5
CF
100
AcDbEntity
  8
SEMA2D
100
AcDbLine
370
9
 62
0
 48
0
  6
_SOLID
 10
0.1765720723
 20
2.4396117189
 30
0
 11
0.1774563686
 21
2.4419204491
 31
0
  0
LINE
  5
D0
100
AcDbEntity
  8
SEMA2D
100
AcDbLine
370
9
 62
0
 48
0
  6
_SOLID
 10
0.1774563686
 20
2.4419204491
 30
0
 11
0.1795288713
 21
2.4432683912
 31
0
  0
LINE
  5
D1
100
AcDbEntity
  8
SEMA2D
100
AcDbLine
370
9
 62
0
 48
0
  6
_SOLID
 10
0.1795288713
 20
2.4432683912
 30
0
 11
0.1817095561
 21
2.4438542769
 31
0
  0
LINE
  5
D2
100
AcDbEntity
  8
SEMA2D
100
AcDbLine
370
9
 62
0
 48
0
  6
_SOLID
 10
0.1817095561
 20
2.4438542769
 30
0
 11
0.1817095561
 21
2.4522041443
 31
0
  0
LINE
  5
D3
100
AcDbEntity
  8
SEMA2D
100
AcDbLine
370
9
 62
0
 48
0
  6
_SOLID
 10
0.1817095561
 20
2.4522041443
 30
0
 11
0.1796613716
 21
2.4527544311
 31
0
  0
LINE
  5
D4
100
AcDbEntity
  8
SEMA2D
100
AcDbLine
370
9
 62
0
 48
0
  6
_SOLID
 10
0.1796613716
 20
2.4527544311
 30
0
 11
0.1774621249
 21
2.454267748
 31
0
  0
LINE
  5
D5
100
AcDbEntity
  8
SEMA2D
100
AcDbLine
370
9
 62
0
 48
0
  6
_SOLID
 10
0.1774621249
 20
2.454267748
 30
0
 11
0.1767047763
 21
2.4568276772
 31
0
  0
LINE
  5
D6
100
AcDbEntity
  8
SEMA2D
100
AcDbLine
370
9
 62
0
 48
0
  6
_SOLID
 10
0.1767047763
 20
2.4568276772
 30
0
 11
0.1789102229
 21
2.4998168495
 31
0
  0
LINE
  5
D7
100
AcDbEntity
  8
SEMA2D
100
AcDbLine
370
9
 62
0
 48
0
  6
_SOLID
 10
0.1789102229
 20
2.4998168495
 30
0
 11
0.1789104017
 21
2.4998203522
 31
0
  0
LINE
  5
D8
100
AcDbEntity
  8
SEMA2D
100
AcDbLine
370
9
 62
0
 48
0
  6
_SOLID
 10
0.1789104017
 20
2.4998203522
 30
0
 11
0.1793812524
 21
2.50199533
 31
0
  0
LINE
  5
D9
100
AcDbEntity
  8
SEMA2D
100
AcDbLine
370
9
 62
0
 48
0
  6
_SOLID
 10
0.1793812524
 20
2.50199533
 30
0
 11
0.1811269676
 21
2.5045427347
 31
0
  0
LINE
  5
DA
100
AcDbEntity
  8
SEMA2D
100
AcDbLine
370
9
 62
0
 48
0
  6
_SOLID
 10
0.1811269676
 20
2.5045427347
 30
0
 11
0.1817095561
 21
2.5068658278
 31
0
  0
LINE
  5
DB
100
AcDbEntity
  8
SEMA2D
100
AcDbLine
370
9
 62
0
 48
0
  6
_SOLID
 10
0.1817095561
 20
2.5068658278
 30
0
 11
0.1817095561
 21
2.522648604
 31
0
  0
LINE
  5
DC
100
AcDbEntity
  8
SEMA2D
100
AcDbLine
370
9
 62
0
 48
0
  6
_SOLID
 10
0.1817095561
 20
2.522648604
 30
0
 11
0.1815573152
 21
2.5234139709
 31
0
  0
LINE
  5
DD
100
AcDbEntity
  8
SEMA2D
100
AcDbLine
370
9
 62
0
 48
0
  6
_SOLID
 10
0.1815573152
 20
2.5234139709
 30
0
 11
0.1811237697
 21
2.5240628176
 31
0
  0
LINE
  5
DE
100
AcDbEntity
  8
SEMA2D
100
AcDbLine
370
9
 62
0
 48
0
  6
_SOLID
 10
0.1811237697
 20
2.5240628176
 30
0
 11
0.1800233646
 21
2.5251632226
 31
0
  0
LINE
  5
DF
100
AcDbEntity
  8
SEMA2D
100
AcDbLine
370
9
 62
0
 48
0
  6
_SOLID
 10
0.1800233646
 20
2.5251632226
 30
0
 11
0.1758184681
 21
2.5263394464
 31
0
  0
LINE
  5
E0
100
AcDbEntity
  8
SEMA2D
100
AcDbLine
370
9
 62
0
 48
0
  6
_SOLID
 10
0.1758184681
 20
2.5263394464
 30
0
 11
0.1758184681
 21
2.5280019464
 31
0
  0
LINE
  5
E1
100
AcDbEntity
  8
SEMA2D
100
AcDbLine
370
9
 62
0
 48
0
  6
_SOLID
 10
0.1758184681
 20
2.5280019464
 30
0
 11
0.1721784681
 21
2.5280019464
 31
0
  0
LINE
  5
E2
100
AcDbEntity
  8
SEMA2D
100
AcDbLine
370
9
 62
0
 48
0
  6
_SOLID
 10
0.1721784681
 20
2.5280019464
 30
0
 11
0.1721784681
 21
2.5270519464
 31
0
  0
LINE
  5
E3
100
AcDbEntity
  8
SEMA2D
100
AcDbLine
370
9
 62
0
 48
0
  6
_SOLID
 10
0.1721784681
 20
2.5270519464
 30
0
 11
0.1663258929
 21
2.5254148221
 31
0
  0
LINE
  5
E4
100
AcDbEntity
  8
SEMA2D
100
AcDbLine
370
9
 62
0
 48
0
  6
_SOLID
 10
0.1663258929
 20
2.5254148221
 30
0
 11
0.1653046494
 21
2.5247402967
 31
0
  0
LINE
  5
E5
100
AcDbEntity
  8
SEMA2D
100
AcDbLine
370
9
 62
0
 48
0
  6
_SOLID
 10
0.1653046494
 20
2.5247402967
 30
0
 11
0.1648676018
 21
2.5235970941
 31
0
  0
LINE
  5
E6
100
AcDbEntity
  8
SEMA2D
100
AcDbLine
370
9
 62
0
 48
0
  6
_SOLID
 10
0.1648676018
 20
2.5235970941
 30
0
 11
0.1552836461
 21
2.3469273365
 31
0
  0
LINE
  5
E7
100
AcDbEntity
  8
SEMA2D
100
AcDbLine
370
9
 62
0
 48
0
  6
_SOLID
 10
0.1552836461
 20
2.3469273365
 30
0
 11
0.1542729556
 21
2.3447299191
 31
0
  0
LINE
  5
E8
100
AcDbEntity
  8
SEMA2D
100
AcDbLine
370
9
 62
0
 48
0
  6
_SOLID
 10
0.1542729556
 20
2.3447299191
 30
0
 11
0.1536480819
 21
2.3330017952
 31
0
  0
LINE
  5
E9
100
AcDbEntity
  8
SEMA2D
100
AcDbLine
370
9
 62
0
 48
0
  6
_SOLID
 10
0.1536480819
 20
2.3330017952
 30
0
 11
0.1544409113
 21
2.3307738996
 31
0
  0
LINE
  5
EA
100
AcDbEntity
  8
SEMA2D
100
AcDbLine
370
9
 62
0
 48
0
  6
_SOLID
 10
0.1544409113
 20
2.3307738996
 30
0
 11
0.1452306553
 21
2.1579080996
 31
0
  0
LINE
  5
EB
100
AcDbEntity
  8
SEMA2D
100
AcDbLine
370
9
 62
0
 48
0
  6
_SOLID
 10
0.1452306553
 20
2.1579080996
 30
0
 11
0.1461970085
 21
2.1545355516
 31
0
  0
LINE
  5
EC
100
AcDbEntity
  8
SEMA2D
100
AcDbLine
370
9
 62
0
 48
0
  6
_SOLID
 10
0.1461970085
 20
2.1545355516
 30
0
 11
0.1485354896
 21
2.1519203223
 31
0
  0
LINE
  5
ED
100
AcDbEntity
  8
SEMA2D
100
AcDbLine
370
9
 62
0
 48
0
  6
_SOLID
 10
0.1485354896
 20
2.1519203223
 30
0
 11
0.1523548392
 21
2.1508519464
 31
0
  0
LINE
  5
EE
100
AcDbEntity
  8
SEMA2D
100
AcDbLine
370
9
 62
0
 48
0
  6
_SOLID
 10
0.1523548392
 20
2.1508519464
 30
0
 11
0.1523548392
 21
2.1499019464
 31
0
  0
LINE
  5
EF
100
AcDbEntity
  8
SEMA2D
100
AcDbLine
370
9
 62
0
 48
0
  6
_SOLID
 10
0.1523548392
 20
2.1499019464
 30
0
 11
0.1559837007
 21
2.1499019464
 31
0
  0
LINE
  5
F0
100
AcDbEntity
  8
SEMA2D
100
AcDbLine
370
9
 62
0
 48
0
  6
_SOLID
 10
0.1559837007
 20
2.1499019464
 30
0
 11
0.1559837007
 21
2.1515644464
 31
0
  0
LINE
  5
F1
100
AcDbEntity
  8
SEMA2D
100
AcDbLine
370
9
 62
0
 48
0
  6
_SOLID
 10
0.1559837007
 20
2.1515644464
 30
0
 11
0.1589793712
 21
2.1524024169
 31
0
  0
LINE
  5
F2
100
AcDbEntity
  8
SEMA2D
100
AcDbLine
370
9
 62
0
 48
0
  6
_SOLID
 10
0.1589793712
 20
2.1524024169
 30
0
 11
0.1600005106
 21
2.1530768126
 31
0
  0
LINE
  5
F3
100
AcDbEntity
  8
SEMA2D
100
AcDbLine
370
9
 62
0
 48
0
  6
_SOLID
 10
0.1600005106
 20
2.1530768126
 30
0
 11
0.1604376442
 21
2.1542198129
 31
0
  0
LINE
  5
F4
100
AcDbEntity
  8
SEMA2D
100
AcDbLine
370
9
 62
0
 48
0
  6
_SOLID
 10
0.1604376442
 20
2.1542198129
 30
0
 11
0.1640729728
 21
2.2210366995
 31
0
  0
LINE
  5
F5
100
AcDbEntity
  8
SEMA2D
100
AcDbLine
370
9
 62
0
 48
0
  6
_SOLID
 10
0.1640729728
 20
2.2210366995
 30
0
 11
0.1660466563
 21
2.2258711777
 31
0
  0
LINE
  5
F6
100
AcDbEntity
  8
SEMA2D
100
AcDbLine
370
9
 62
0
 48
0
  6
_SOLID
 10
0.1660466563
 20
2.2258711777
 30
0
 11
0.1707092837
 21
2.228222244
 31
0
  0
LINE
  5
F7
100
AcDbEntity
  8
SEMA2D
100
AcDbLine
370
9
 62
0
 48
0
  6
_SOLID
 10
0.1707092837
 20
2.228222244
 30
0
 11
0.1798914676
 21
2.2290608926
 31
0
  0
LINE
  5
F8
100
AcDbEntity
  8
SEMA2D
100
AcDbLine
370
9
 62
0
 48
0
  6
_SOLID
 10
0.1798914676
 20
2.2290608926
 30
0
 11
0.1811866856
 21
2.2297042374
 31
0
  0
LINE
  5
F9
100
AcDbEntity
  8
SEMA2D
100
AcDbLine
370
9
 62
0
 48
0
  6
_SOLID
 10
0.1811866856
 20
2.2297042374
 30
0
 11
0.1817095561
 21
2.2310526025
 31
0
  0
LINE
  5
FA
100
AcDbEntity
  8
SEMA2D
100
AcDbLine
370
9
 62
0
 48
0
  6
_SOLID
 10
0.1817095561
 20
2.2310526025
 30
0
 11
0.1817095561
 21
2.2373762904
 31
0
  0
LINE
  5
FB
100
AcDbEntity
  8
SEMA2D
100
AcDbLine
370
9
 62
0
 48
0
  6
_SOLID
 10
0.1817095561
 20
2.2373762904
 30
0
 11
0.1811866856
 21
2.2387246555
 31
0
  0
LINE
  5
FC
100
AcDbEntity
  8
SEMA2D
100
AcDbLine
370
9
 62
0
 48
0
  6
_SOLID
 10
0.1811866856
 20
2.2387246555
 30
0
 11
0.1798914676
 21
2.2393680003
 31
0
  0
LINE
  5
FD
100
AcDbEntity
  8
SEMA2D
100
AcDbLine
370
9
 62
0
 48
0
  6
_SOLID
 10
0.1798914676
 20
2.2393680003
 30
0
 11
0.1723791818
 21
2.2400541298
 31
0
  0
LINE
  5
FE
100
AcDbEntity
  8
SEMA2D
100
AcDbLine
370
9
 62
0
 48
0
  6
_SOLID
 10
0.1723791818
 20
2.2400541298
 30
0
 11
0.1716712189
 21
2.2401187912
 31
0
  0
LINE
  5
FF
100
AcDbEntity
  8
SEMA2D
100
AcDbLine
370
9
 62
0
 48
0
  6
_SOLID
 10
0.1716712189
 20
2.2401187912
 30
0
 11
0.1679128068
 21
2.2417835286
 31
0
  0
LINE
  5
100
100
AcDbEntity
  8
SEMA2D
100
AcDbLine
370
9
 62
0
 48
0
  6
_SOLID
 10
0.1679128068
 20
2.2417835286
 30
0
 11
0.1654108968
 21
2.2458676158
 31
0
  0
LINE
  5
101
100
AcDbEntity
  8
SEMA2D
100
AcDbLine
370
9
 62
0
 48
0
  6
_SOLID
 10
0.1654108968
 20
2.2458676158
 30
0
 11
0.1698427812
 21
2.329048728
 31
0
  0
LINE
  5
102
100
AcDbEntity
  8
SEMA2D
100
AcDbLine
370
9
 62
0
 48
0
  6
_SOLID
 10
0.1698427812
 20
2.329048728
 30
0
 11
0.1688734239
 21
2.3318787033
 31
0
  0
LINE
  5
103
100
AcDbEntity
  8
SEMA2D
100
AcDbLine
370
9
 62
0
 48
0
  6
_SOLID
 10
0.1688734239
 20
2.3318787033
 30
0
 11
0.1662122696
 21
2.3332449656
 31
0
  0
LINE
  5
104
100
AcDbEntity
  8
SEMA2D
100
AcDbLine
370
9
 62
0
 48
0
  6
_SOLID
 10
0.1662122696
 20
2.3332449656
 30
0
 11
0.1565651779
 21
2.3341260761
 31
0
  0
LINE
  5
105
100
AcDbEntity
  8
SEMA2D
100
AcDbLine
370
9
 62
0
 48
0
  6
_SOLID
 10
0.1565651779
 20
2.3341260761
 30
0
 11
0.1565651779
 21
2.3389519464
 31
0
  0
LINE
  5
106
100
AcDbEntity
  8
SEMA2D
100
AcDbLine
370
9
 62
0
 48
0
  6
_SOLID
 10
0.1565651779
 20
2.3389519464
 30
0
 11
0.1565651779
 21
2.3418778168
 31
0
  0
LINE
  5
107
100
AcDbEntity
  8
SEMA2D
100
AcDbLine
370
9
 62
0
 48
0
  6
_SOLID
 10
0.1565651779
 20
2.3418778168
 30
0
 11
0.1684632957
 21
2.3429645233
 31
0
  0
LINE
  5
108
100
AcDbEntity
  8
SEMA2D
100
AcDbLine
370
9
 62
0
 48
0
  6
_SOLID
 10
0.1684632957
 20
2.3429645233
 30
0
 11
0.1705417564
 21
2.344181057
 31
0
  0
LINE
  5
109
100
AcDbEntity
  8
SEMA2D
100
AcDbLine
370
9
 62
0
 48
0
  6
_SOLID
 10
0.1705417564
 20
2.344181057
 30
0
 11
0.1713891205
 21
2.3464353701
 31
0
  0
LINE
  5
10A
100
AcDbEntity
  8
SEMA2D
100
AcDbLine
370
9
 62
0
 48
0
  6
_SOLID
 10
0.1713891205
 20
2.3464353701
 30
0
 11
0.1731680377
 21
2.3484201412
 31
0
  0
LINE
  5
10B
100
AcDbEntity
  8
SEMA2D
100
AcDbLine
370
9
 62
0
 48
0
  6
_SOLID
 10
0.1731680377
 20
2.3484201412
 30
0
 11
0.1756747708
 21
2.3493257634
 31
0
  0
LINE
  5
10C
100
AcDbEntity
  8
SEMA2D
100
AcDbLine
370
9
 62
0
 48
0
  6
_SOLID
 10
0.1756747708
 20
2.3493257634
 30
0
 11
0.1798914676
 21
2.3497108926
 31
0
  0
LINE
  5
10D
100
AcDbEntity
  8
SEMA2D
100
AcDbLine
370
9
 62
0
 48
0
  6
_SOLID
 10
0.1798914676
 20
2.3497108926
 30
0
 11
0.1811866856
 21
2.3503542374
 31
0
  0
LINE
  5
10E
100
AcDbEntity
  8
SEMA2D
100
AcDbLine
370
9
 62
0
 48
0
  6
_SOLID
 10
0.1811866856
 20
2.3503542374
 30
0
 11
0.1817095561
 21
2.3517026025
 31
0
  0
LINE
  5
10F
100
AcDbEntity
  8
SEMA2D
100
AcDbLine
370
9
 62
0
 48
0
  6
_SOLID
 10
0.1817095561
 20
2.3517026025
 30
0
 11
0.1817095561
 21
2.3580262904
 31
0
  0
LINE
  5
110
100
AcDbEntity
  8
SEMA2D
100
AcDbLine
370
9
 62
0
 48
0
  6
_SOLID
 10
0.1817095561
 20
2.3580262904
 30
0
 11
0.1811866856
 21
2.3593746555
 31
0
  0
LINE
  5
111
100
AcDbEntity
  8
SEMA2D
100
AcDbLine
370
9
 62
0
 48
0
  6
_SOLID
 10
0.1811866856
 20
2.3593746555
 30
0
 11
0.1802057084
 21
2.3599637776
 31
0
  0
LINE
  5
112
100
AcDbEntity
  8
SEMA2D
100
AcDbLine
370
9
 62
0
 48
0
  6
_SOLID
 10
0.1802057084
 20
2.3599637776
 30
0
 11
0.1801843873
 21
2.3599912466
 31
0
  0
LINE
  5
113
100
AcDbEntity
  8
SEMA2D
100
AcDbLine
370
9
 62
0
 48
0
  6
_SOLID
 10
0.1801843873
 20
2.3599912466
 30
0
 11
0.1798914676
 21
2.3600180003
 31
0
  0
LINE
  5
114
100
AcDbEntity
  8
SEMA2D
100
AcDbLine
370
9
 62
0
 48
0
  6
_SOLID
 10
0.1798914676
 20
2.3600180003
 30
0
 11
0.1744103752
 21
2.3605186121
 31
0
  0
LINE
  5
115
100
AcDbEntity
  8
SEMA2D
100
AcDbLine
370
9
 62
0
 48
0
  6
_SOLID
 10
0.1744103752
 20
2.3605186121
 30
0
 11
0.1730808608
 21
2.3612005161
 31
0
  0
LINE
  5
116
100
AcDbEntity
  8
SEMA2D
100
AcDbLine
370
9
 62
0
 48
0
  6
_SOLID
 10
0.1730808608
 20
2.3612005161
 30
0
 11
0.1725949493
 21
2.3626134887
 31
0
  0
LINE
  5
117
100
AcDbEntity
  8
SEMA2D
100
AcDbLine
370
9
 62
0
 48
0
  6
_SOLID
 10
0.1725949493
 20
2.3626134887
 30
0
 11
0.1765720723
 21
2.4396117189
 31
0
  0
LINE
  5
118
100
AcDbEntity
  8
SEMA2D
100
AcDbLine
370
9
 62
0
 48
0
  6
_SOLID
 10
0.1765720723
 20
2.4396117189
 30
0
 11
0.1774563686
 21
2.4419204491
 31
0
  0
LINE
  5
119
100
AcDbEntity
  8
SEMA2D
100
AcDbLine
370
9
 62
0
 48
0
  6
_SOLID
 10
0.1774563686
 20
2.4419204491
 30
0
 11
0.1795288713
 21
2.4432683912
 31
0
  0
LINE
  5
11A
100
AcDbEntity
  8
SEMA2D
100
AcDbLine
370
9
 62
0
 48
0
  6
_SOLID
 10
0.1795288713
 20
2.4432683912
 30
0
 11
0.1817095561
 21
2.4438542769
 31
0
  0
LINE
  5
11B
100
AcDbEntity
  8
SEMA2D
100
AcDbLine
370
9
 62
0
 48
0
  6
_SOLID
 10
0.1817095561
 20
2.4438542769
 30
0
 11
0.1817095561
 21
2.4522041443
 31
0
  0
LINE
  5
11C
100
AcDbEntity
  8
SEMA2D
100
AcDbLine
370
9
 62
0
 48
0
  6
_SOLID
 10
0.1817095561
 20
2.4522041443
 30
0
 11
0.1796613716
 21
2.4527544311
 31
0
  0
LINE
  5
11D
100
AcDbEntity
  8
SEMA2D
100
AcDbLine
370
9
 62
0
 48
0
  6
_SOLID
 10
0.1796613716
 20
2.4527544311
 30
0
 11
0.1774621249
 21
2.454267748
 31
0
  0
LINE
  5
11E
100
AcDbEntity
  8
SEMA2D
100
AcDbLine
370
9
 62
0
 48
0
  6
_SOLID
 10
0.1774621249
 20
2.454267748
 30
0
 11
0.1767047763
 21
2.4568276772
 31
0
  0
LINE
  5
11F
100
AcDbEntity
  8
SEMA2D
100
AcDbLine
370
9
 62
0
 48
0
  6
_SOLID
 10
0.1767047763
 20
2.4568276772
 30
0
 11
0.1789102229
 21
2.4998168495
 31
0
  0
LINE
  5
120
100
AcDbEntity
  8
SEMA2D
100
AcDbLine
370
9
 62
0
 48
0
  6
_SOLID
 10
0.1789102229
 20
2.4998168495
 30
0
 11
0.1789104017
 21
2.4998203522
 31
0
  0
LINE
  5
121
100
AcDbEntity
  8
SEMA2D
100
AcDbLine
370
9
 62
0
 48
0
  6
_SOLID
 10
0.1789104017
 20
2.4998203522
 30
0
 11
0.1793812524
 21
2.50199533
 31
0
  0
LINE
  5
122
100
AcDbEntity
  8
SEMA2D
100
AcDbLine
370
9
 62
0
 48
0
  6
_SOLID
 10
0.1793812524
 20
2.50199533
 30
0
 11
0.1811269676
 21
2.5045427347
 31
0
  0
LINE
  5
123
100
AcDbEntity
  8
SEMA2D
100
AcDbLine
370
9
 62
0
 48
0
  6
_SOLID
 10
0.1811269676
 20
2.5045427347
 30
0
 11
0.1817095561
 21
2.5068658278
 31
0
  0
LINE
  5
124
100
AcDbEntity
  8
SEMA2D
100
AcDbLine
370
9
 62
0
 48
0
  6
_SOLID
 10
0.1817095561
 20
2.5068658278
 30
0
 11
0.1817095561
 21
2.522648604
 31
0
  0
LINE
  5
125
100
AcDbEntity
  8
SEMA2D
100
AcDbLine
370
9
 62
0
 48
0
  6
_SOLID
 10
0.1817095561
 20
2.522648604
 30
0
 11
0.1815573152
 21
2.5234139709
 31
0
  0
LINE
  5
126
100
AcDbEntity
  8
SEMA2D
100
AcDbLine
370
9
 62
0
 48
0
  6
_SOLID
 10
0.1815573152
 20
2.5234139709
 30
0
 11
0.1811237697
 21
2.5240628176
 31
0
  0
LINE
  5
127
100
AcDbEntity
  8
SEMA2D
100
AcDbLine
370
9
 62
0
 48
0
  6
_SOLID
 10
0.1811237697
 20
2.5240628176
 30
0
 11
0.1800233646
 21
2.5251632226
 31
0
  0
LINE
  5
128
100
AcDbEntity
  8
SEMA2D
100
AcDbLine
370
9
 62
0
 48
0
  6
_SOLID
 10
0.1800233646
 20
2.5251632226
 30
0
 11
0.1758184681
 21
2.5263394464
 31
0
  0
LINE
  5
129
100
AcDbEntity
  8
SEMA2D
100
AcDbLine
370
9
 62
0
 48
0
  6
_SOLID
 10
0.1758184681
 20
2.5263394464
 30
0
 11
0.1758184681
 21
2.5280019464
 31
0
  0
LINE
  5
12A
100
AcDbEntity
  8
SEMA2D
100
AcDbLine
370
9
 62
0
 48
0
  6
_SOLID
 10
0.1758184681
 20
2.5280019464
 30
0
 11
0.1721784681
 21
2.5280019464
 31
0
  0
LINE
  5
12B
100
AcDbEntity
  8
SEMA2D
100
AcDbLine
370
9
 62
0
 48
0
  6
_SOLID
 10
0.1721784681
 20
2.5280019464
 30
0
 11
0.1721784681
 21
2.5270519464
 31
0
  0
LINE
  5
12C
100
AcDbEntity
  8
SEMA2D
100
AcDbLine
370
9
 62
0
 48
0
  6
_SOLID
 10
0.1721784681
 20
2.5270519464
 30
0
 11
0.1663258929
 21
2.5254148221
 31
0
  0
LINE
  5
12D
100
AcDbEntity
  8
SEMA2D
100
AcDbLine
370
9
 62
0
 48
0
  6
_SOLID
 10
0.1663258929
 20
2.5254148221
 30
0
 11
0.1653046494
 21
2.5247402967
 31
0
  0
LINE
  5
12E
100
AcDbEntity
  8
SEMA2D
100
AcDbLine
370
9
 62
0
 48
0
  6
_SOLID
 10
0.1653046494
 20
2.5247402967
 30
0
 11
0.1648676018
 21
2.5235970941
 31
0
  0
LINE
  5
12F
100
AcDbEntity
  8
SEMA2D
100
AcDbLine
370
9
 62
0
 48
0
  6
_SOLID
 10
0.1648676018
 20
2.5235970941
 30
0
 11
0.1552836461
 21
2.3469273365
 31
0
  0
LINE
  5
130
100
AcDbEntity
  8
SEMA2D
100
AcDbLine
370
9
 62
0
 48
0
  6
_SOLID
 10
0.1552836461
 20
2.3469273365
 30
0
 11
0.1542729556
 21
2.3447299191
 31
0
  0
LINE
  5
131
100
AcDbEntity
  8
SEMA2D
100
AcDbLine
370
9
 62
0
 48
0
  6
_SOLID
 10
0.1542729556
 20
2.3447299191
 30
0
 11
0.1536480819
 21
2.3330017952
 31
0
  0
LINE
  5
132
100
AcDbEntity
  8
SEMA2D
100
AcDbLine
370
9
 62
0
 48
0
  6
_SOLID
 10
0.1536480819
 20
2.3330017952
 30
0
 11
0.1544409113
 21
2.3307738996
 31
0
  0
LINE
  5
133
100
AcDbEntity
  8
SEMA2D
100
AcDbLine
370
9
 62
0
 48
0
  6
_SOLID
 10
0.1544409113
 20
2.3307738996
 30
0
 11
0.1452306553
 21
2.1579080996
 31
0
  0
LINE
  5
134
100
AcDbEntity
  8
SEMA2D
100
AcDbLine
370
9
 62
0
 48
0
  6
_SOLID
 10
0.1452306553
 20
2.1579080996
 30
0
 11
0.1461970085
 21
2.1545355516
 31
0
  0
LINE
  5
135
100
AcDbEntity
  8
SEMA2D
100
AcDbLine
370
9
 62
0
 48
0
  6
_SOLID
 10
0.1461970085
 20
2.1545355516
 30
0
 11
0.1485354896
 21
2.1519203223
 31
0
  0
LINE
  5
136
100
AcDbEntity
  8
SEMA2D
100
AcDbLine
370
9
 62
0
 48
0
  6
_SOLID
 10
0.1485354896
 20
2.1519203223
 30
0
 11
0.1523548392
 21
2.1508519464
 31
0
  0
LINE
  5
137
100
AcDbEntity
  8
SEMA2D
100
AcDbLine
370
9
 62
0
 48
0
  6
_SOLID
 10
0.1523548392
 20
2.1508519464
 30
0
 11
0.1523548392
 21
2.1499019464
 31
0
  0
LINE
  5
138
100
AcDbEntity
  8
SEMA2D
100
AcDbLine
370
9
 62
0
 48
0
  6
_SOLID
 10
0.1523548392
 20
2.1499019464
 30
0
 11
0.1559837007
 21
2.1499019464
 31
0
  0
LINE
  5
139
100
AcDbEntity
  8
SEMA2D
100
AcDbLine
370
9
 62
0
 48
0
  6
_SOLID
 10
0.1559837007
 20
2.1499019464
 30
0
 11
0.1559837007
 21
2.1515644464
 31
0
  0
LINE
  5
13A
100
AcDbEntity
  8
SEMA2D
100
AcDbLine
370
9
 62
0
 48
0
  6
_SOLID
 10
0.1559837007
 20
2.1515644464
 30
0
 11
0.1589793712
 21
2.1524024169
 31
0
  0
LINE
  5
13B
100
AcDbEntity
  8
SEMA2D
100
AcDbLine
370
9
 62
0
 48
0
  6
_SOLID
 10
0.1589793712
 20
2.1524024169
 30
0
 11
0.1600005106
 21
2.1530768126
 31
0
  0
LINE
  5
13C
100
AcDbEntity
  8
SEMA2D
100
AcDbLine
370
9
 62
0
 48
0
  6
_SOLID
 10
0.1600005106
 20
2.1530768126
 30
0
 11
0.1604376442
 21
2.1542198129
 31
0
  0
LINE
  5
13D
100
AcDbEntity
  8
SEMA2D
100
AcDbLine
370
9
 62
0
 48
0
  6
_SOLID
 10
0.1604376442
 20
2.1542198129
 30
0
 11
0.1640729728
 21
2.2210366995
 31
0
  0
LINE
  5
13E
100
AcDbEntity
  8
SEMA2D
100
AcDbLine
370
9
 62
0
 48
0
  6
_SOLID
 10
0.1640729728
 20
2.2210366995
 30
0
 11
0.1660466563
 21
2.2258711777
 31
0
  0
LINE
  5
13F
100
AcDbEntity
  8
SEMA2D
100
AcDbLine
370
9
 62
0
 48
0
  6
_SOLID
 10
0.1660466563
 20
2.2258711777
 30
0
 11
0.1707092837
 21
2.228222244
 31
0
  0
LINE
  5
140
100
AcDbEntity
  8
SEMA2D
100
AcDbLine
370
9
 62
0
 48
0
  6
_SOLID
 10
0.1707092837
 20
2.228222244
 30
0
 11
0.1798914676
 21
2.2290608926
 31
0
  0
LINE
  5
141
100
AcDbEntity
  8
SEMA2D
100
AcDbLine
370
9
 62
0
 48
0
  6
_SOLID
 10
0.1798914676
 20
2.2290608926
 30
0
 11
0.1811866856
 21
2.2297042374
 31
0
  0
LINE
  5
142
100
AcDbEntity
  8
SEMA2D
100
AcDbLine
370
9
 62
0
 48
0
  6
_SOLID
 10
0.1811866856
 20
2.2297042374
 30
0
 11
0.1817095561
 21
2.2310526025
 31
0
  0
LINE
  5
143
100
AcDbEntity
  8
SEMA2D
100
AcDbLine
370
9
 62
0
 48
0
  6
_SOLID
 10
0.1817095561
 20
2.2310526025
 30
0
 11
0.1817095561
 21
2.2373762904
 31
0
  0
LINE
  5
144
100
AcDbEntity
  8
SEMA2D
100
AcDbLine
370
9
 62
0
 48
0
  6
_SOLID
 10
0.1817095561
 20
2.2373762904
 30
0
 11
0.1811866856
 21
2.2387246555
 31
0
  0
LINE
  5
145
100
AcDbEntity
  8
SEMA2D
100
AcDbLine
370
9
 62
0
 48
0
  6
_SOLID
 10
0.1811866856
 20
2.2387246555
 30
0
 11
0.1798914676
 21
2.2393680003
 31
0
  0
LINE
  5
146
100
AcDbEntity
  8
SEMA2D
100
AcDbLine
370
9
 62
0
 48
0
  6
_SOLID
 10
0.1798914676
 20
2.2393680003
 30
0
 11
0.1723791818
 21
2.2400541298
 31
0
  0
LINE
  5
147
100
AcDbEntity
  8
SEMA2D
100
AcDbLine
370
9
 62
0
 48
0
  6
_SOLID
 10
0.1723791818
 20
2.2400541298
 30
0
 11
0.1716712189
 21
2.2401187912
 31
0
  0
LINE
  5
148
100
AcDbEntity
  8
SEMA2D
100
AcDbLine
370
9
 62
0
 48
0
  6
_SOLID
 10
0.1716712189
 20
2.2401187912
 30
0
 11
0.1679128068
 21
2.2417835286
 31
0
  0
LINE
  5
149
100
AcDbEntity
  8
SEMA2D
100
AcDbLine
370
9
 62
0
 48
0
  6
_SOLID
 10
0.1679128068
 20
2.2417835286
 30
0
 11
0.1654108968
 21
2.2458676158
 31
0
  0
LINE
  5
14A
100
AcDbEntity
  8
SEMA2D
100
AcDbLine
370
9
 62
0
 48
0
  6
_SOLID
 10
0.1654108968
 20
2.2458676158
 30
0
 11
0.1698427812
 21
2.329048728
 31
0
  0
LINE
  5
14B
100
AcDbEntity
  8
SEMA2D
100
AcDbLine
370
9
 62
0
 48
0
  6
_SOLID
 10
0.1698427812
 20
2.329048728
 30
0
 11
0.1688734239
 21
2.3318787033
 31
0
  0
LINE
  5
14C
100
AcDbEntity
  8
SEMA2D
100
AcDbLine
370
9
 62
0
 48
0
  6
_SOLID
 10
0.1688734239
 20
2.3318787033
 30
0
 11
0.1662122696
 21
2.3332449656
 31
0
  0
LINE
  5
14D
100
AcDbEntity
  8
SEMA2D
100
AcDbLine
370
9
 62
0
 48
0
  6
_SOLID
 10
0.1662122696
 20
2.3332449656
 30
0
 11
0.1565651779
 21
2.3341260761
 31
0
  0
LINE
  5
14E
100
AcDbEntity
  8
SEMA2D
100
AcDbLine
370
9
 62
0
 48
0
  6
_SOLID
 10
0.1565651779
 20
2.3341260761
 30
0
 11
0.1565651779
 21
2.3389519464
 31
0
  0
LINE
  5
14F
100
AcDbEntity
  8
SEMA2D
100
AcDbLine
370
9
 62
0
 48
0
  6
_SOLID
 10
0.1565651779
 20
2.3389519464
 30
0
 11
0.1565651779
 21
2.3418778168
 31
0
  0
LINE
  5
150
100
AcDbEntity
  8
SEMA2D
100
AcDbLine
370
9
 62
0
 48
0
  6
_SOLID
 10
0.1565651779
 20
2.3418778168
 30
0
 11
0.1684632957
 21
2.3429645233
 31
0
  0
LINE
  5
151
100
AcDbEntity
  8
SEMA2D
100
AcDbLine
370
9
 62
0
 48
0
  6
_SOLID
 10
0.1684632957
 20
2.3429645233
 30
0
 11
0.1705417564
 21
2.344181057
 31
0
  0
LINE
  5
152
100
AcDbEntity
  8
SEMA2D
100
AcDbLine
370
9
 62
0
 48
0
  6
_SOLID
 10
0.1705417564
 20
2.344181057
 30
0
 11
0.1713891205
 21
2.3464353701
 31
0
  0
LINE
  5
153
100
AcDbEntity
  8
SEMA2D
100
AcDbLine
370
9
 62
0
 48
0
  6
_SOLID
 10
0.1713891205
 20
2.3464353701
 30
0
 11
0.1731680377
 21
2.3484201412
 31
0
  0
LINE
  5
154
100
AcDbEntity
  8
SEMA2D
100
AcDbLine
370
9
 62
0
 48
0
  6
_SOLID
 10
0.1731680377
 20
2.3484201412
 30
0
 11
0.1756747708
 21
2.3493257634
 31
0
  0
LINE
  5
155
100
AcDbEntity
  8
SEMA2D
100
AcDbLine
370
9
 62
0
 48
0
  6
_SOLID
 10
0.1756747708
 20
2.3493257634
 30
0
 11
0.1798914676
 21
2.3497108926
 31
0
  0
LINE
  5
156
100
AcDbEntity
  8
SEMA2D
100
AcDbLine
370
9
 62
0
 48
0
  6
_SOLID
 10
0.1798914676
 20
2.3497108926
 30
0
 11
0.1811866856
 21
2.3503542374
 31
0
  0
LINE
  5
157
100
AcDbEntity
  8
SEMA2D
100
AcDbLine
370
9
 62
0
 48
0
  6
_SOLID
 10
0.1811866856
 20
2.3503542374
 30
0
 11
0.1817095561
 21
2.3517026025
 31
0
  0
LINE
  5
158
100
AcDbEntity
  8
SEMA2D
100
AcDbLine
370
9
 62
0
 48
0
  6
_SOLID
 10
0.1817095561
 20
2.3517026025
 30
0
 11
0.1817095561
 21
2.3580262904
 31
0
  0
LINE
  5
159
100
AcDbEntity
  8
SEMA2D
100
AcDbLine
370
9
 62
0
 48
0
  6
_SOLID
 10
0.1817095561
 20
2.3580262904
 30
0
 11
0.1811866856
 21
2.3593746555
 31
0
  0
LINE
  5
15A
100
AcDbEntity
  8
SEMA2D
100
AcDbLine
370
9
 62
0
 48
0
  6
_SOLID
 10
0.1811866856
 20
2.3593746555
 30
0
 11
0.1802057084
 21
2.3599637776
 31
0
  0
LINE
  5
15B
100
AcDbEntity
  8
SEMA2D
100
AcDbLine
370
9
 62
0
 48
0
  6
_SOLID
 10
0.1802057084
 20
2.3599637776
 30
0
 11
0.1801843873
 21
2.3599912466
 31
0
  0
LINE
  5
15C
100
AcDbEntity
  8
SEMA2D
100
AcDbLine
370
9
 62
0
 48
0
  6
_SOLID
 10
0.1801843873
 20
2.3599912466
 30
0
 11
0.1798914676
 21
2.3600180003
 31
0
  0
LINE
  5
15D
100
AcDbEntity
  8
SEMA2D
100
AcDbLine
370
9
 62
0
 48
0
  6
_SOLID
 10
0.1798914676
 20
2.3600180003
 30
0
 11
0.1744103752
 21
2.3605186121
 31
0
  0
LINE
  5
15E
100
AcDbEntity
  8
SEMA2D
100
AcDbLine
370
9
 62
0
 48
0
  6
_SOLID
 10
0.1744103752
 20
2.3605186121
 30
0
 11
0.1730808608
 21
2.3612005161
 31
0
  0
LINE
  5
15F
100
AcDbEntity
  8
SEMA2D
100
AcDbLine
370
9
 62
0
 48
0
  6
_SOLID
 10
0.1730808608
 20
2.3612005161
 30
0
 11
0.1725949493
 21
2.3626134887
 31
0
  0
LINE
  5
160
100
AcDbEntity
  8
SEMA2D
100
AcDbLine
370
9
 62
0
 48
0
  6
_SOLID
 10
0.1725949493
 20
2.3626134887
 30
0
 11
0.1765720723
 21
2.4396117189
 31
0
  0
LINE
  5
161
100
AcDbEntity
  8
SEMA2D
100
AcDbLine
370
9
 62
0
 48
0
  6
_SOLID
 10
0.1765720723
 20
2.4396117189
 30
0
 11
0.1774563686
 21
2.4419204491
 31
0
  0
LINE
  5
162
100
AcDbEntity
  8
SEMA2D
100
AcDbLine
370
9
 62
0
 48
0
  6
_SOLID
 10
0.1774563686
 20
2.4419204491
 30
0
 11
0.1795288713
 21
2.4432683912
 31
0
  0
LINE
  5
163
100
AcDbEntity
  8
SEMA2D
100
AcDbLine
370
9
 62
0
 48
0
  6
_SOLID
 10
0.1795288713
 20
2.4432683912
 30
0
 11
0.1817095561
 21
2.4438542769
 31
0
  0
LINE
  5
164
100
AcDbEntity
  8
SEMA2D
100
AcDbLine
370
9
 62
0
 48
0
  6
_SOLID
 10
0.1817095561
 20
2.4438542769
 30
0
 11
0.1817095561
 21
2.4522041443
 31
0
  0
LINE
  5
165
100
AcDbEntity
  8
SEMA2D
100
AcDbLine
370
9
 62
0
 48
0
  6
_SOLID
 10
0.1817095561
 20
2.4522041443
 30
0
 11
0.1796613716
 21
2.4527544311
 31
0
  0
LINE
  5
166
100
AcDbEntity
  8
SEMA2D
100
AcDbLine
370
9
 62
0
 48
0
  6
_SOLID
 10
0.1796613716
 20
2.4527544311
 30
0
 11
0.1774621249
 21
2.454267748
 31
0
  0
LINE
  5
167
100
AcDbEntity
  8
SEMA2D
100
AcDbLine
370
9
 62
0
 48
0
  6
_SOLID
 10
0.1774621249
 20
2.454267748
 30
0
 11
0.1767047763
 21
2.4568276772
 31
0
  0
LINE
  5
168
100
AcDbEntity
  8
SEMA2D
100
AcDbLine
370
9
 62
0
 48
0
  6
_SOLID
 10
0.1767047763
 20
2.4568276772
 30
0
 11
0.1789102229
 21
2.4998168495
 31
0
  0
LINE
  5
169
100
AcDbEntity
  8
SEMA2D
100
AcDbLine
370
9
 62
0
 48
0
  6
_SOLID
 10
0.1789102229
 20
2.4998168495
 30
0
 11
0.1789104017
 21
2.4998203522
 31
0
  0
LINE
  5
16A
100
AcDbEntity
  8
SEMA2D
100
AcDbLine
370
9
 62
0
 48
0
  6
_SOLID
 10
0.1789104017
 20
2.4998203522
 30
0
 11
0.1793812524
 21
2.50199533
 31
0
  0
LINE
  5
16B
100
AcDbEntity
  8
SEMA2D
100
AcDbLine
370
9
 62
0
 48
0
  6
_SOLID
 10
0.1793812524
 20
2.50199533
 30
0
 11
0.1811269676
 21
2.5045427347
 31
0
  0
LINE
  5
16C
100
AcDbEntity
  8
SEMA2D
100
AcDbLine
370
9
 62
0
 48
0
  6
_SOLID
 10
0.1811269676
 20
2.5045427347
 30
0
 11
0.1817095561
 21
2.5068658278
 31
0
  0
LINE
  5
16D
100
AcDbEntity
  8
SEMA2D
100
AcDbLine
370
9
 62
0
 48
0
  6
_SOLID
 10
0.1817095561
 20
2.5068658278
 30
0
 11
0.1817095561
 21
2.522648604
 31
0
  0
LINE
  5
16E
100
AcDbEntity
  8
SEMA2D
100
AcDbLine
370
9
 62
0
 48
0
  6
_SOLID
 10
0.1817095561
 20
2.522648604
 30
0
 11
0.1815573152
 21
2.5234139709
 31
0
  0
LINE
  5
16F
100
AcDbEntity
  8
SEMA2D
100
AcDbLine
370
9
 62
0
 48
0
  6
_SOLID
 10
0.1815573152
 20
2.5234139709
 30
0
 11
0.1811237697
 21
2.5240628176
 31
0
  0
LINE
  5
170
100
AcDbEntity
  8
SEMA2D
100
AcDbLine
370
9
 62
0
 48
0
  6
_SOLID
 10
0.1811237697
 20
2.5240628176
 30
0
 11
0.1800233646
 21
2.5251632226
 31
0
  0
LINE
  5
171
100
AcDbEntity
  8
SEMA2D
100
AcDbLine
370
9
 62
0
 48
0
  6
_SOLID
 10
0.1800233646
 20
2.5251632226
 30
0
 11
0.1758184681
 21
2.5263394464
 31
0
  0
LINE
  5
172
100
AcDbEntity
  8
SEMA2D
100
AcDbLine
370
9
 62
0
 48
0
  6
_SOLID
 10
0.1758184681
 20
2.5263394464
 30
0
 11
0.1758184681
 21
2.5280019464
 31
0
  0
LINE
  5
173
100
AcDbEntity
  8
SEMA2D
100
AcDbLine
370
9
 62
0
 48
0
  6
_SOLID
 10
0.1758184681
 20
2.5280019464
 30
0
 11
0.1721784681
 21
2.5280019464
 31
0
  0
LINE
  5
174
100
AcDbEntity
  8
SEMA2D
100
AcDbLine
370
9
 62
0
 48
0
  6
_SOLID
 10
0.1721784681
 20
2.5280019464
 30
0
 11
0.1721784681
 21
2.5270519464
 31
0
  0
LINE
  5
175
100
AcDbEntity
  8
SEMA2D
100
AcDbLine
370
9
 62
0
 48
0
  6
_SOLID
 10
0.1721784681
 20
2.5270519464
 30
0
 11
0.1663258929
 21
2.5254148221
 31
0
  0
LINE
  5
176
100
AcDbEntity
  8
SEMA2D
100
AcDbLine
370
9
 62
0
 48
0
  6
_SOLID
 10
0.1663258929
 20
2.5254148221
 30
0
 11
0.1653046494
 21
2.5247402967
 31
0
  0
LINE
  5
177
100
AcDbEntity
  8
SEMA2D
100
AcDbLine
370
9
 62
0
 48
0
  6
_SOLID
 10
0.1653046494
 20
2.5247402967
 30
0
 11
0.1648676018
 21
2.5235970941
 31
0
  0
LINE
  5
178
100
AcDbEntity
  8
SEMA2D
100
AcDbLine
370
9
 62
0
 48
0
  6
_SOLID
 10
0.1648676018
 20
2.5235970941
 30
0
 11
0.1552836461
 21
2.3469273365
 31
0
  0
LINE
  5
179
100
AcDbEntity
  8
SEMA2D
100
AcDbLine
370
9
 62
0
 48
0
  6
_SOLID
 10
0.1552836461
 20
2.3469273365
 30
0
 11
0.1542729556
 21
2.3447299191
 31
0
  0
LINE
  5
17A
100
AcDbEntity
  8
SEMA2D
100
AcDbLine
370
9
 62
0
 48
0
  6
_SOLID
 10
0.1542729556
 20
2.3447299191
 30
0
 11
0.1536480819
 21
2.3330017952
 31
0
  0
LINE
  5
17B
100
AcDbEntity
  8
SEMA2D
100
AcDbLine
370
9
 62
0
 48
0
  6
_SOLID
 10
0.1536480819
 20
2.3330017952
 30
0
 11
0.1544409113
 21
2.3307738996
 31
0
  0
LINE
  5
17C
100
AcDbEntity
  8
SEMA2D
100
AcDbLine
370
9
 62
0
 48
0
  6
_SOLID
 10
0.1544409113
 20
2.3307738996
 30
0
 11
0.1452306553
 21
2.1579080996
 31
0
  0
LINE
  5
17D
100
AcDbEntity
  8
SEMA2D
100
AcDbLine
370
9
 62
0
 48
0
  6
_SOLID
 10
0.1452306553
 20
2.1579080996
 30
0
 11
0.1461970085
 21
2.1545355516
 31
0
  0
LINE
  5
17E
100
AcDbEntity
  8
SEMA2D
100
AcDbLine
370
9
 62
0
 48
0
  6
_SOLID
 10
0.1461970085
 20
2.1545355516
 30
0
 11
0.1485354896
 21
2.1519203223
 31
0
  0
LINE
  5
17F
100
AcDbEntity
  8
SEMA2D
100
AcDbLine
370
9
 62
0
 48
0
  6
_SOLID
 10
0.1485354896
 20
2.1519203223
 30
0
 11
0.1523548392
 21
2.1508519464
 31
0
  0
LINE
  5
180
100
AcDbEntity
  8
SEMA2D
100
AcDbLine
370
9
 62
0
 48
0
  6
_SOLID
 10
0.1523548392
 20
2.1508519464
 30
0
 11
0.1523548392
 21
2.1499019464
 31
0
  0
LINE
  5
181
100
AcDbEntity
  8
SEMA2D
100
AcDbLine
370
9
 62
0
 48
0
  6
_SOLID
 10
0.1523548392
 20
2.1499019464
 30
0
 11
0.1559837007
 21
2.1499019464
 31
0
  0
LINE
  5
182
100
AcDbEntity
  8
SEMA2D
100
AcDbLine
370
9
 62
0
 48
0
  6
_SOLID
 10
0.1559837007
 20
2.1499019464
 30
0
 11
0.1559837007
 21
2.1515644464
 31
0
  0
LINE
  5
183
100
AcDbEntity
  8
SEMA2D
100
AcDbLine
370
9
 62
0
 48
0
  6
_SOLID
 10
0.1559837007
 20
2.1515644464
 30
0
 11
0.1589793712
 21
2.1524024169
 31
0
  0
LINE
  5
184
100
AcDbEntity
  8
SEMA2D
100
AcDbLine
370
9
 62
0
 48
0
  6
_SOLID
 10
0.1589793712
 20
2.1524024169
 30
0
 11
0.1600005106
 21
2.1530768126
 31
0
  0
LINE
  5
185
100
AcDbEntity
  8
SEMA2D
100
AcDbLine
370
9
 62
0
 48
0
  6
_SOLID
 10
0.1600005106
 20
2.1530768126
 30
0
 11
0.1604376442
 21
2.1542198129
 31
0
  0
LINE
  5
186
100
AcDbEntity
  8
SEMA2D
100
AcDbLine
370
9
 62
0
 48
0
  6
_SOLID
 10
0.1604376442
 20
2.1542198129
 30
0
 11
0.1640729728
 21
2.2210366995
 31
0
  0
LINE
  5
187
100
AcDbEntity
  8
SEMA2D
100
AcDbLine
370
9
 62
0
 48
0
  6
_SOLID
 10
0.1640729728
 20
2.2210366995
 30
0
 11
0.1660466563
 21
2.2258711777
 31
0
  0
LINE
  5
188
100
AcDbEntity
  8
SEMA2D
100
AcDbLine
370
9
 62
0
 48
0
  6
_SOLID
 10
0.1660466563
 20
2.2258711777
 30
0
 11
0.1707092837
 21
2.228222244
 31
0
  0
LINE
  5
189
100
AcDbEntity
  8
SEMA2D
100
AcDbLine
370
9
 62
0
 48
0
  6
_SOLID
 10
0.5245962828
 20
2.6101834034
 30
0
 11
0.5286816701625
 21
2.62502942105
 31
0
  0
LINE
  5
18A
100
AcDbEntity
  8
SEMA2D
100
AcDbLine
370
9
 62
0
 48
0
  6
_SOLID
 10
0.5286816701625
 20
2.62502942105
 30
0
 11
0.5357453643
 21
2.6386238327
 31
0
  0
LINE
  5
18B
100
AcDbEntity
  8
SEMA2D
100
AcDbLine
370
9
 62
0
 48
0
  6
_SOLID
 10
0.5357453643
 20
2.6386238327
 30
0
 11
0.5447737362
 21
2.6497331323
 31
0
  0
LINE
  5
18C
100
AcDbEntity
  8
SEMA2D
100
AcDbLine
370
9
 62
0
 48
0
  6
_SOLID
 10
0.5447737362
 20
2.6497331323
 30
0
 11
0.55483567925
 21
2.6582089165
 31
0
  0
LINE
  5
18D
100
AcDbEntity
  8
SEMA2D
100
AcDbLine
370
9
 62
0
 48
0
  6
_SOLID
 10
0.55483567925
 20
2.6582089165
 30
0
 11
0.5661866632
 21
2.6647108561
 31
0
  0
LINE
  5
18E
100
AcDbEntity
  8
SEMA2D
100
AcDbLine
370
9
 62
0
 48
0
  6
_SOLID
 10
0.5661866632
 20
2.6647108561
 30
0
 11
0.5663821976
 21
2.6648003092
 31
0
  0
LINE
  5
18F
100
AcDbEntity
  8
SEMA2D
100
AcDbLine
370
9
 62
0
 48
0
  6
_SOLID
 10
0.5663821976
 20
2.6648003092
 30
0
 11
0.5670511631
 21
2.6653631224
 31
0
  0
LINE
  5
190
100
AcDbEntity
  8
SEMA2D
100
AcDbLine
370
9
 62
0
 48
0
  6
_SOLID
 10
0.5670511631
 20
2.6653631224
 30
0
 11
0.5689461015
 21
2.6659099722
 31
0
  0
LINE
  5
191
100
AcDbEntity
  8
SEMA2D
100
AcDbLine
370
9
 62
0
 48
0
  6
_SOLID
 10
0.5689461015
 20
2.6659099722
 30
0
 11
0.5841270852
 21
2.670290968
 31
0
  0
LINE
  5
192
100
AcDbEntity
  8
SEMA2D
100
AcDbLine
370
9
 62
0
 48
0
  6
_SOLID
 10
0.5841270852
 20
2.670290968
 30
0
 11
0.6092591669
 21
2.6703311908
 31
0
  0
LINE
  5
193
100
AcDbEntity
  8
SEMA2D
100
AcDbLine
370
9
 62
0
 48
0
  6
_SOLID
 10
0.6092591669
 20
2.6703311908
 30
0
 11
0.609406617
 21
2.670290968
 31
0
  0
LINE
  5
194
100
AcDbEntity
  8
SEMA2D
100
AcDbLine
370
9
 62
0
 48
0
  6
_SOLID
 10
0.609406617
 20
2.670290968
 30
0
 11
0.6137460328
 21
2.670290968
 31
0
  0
LINE
  5
195
100
AcDbEntity
  8
SEMA2D
100
AcDbLine
370
9
 62
0
 48
0
  6
_SOLID
 10
0.6137460328
 20
2.670290968
 30
0
 11
0.6316864548
 21
2.6647108561
 31
0
  0
LINE
  5
196
100
AcDbEntity
  8
SEMA2D
100
AcDbLine
370
9
 62
0
 48
0
  6
_SOLID
 10
0.6316864548
 20
2.6647108561
 30
0
 11
0.64303743875
 21
2.6582089165
 31
0
  0
LINE
  5
197
100
AcDbEntity
  8
SEMA2D
100
AcDbLine
370
9
 62
0
 48
0
  6
_SOLID
 10
0.64303743875
 20
2.6582089165
 30
0
 11
0.6530993818
 21
2.6497331323
 31
0
  0
LINE
  5
198
100
AcDbEntity
  8
SEMA2D
100
AcDbLine
370
9
 62
0
 48
0
  6
_SOLID
 10
0.6530993818
 20
2.6497331323
 30
0
 11
0.6621277537
 21
2.6386238328
 31
0
  0
LINE
  5
199
100
AcDbEntity
  8
SEMA2D
100
AcDbLine
370
9
 62
0
 48
0
  6
_SOLID
 10
0.6621277537
 20
2.6386238328
 30
0
 11
0.6699699227
 21
2.6229548128
 31
0
  0
LINE
  5
19A
100
AcDbEntity
  8
SEMA2D
100
AcDbLine
370
9
 62
0
 48
0
  6
_SOLID
 10
0.6699699227
 20
2.6229548128
 30
0
 11
0.6732768353
 21
2.6101834034
 31
0
  0
LINE
  5
19B
100
AcDbEntity
  8
SEMA2D
100
AcDbLine
370
9
 62
0
 48
0
  6
_SOLID
 10
0.6732768353
 20
2.6101834034
 30
0
 11
0.6750121627
 21
2.6073055661
 31
0
  0
LINE
  5
19C
100
AcDbEntity
  8
SEMA2D
100
AcDbLine
370
9
 62
0
 48
0
  6
_SOLID
 10
0.6750121627
 20
2.6073055661
 30
0
 11
0.6781772725
 21
2.6061762353
 31
0
  0
LINE
  5
19D
100
AcDbEntity
  8
SEMA2D
100
AcDbLine
370
9
 62
0
 48
0
  6
_SOLID
 10
0.6781772725
 20
2.6061762353
 30
0
 11
0.70021078
 21
2.6061762416
 31
0
  0
LINE
  5
19E
100
AcDbEntity
  8
SEMA2D
100
AcDbLine
370
9
 62
0
 48
0
  6
_SOLID
 10
0.70021078
 20
2.6061762416
 30
0
 11
0.6970456702
 21
2.6073055724
 31
0
  0
LINE
  5
19F
100
AcDbEntity
  8
SEMA2D
100
AcDbLine
370
9
 62
0
 48
0
  6
_SOLID
 10
0.6970456702
 20
2.6073055724
 30
0
 11
0.6953103428
 21
2.6101834097
 31
0
  0
LINE
  5
1A0
100
AcDbEntity
  8
SEMA2D
100
AcDbLine
370
9
 62
0
 48
0
  6
_SOLID
 10
0.6953103428
 20
2.6101834097
 30
0
 11
0.695307608
 21
2.6101899727
 31
0
  0
LINE
  5
1A1
100
AcDbEntity
  8
SEMA2D
100
AcDbLine
370
9
 62
0
 48
0
  6
_SOLID
 10
0.695307608
 20
2.6101899727
 30
0
 11
0.6953145124
 21
2.6101840558
 31
0
  0
LINE
  5
1A2
100
AcDbEntity
  8
SEMA2D
100
AcDbLine
370
9
 62
0
 48
0
  6
_SOLID
 10
0.6953145124
 20
2.6101840558
 30
0
 11
0.6890409797375
 21
2.6324420327375
 31
0
  0
LINE
  5
1A3
100
AcDbEntity
  8
SEMA2D
100
AcDbLine
370
9
 62
0
 48
0
  6
_SOLID
 10
0.6890409797375
 20
2.6324420327375
 30
0
 11
0.6777086445
 21
2.6524244148
 31
0
  0
LINE
  5
1A4
100
AcDbEntity
  8
SEMA2D
100
AcDbLine
370
9
 62
0
 48
0
  6
_SOLID
 10
0.6777086445
 20
2.6524244148
 30
0
 11
0.6777079537
 21
2.6524253503
 31
0
  0
LINE
  5
1A5
100
AcDbEntity
  8
SEMA2D
100
AcDbLine
370
9
 62
0
 48
0
  6
_SOLID
 10
0.6777079537
 20
2.6524253503
 30
0
 11
0.6629803914
 21
2.6682602111
 31
0
  0
LINE
  5
1A6
100
AcDbEntity
  8
SEMA2D
100
AcDbLine
370
9
 62
0
 48
0
  6
_SOLID
 10
0.6629803914
 20
2.6682602111
 30
0
 11
0.65206094655
 21
2.67634887615
 31
0
  0
LINE
  5
1A7
100
AcDbEntity
  8
SEMA2D
100
AcDbLine
370
9
 62
0
 48
0
  6
_SOLID
 10
0.65206094655
 20
2.67634887615
 30
0
 11
0.6401988456
 21
2.6827692844
 31
0
  0
LINE
  5
1A8
100
AcDbEntity
  8
SEMA2D
100
AcDbLine
370
9
 62
0
 48
0
  6
_SOLID
 10
0.6401988456
 20
2.6827692844
 30
0
 11
0.62094830065
 21
2.6891411654
 31
0
  0
LINE
  5
1A9
100
AcDbEntity
  8
SEMA2D
100
AcDbLine
370
9
 62
0
 48
0
  6
_SOLID
 10
0.62094830065
 20
2.6891411654
 30
0
 11
0.6006374453
 21
2.6913186642
 31
0
  0
LINE
  5
1AA
100
AcDbEntity
  8
SEMA2D
100
AcDbLine
370
9
 62
0
 48
0
  6
_SOLID
 10
0.6006374453
 20
2.6913186642
 30
0
 11
0.5972356727
 21
2.6913186642
 31
0
  0
LINE
  5
1AB
100
AcDbEntity
  8
SEMA2D
100
AcDbLine
370
9
 62
0
 48
0
  6
_SOLID
 10
0.5972356727
 20
2.6913186642
 30
0
 11
0.5786280148125
 21
2.689494502275
 31
0
  0
LINE
  5
1AC
100
AcDbEntity
  8
SEMA2D
100
AcDbLine
370
9
 62
0
 48
0
  6
_SOLID
 10
0.5786280148125
 20
2.689494502275
 30
0
 11
0.5608606648
 21
2.6841448791
 31
0
  0
LINE
  5
1AD
100
AcDbEntity
  8
SEMA2D
100
AcDbLine
370
9
 62
0
 48
0
  6
_SOLID
 10
0.5608606648
 20
2.6841448791
 30
0
 11
0.5472916779625
 21
2.677271239375
 31
0
  0
LINE
  5
1AE
100
AcDbEntity
  8
SEMA2D
100
AcDbLine
370
9
 62
0
 48
0
  6
_SOLID
 10
0.5472916779625
 20
2.677271239375
 30
0
 11
0.5348927266
 21
2.6682602111
 31
0
  0
LINE
  5
1AF
100
AcDbEntity
  8
SEMA2D
100
AcDbLine
370
9
 62
0
 48
0
  6
_SOLID
 10
0.5348927266
 20
2.6682602111
 30
0
 11
0.5256137008
 21
2.6591460381
 31
0
  0
LINE
  5
1B0
100
AcDbEntity
  8
SEMA2D
100
AcDbLine
370
9
 62
0
 48
0
  6
_SOLID
 10
0.5256137008
 20
2.6591460381
 30
0
 11
0.5151445492375
 21
2.6449085963875
 31
0
  0
LINE
  5
1B1
100
AcDbEntity
  8
SEMA2D
100
AcDbLine
370
9
 62
0
 48
0
  6
_SOLID
 10
0.5151445492375
 20
2.6449085963875
 30
0
 11
0.507477445
 21
2.6290155575
 31
0
  0
LINE
  5
1B2
100
AcDbEntity
  8
SEMA2D
100
AcDbLine
370
9
 62
0
 48
0
  6
_SOLID
 10
0.507477445
 20
2.6290155575
 30
0
 11
0.5025586056
 21
2.6101840558
 31
0
  0
LINE
  5
1B3
100
AcDbEntity
  8
SEMA2D
100
AcDbLine
370
9
 62
0
 48
0
  6
_SOLID
 10
0.5025586056
 20
2.6101840558
 30
0
 11
0.5025641937
 21
2.6101888446
 31
0
  0
LINE
  5
1B4
100
AcDbEntity
  8
SEMA2D
100
AcDbLine
370
9
 62
0
 48
0
  6
_SOLID
 10
0.5025641937
 20
2.6101888446
 30
0
 11
0.5025627751
 21
2.6101834091
 31
0
  0
LINE
  5
1B5
100
AcDbEntity
  8
SEMA2D
100
AcDbLine
370
9
 62
0
 48
0
  6
_SOLID
 10
0.5025627751
 20
2.6101834091
 30
0
 11
0.5024229124
 21
2.6096475114
 31
0
  0
LINE
  5
1B6
100
AcDbEntity
  8
SEMA2D
100
AcDbLine
370
9
 62
0
 48
0
  6
_SOLID
 10
0.5024229124
 20
2.6096475114
 30
0
 11
0.5008274478
 21
2.6073055724
 31
0
  0
LINE
  5
1B7
100
AcDbEntity
  8
SEMA2D
100
AcDbLine
370
9
 62
0
 48
0
  6
_SOLID
 10
0.5008274478
 20
2.6073055724
 30
0
 11
0.497662338
 21
2.6061762416
 31
0
  0
LINE
  5
1B8
100
AcDbEntity
  8
SEMA2D
100
AcDbLine
370
9
 62
0
 48
0
  6
_SOLID
 10
0.497662338
 20
2.6061762416
 30
0
 11
0.519696245
 21
2.6061761891
 31
0
  0
LINE
  5
1B9
100
AcDbEntity
  8
SEMA2D
100
AcDbLine
370
9
 62
0
 48
0
  6
_SOLID
 10
0.519696245
 20
2.6061761891
 30
0
 11
0.5228615728
 21
2.6073056981
 31
0
  0
LINE
  5
1BA
100
AcDbEntity
  8
SEMA2D
100
AcDbLine
370
9
 62
0
 48
0
  6
_SOLID
 10
0.5228615728
 20
2.6073056981
 30
0
 11
0.5245962828
 21
2.6101834034
 31
0
  0
LINE
  5
1BB
100
AcDbEntity
  8
SEMA2D
100
AcDbLine
370
9
 62
0
 48
0
  6
_SOLID
 10
0.5245962828
 20
2.6101834034
 30
0
 11
0.5357453643
 21
2.6386238327
 31
0
  0
LINE
  5
1BC
100
AcDbEntity
  8
SEMA2D
100
AcDbLine
370
9
 62
0
 48
0
  6
_SOLID
 10
0.5357453643
 20
2.6386238327
 30
0
 11
0.5447737362
 21
2.6497331323
 31
0
  0
LINE
  5
1BD
100
AcDbEntity
  8
SEMA2D
100
AcDbLine
370
9
 62
0
 48
0
  6
_SOLID
 10
0.5447737362
 20
2.6497331323
 30
0
 11
0.5661866632
 21
2.6647108561
 31
0
  0
LINE
  5
1BE
100
AcDbEntity
  8
SEMA2D
100
AcDbLine
370
9
 62
0
 48
0
  6
_SOLID
 10
0.5661866632
 20
2.6647108561
 30
0
 11
0.5663821976
 21
2.6648003092
 31
0
  0
LINE
  5
1BF
100
AcDbEntity
  8
SEMA2D
100
AcDbLine
370
9
 62
0
 48
0
  6
_SOLID
 10
0.5663821976
 20
2.6648003092
 30
0
 11
0.5670511631
 21
2.6653631224
 31
0
  0
LINE
  5
1C0
100
AcDbEntity
  8
SEMA2D
100
AcDbLine
370
9
 62
0
 48
0
  6
_SOLID
 10
0.5670511631
 20
2.6653631224
 30
0
 11
0.5689461015
 21
2.6659099722
 31
0
  0
LINE
  5
1C1
100
AcDbEntity
  8
SEMA2D
100
AcDbLine
370
9
 62
0
 48
0
  6
_SOLID
 10
0.5689461015
 20
2.6659099722
 30
0
 11
0.5841270852
 21
2.670290968
 31
0
  0
LINE
  5
1C2
100
AcDbEntity
  8
SEMA2D
100
AcDbLine
370
9
 62
0
 48
0
  6
_SOLID
 10
0.5841270852
 20
2.670290968
 30
0
 11
0.6092591669
 21
2.6703311908
 31
0
  0
LINE
  5
1C3
100
AcDbEntity
  8
SEMA2D
100
AcDbLine
370
9
 62
0
 48
0
  6
_SOLID
 10
0.6092591669
 20
2.6703311908
 30
0
 11
0.609406617
 21
2.670290968
 31
0
  0
LINE
  5
1C4
100
AcDbEntity
  8
SEMA2D
100
AcDbLine
370
9
 62
0
 48
0
  6
_SOLID
 10
0.609406617
 20
2.670290968
 30
0
 11
0.6137460328
 21
2.670290968
 31
0
  0
LINE
  5
1C5
100
AcDbEntity
  8
SEMA2D
100
AcDbLine
370
9
 62
0
 48
0
  6
_SOLID
 10
0.6137460328
 20
2.670290968
 30
0
 11
0.6316864548
 21
2.6647108561
 31
0
  0
LINE
  5
1C6
100
AcDbEntity
  8
SEMA2D
100
AcDbLine
370
9
 62
0
 48
0
  6
_SOLID
 10
0.6316864548
 20
2.6647108561
 30
0
 11
0.6530993818
 21
2.6497331323
 31
0
  0
LINE
  5
1C7
100
AcDbEntity
  8
SEMA2D
100
AcDbLine
370
9
 62
0
 48
0
  6
_SOLID
 10
0.6530993818
 20
2.6497331323
 30
0
 11
0.6621277537
 21
2.6386238328
 31
0
  0
LINE
  5
1C8
100
AcDbEntity
  8
SEMA2D
100
AcDbLine
370
9
 62
0
 48
0
  6
_SOLID
 10
0.6621277537
 20
2.6386238328
 30
0
 11
0.6699699227
 21
2.6229548128
 31
0
  0
LINE
  5
1C9
100
AcDbEntity
  8
SEMA2D
100
AcDbLine
370
9
 62
0
 48
0
  6
_SOLID
 10
0.6699699227
 20
2.6229548128
 30
0
 11
0.6732768353
 21
2.6101834034
 31
0
  0
LINE
  5
1CA
100
AcDbEntity
  8
SEMA2D
100
AcDbLine
370
9
 62
0
 48
0
  6
_SOLID
 10
0.6732768353
 20
2.6101834034
 30
0
 11
0.6750121627
 21
2.6073055661
 31
0
  0
LINE
  5
1CB
100
AcDbEntity
  8
SEMA2D
100
AcDbLine
370
9
 62
0
 48
0
  6
_SOLID
 10
0.6750121627
 20
2.6073055661
 30
0
 11
0.6781772725
 21
2.6061762353
 31
0
  0
LINE
  5
1CC
100
AcDbEntity
  8
SEMA2D
100
AcDbLine
370
9
 62
0
 48
0
  6
_SOLID
 10
0.6781772725
 20
2.6061762353
 30
0
 11
0.70021078
 21
2.6061762416
 31
0
  0
LINE
  5
1CD
100
AcDbEntity
  8
SEMA2D
100
AcDbLine
370
9
 62
0
 48
0
  6
_SOLID
 10
0.70021078
 20
2.6061762416
 30
0
 11
0.6970456702
 21
2.6073055724
 31
0
  0
LINE
  5
1CE
100
AcDbEntity
  8
SEMA2D
100
AcDbLine
370
9
 62
0
 48
0
  6
_SOLID
 10
0.6970456702
 20
2.6073055724
 30
0
 11
0.6953103428
 21
2.6101834097
 31
0
  0
LINE
  5
1CF
100
AcDbEntity
  8
SEMA2D
100
AcDbLine
370
9
 62
0
 48
0
  6
_SOLID
 10
0.6953103428
 20
2.6101834097
 30
0
 11
0.695307608
 21
2.6101899727
 31
0
  0
LINE
  5
1D0
100
AcDbEntity
  8
SEMA2D
100
AcDbLine
370
9
 62
0
 48
0
  6
_SOLID
 10
0.695307608
 20
2.6101899727
 30
0
 11
0.6953145124
 21
2.6101840558
 31
0
  0
LINE
  5
1D1
100
AcDbEntity
  8
SEMA2D
100
AcDbLine
370
9
 62
0
 48
0
  6
_SOLID
 10
0.6953145124
 20
2.6101840558
 30
0
 11
0.6777086445
 21
2.6524244148
 31
0
  0
LINE
  5
1D2
100
AcDbEntity
  8
SEMA2D
100
AcDbLine
370
9
 62
0
 48
0
  6
_SOLID
 10
0.6777086445
 20
2.6524244148
 30
0
 11
0.6777079537
 21
2.6524253503
 31
0
  0
LINE
  5
1D3
100
AcDbEntity
  8
SEMA2D
100
AcDbLine
370
9
 62
0
 48
0
  6
_SOLID
 10
0.6777079537
 20
2.6524253503
 30
0
 11
0.6629803914
 21
2.6682602111
 31
0
  0
LINE
  5
1D4
100
AcDbEntity
  8
SEMA2D
100
AcDbLine
370
9
 62
0
 48
0
  6
_SOLID
 10
0.6629803914
 20
2.6682602111
 30
0
 11
0.6401988456
 21
2.6827692844
 31
0
  0
LINE
  5
1D5
100
AcDbEntity
  8
SEMA2D
100
AcDbLine
370
9
 62
0
 48
0
  6
_SOLID
 10
0.6401988456
 20
2.6827692844
 30
0
 11
0.6006374453
 21
2.6913186642
 31
0
  0
LINE
  5
1D6
100
AcDbEntity
  8
SEMA2D
100
AcDbLine
370
9
 62
0
 48
0
  6
_SOLID
 10
0.6006374453
 20
2.6913186642
 30
0
 11
0.5972356727
 21
2.6913186642
 31
0
  0
LINE
  5
1D7
100
AcDbEntity
  8
SEMA2D
100
AcDbLine
370
9
 62
0
 48
0
  6
_SOLID
 10
0.5972356727
 20
2.6913186642
 30
0
 11
0.5608606648
 21
2.6841448791
 31
0
  0
LINE
  5
1D8
100
AcDbEntity
  8
SEMA2D
100
AcDbLine
370
9
 62
0
 48
0
  6
_SOLID
 10
0.5608606648
 20
2.6841448791
 30
0
 11
0.5348927266
 21
2.6682602111
 31
0
  0
LINE
  5
1D9
100
AcDbEntity
  8
SEMA2D
100
AcDbLine
370
9
 62
0
 48
0
  6
_SOLID
 10
0.5348927266
 20
2.6682602111
 30
0
 11
0.5256137008
 21
2.6591460381
 31
0
  0
LINE
  5
1DA
100
AcDbEntity
  8
SEMA2D
100
AcDbLine
370
9
 62
0
 48
0
  6
_SOLID
 10
0.5256137008
 20
2.6591460381
 30
0
 11
0.507477445
 21
2.6290155575
 31
0
  0
LINE
  5
1DB
100
AcDbEntity
  8
SEMA2D
100
AcDbLine
370
9
 62
0
 48
0
  6
_SOLID
 10
0.507477445
 20
2.6290155575
 30
0
 11
0.5025586056
 21
2.6101840558
 31
0
  0
LINE
  5
1DC
100
AcDbEntity
  8
SEMA2D
100
AcDbLine
370
9
 62
0
 48
0
  6
_SOLID
 10
0.5025586056
 20
2.6101840558
 30
0
 11
0.5025641937
 21
2.6101888446
 31
0
  0
LINE
  5
1DD
100
AcDbEntity
  8
SEMA2D
100
AcDbLine
370
9
 62
0
 48
0
  6
_SOLID
 10
0.5025641937
 20
2.6101888446
 30
0
 11
0.5025627751
 21
2.6101834091
 31
0
  0
LINE
  5
1DE
100
AcDbEntity
  8
SEMA2D
100
AcDbLine
370
9
 62
0
 48
0
  6
_SOLID
 10
0.5025627751
 20
2.6101834091
 30
0
 11
0.5024229124
 21
2.6096475114
 31
0
  0
LINE
  5
1DF
100
AcDbEntity
  8
SEMA2D
100
AcDbLine
370
9
 62
0
 48
0
  6
_SOLID
 10
0.5024229124
 20
2.6096475114
 30
0
 11
0.5008274478
 21
2.6073055724
 31
0
  0
LINE
  5
1E0
100
AcDbEntity
  8
SEMA2D
100
AcDbLine
370
9
 62
0
 48
0
  6
_SOLID
 10
0.5008274478
 20
2.6073055724
 30
0
 11
0.497662338
 21
2.6061762416
 31
0
  0
LINE
  5
1E1
100
AcDbEntity
  8
SEMA2D
100
AcDbLine
370
9
 62
0
 48
0
  6
_SOLID
 10
0.497662338
 20
2.6061762416
 30
0
 11
0.519696245
 21
2.6061761891
 31
0
  0
LINE
  5
1E2
100
AcDbEntity
  8
SEMA2D
100
AcDbLine
370
9
 62
0
 48
0
  6
_SOLID
 10
0.519696245
 20
2.6061761891
 30
0
 11
0.5228615728
 21
2.6073056981
 31
0
  0
LINE
  5
1E3
100
AcDbEntity
  8
SEMA2D
100
AcDbLine
370
9
 62
0
 48
0
  6
_SOLID
 10
0.5228615728
 20
2.6073056981
 30
0
 11
0.5245962828
 21
2.6101834034
 31
0
  0
LINE
  5
1E4
100
AcDbEntity
  8
SEMA2D
100
AcDbLine
370
9
 62
0
 48
0
  6
_SOLID
 10
0.5245962828
 20
2.6101834034
 30
0
 11
0.5357453643
 21
2.6386238327
 31
0
  0
LINE
  5
1E5
100
AcDbEntity
  8
SEMA2D
100
AcDbLine
370
9
 62
0
 48
0
  6
_SOLID
 10
0.5357453643
 20
2.6386238327
 30
0
 11
0.5447737362
 21
2.6497331323
 31
0
  0
LINE
  5
1E6
100
AcDbEntity
  8
SEMA2D
100
AcDbLine
370
9
 62
0
 48
0
  6
_SOLID
 10
0.5447737362
 20
2.6497331323
 30
0
 11
0.5661866632
 21
2.6647108561
 31
0
  0
LINE
  5
1E7
100
AcDbEntity
  8
SEMA2D
100
AcDbLine
370
9
 62
0
 48
0
  6
_SOLID
 10
0.5661866632
 20
2.6647108561
 30
0
 11
0.5663821976
 21
2.6648003092
 31
0
  0
LINE
  5
1E8
100
AcDbEntity
  8
SEMA2D
100
AcDbLine
370
9
 62
0
 48
0
  6
_SOLID
 10
0.5663821976
 20
2.6648003092
 30
0
 11
0.5670511631
 21
2.6653631224
 31
0
  0
LINE
  5
1E9
100
AcDbEntity
  8
SEMA2D
100
AcDbLine
370
9
 62
0
 48
0
  6
_SOLID
 10
0.5670511631
 20
2.6653631224
 30
0
 11
0.5689461015
 21
2.6659099722
 31
0
  0
LINE
  5
1EA
100
AcDbEntity
  8
SEMA2D
100
AcDbLine
370
9
 62
0
 48
0
  6
_SOLID
 10
0.5689461015
 20
2.6659099722
 30
0
 11
0.5841270852
 21
2.670290968
 31
0
  0
LINE
  5
1EB
100
AcDbEntity
  8
SEMA2D
100
AcDbLine
370
9
 62
0
 48
0
  6
_SOLID
 10
0.5841270852
 20
2.670290968
 30
0
 11
0.6092591669
 21
2.6703311908
 31
0
  0
LINE
  5
1EC
100
AcDbEntity
  8
SEMA2D
100
AcDbLine
370
9
 62
0
 48
0
  6
_SOLID
 10
0.6092591669
 20
2.6703311908
 30
0
 11
0.609406617
 21
2.670290968
 31
0
  0
LINE
  5
1ED
100
AcDbEntity
  8
SEMA2D
100
AcDbLine
370
9
 62
0
 48
0
  6
_SOLID
 10
0.609406617
 20
2.670290968
 30
0
 11
0.6137460328
 21
2.670290968
 31
0
  0
LINE
  5
1EE
100
AcDbEntity
  8
SEMA2D
100
AcDbLine
370
9
 62
0
 48
0
  6
_SOLID
 10
0.6137460328
 20
2.670290968
 30
0
 11
0.6316864548
 21
2.6647108561
 31
0
  0
LINE
  5
1EF
100
AcDbEntity
  8
SEMA2D
100
AcDbLine
370
9
 62
0
 48
0
  6
_SOLID
 10
0.6316864548
 20
2.6647108561
 30
0
 11
0.6530993818
 21
2.6497331323
 31
0
  0
LINE
  5
1F0
100
AcDbEntity
  8
SEMA2D
100
AcDbLine
370
9
 62
0
 48
0
  6
_SOLID
 10
0.6530993818
 20
2.6497331323
 30
0
 11
0.6621277537
 21
2.6386238328
 31
0
  0
LINE
  5
1F1
100
AcDbEntity
  8
SEMA2D
100
AcDbLine
370
9
 62
0
 48
0
  6
_SOLID
 10
0.6621277537
 20
2.6386238328
 30
0
 11
0.6699699227
 21
2.6229548128
 31
0
  0
LINE
  5
1F2
100
AcDbEntity
  8
SEMA2D
100
AcDbLine
370
9
 62
0
 48
0
  6
_SOLID
 10
0.6699699227
 20
2.6229548128
 30
0
 11
0.6732768353
 21
2.6101834034
 31
0
  0
LINE
  5
1F3
100
AcDbEntity
  8
SEMA2D
100
AcDbLine
370
9
 62
0
 48
0
  6
_SOLID
 10
0.6732768353
 20
2.6101834034
 30
0
 11
0.6750121627
 21
2.6073055661
 31
0
  0
LINE
  5
1F4
100
AcDbEntity
  8
SEMA2D
100
AcDbLine
370
9
 62
0
 48
0
  6
_SOLID
 10
0.6750121627
 20
2.6073055661
 30
0
 11
0.6781772725
 21
2.6061762353
 31
0
  0
LINE
  5
1F5
100
AcDbEntity
  8
SEMA2D
100
AcDbLine
370
9
 62
0
 48
0
  6
_SOLID
 10
0.6781772725
 20
2.6061762353
 30
0
 11
0.70021078
 21
2.6061762416
 31
0
  0
LINE
  5
1F6
100
AcDbEntity
  8
SEMA2D
100
AcDbLine
370
9
 62
0
 48
0
  6
_SOLID
 10
0.70021078
 20
2.6061762416
 30
0
 11
0.6970456702
 21
2.6073055724
 31
0
  0
LINE
  5
1F7
100
AcDbEntity
  8
SEMA2D
100
AcDbLine
370
9
 62
0
 48
0
  6
_SOLID
 10
0.6970456702
 20
2.6073055724
 30
0
 11
0.6953103428
 21
2.6101834097
 31
0
  0
LINE
  5
1F8
100
AcDbEntity
  8
SEMA2D
100
AcDbLine
370
9
 62
0
 48
0
  6
_SOLID
 10
0.6953103428
 20
2.6101834097
 30
0
 11
0.695307608
 21
2.6101899727
 31
0
  0
LINE
  5
1F9
100
AcDbEntity
  8
SEMA2D
100
AcDbLine
370
9
 62
0
 48
0
  6
_SOLID
 10
0.695307608
 20
2.6101899727
 30
0
 11
0.6953145124
 21
2.6101840558
 31
0
  0
LINE
  5
1FA
100
AcDbEntity
  8
SEMA2D
100
AcDbLine
370
9
 62
0
 48
0
  6
_SOLID
 10
0.6953145124
 20
2.6101840558
 30
0
 11
0.6777086445
 21
2.6524244148
 31
0
  0
LINE
  5
1FB
100
AcDbEntity
  8
SEMA2D
100
AcDbLine
370
9
 62
0
 48
0
  6
_SOLID
 10
0.6777086445
 20
2.6524244148
 30
0
 11
0.6777079537
 21
2.6524253503
 31
0
  0
LINE
  5
1FC
100
AcDbEntity
  8
SEMA2D
100
AcDbLine
370
9
 62
0
 48
0
  6
_SOLID
 10
0.6777079537
 20
2.6524253503
 30
0
 11
0.6629803914
 21
2.6682602111
 31
0
  0
LINE
  5
1FD
100
AcDbEntity
  8
SEMA2D
100
AcDbLine
370
9
 62
0
 48
0
  6
_SOLID
 10
0.6629803914
 20
2.6682602111
 30
0
 11
0.6401988456
 21
2.6827692844
 31
0
  0
LINE
  5
1FE
100
AcDbEntity
  8
SEMA2D
100
AcDbLine
370
9
 62
0
 48
0
  6
_SOLID
 10
0.6401988456
 20
2.6827692844
 30
0
 11
0.6006374453
 21
2.6913186642
 31
0
  0
LINE
  5
1FF
100
AcDbEntity
  8
SEMA2D
100
AcDbLine
370
9
 62
0
 48
0
  6
_SOLID
 10
0.6006374453
 20
2.6913186642
 30
0
 11
0.5972356727
 21
2.6913186642
 31
0
  0
LINE
  5
200
100
AcDbEntity
  8
SEMA2D
100
AcDbLine
370
9
 62
0
 48
0
  6
_SOLID
 10
0.5972356727
 20
2.6913186642
 30
0
 11
0.5608606648
 21
2.6841448791
 31
0
  0
LINE
  5
201
100
AcDbEntity
  8
SEMA2D
100
AcDbLine
370
9
 62
0
 48
0
  6
_SOLID
 10
0.5608606648
 20
2.6841448791
 30
0
 11
0.5348927266
 21
2.6682602111
 31
0
  0
LINE
  5
202
100
AcDbEntity
  8
SEMA2D
100
AcDbLine
370
9
 62
0
 48
0
  6
_SOLID
 10
0.5348927266
 20
2.6682602111
 30
0
 11
0.5256137008
 21
2.6591460381
 31
0
  0
LINE
  5
203
100
AcDbEntity
  8
SEMA2D
100
AcDbLine
370
9
 62
0
 48
0
  6
_SOLID
 10
0.5256137008
 20
2.6591460381
 30
0
 11
0.507477445
 21
2.6290155575
 31
0
  0
LINE
  5
204
100
AcDbEntity
  8
SEMA2D
100
AcDbLine
370
9
 62
0
 48
0
  6
_SOLID
 10
0.507477445
 20
2.6290155575
 30
0
 11
0.5025586056
 21
2.6101840558
 31
0
  0
LINE
  5
205
100
AcDbEntity
  8
SEMA2D
100
AcDbLine
370
9
 62
0
 48
0
  6
_SOLID
 10
0.5025586056
 20
2.6101840558
 30
0
 11
0.5025641937
 21
2.6101888446
 31
0
  0
LINE
  5
206
100
AcDbEntity
  8
SEMA2D
100
AcDbLine
370
9
 62
0
 48
0
  6
_SOLID
 10
0.5025641937
 20
2.6101888446
 30
0
 11
0.5025627751
 21
2.6101834091
 31
0
  0
LINE
  5
207
100
AcDbEntity
  8
SEMA2D
100
AcDbLine
370
9
 62
0
 48
0
  6
_SOLID
 10
0.5025627751
 20
2.6101834091
 30
0
 11
0.5024229124
 21
2.6096475114
 31
0
  0
LINE
  5
208
100
AcDbEntity
  8
SEMA2D
100
AcDbLine
370
9
 62
0
 48
0
  6
_SOLID
 10
0.5024229124
 20
2.6096475114
 30
0
 11
0.5008274478
 21
2.6073055724
 31
0
  0
LINE
  5
209
100
AcDbEntity
  8
SEMA2D
100
AcDbLine
370
9
 62
0
 48
0
  6
_SOLID
 10
0.5008274478
 20
2.6073055724
 30
0
 11
0.497662338
 21
2.6061762416
 31
0
  0
LINE
  5
20A
100
AcDbEntity
  8
SEMA2D
100
AcDbLine
370
9
 62
0
 48
0
  6
_SOLID
 10
0.497662338
 20
2.6061762416
 30
0
 11
0.519696245
 21
2.6061761891
 31
0
  0
LINE
  5
20B
100
AcDbEntity
  8
SEMA2D
100
AcDbLine
370
9
 62
0
 48
0
  6
_SOLID
 10
0.519696245
 20
2.6061761891
 30
0
 11
0.5228615728
 21
2.6073056981
 31
0
  0
LINE
  5
20C
100
AcDbEntity
  8
SEMA2D
100
AcDbLine
370
9
 62
0
 48
0
  6
_SOLID
 10
0.5228615728
 20
2.6073056981
 30
0
 11
0.5245962828
 21
2.6101834034
 31
0
  0
LINE
  5
20D
100
AcDbEntity
  8
SEMA2D
100
AcDbLine
370
9
 62
0
 48
0
  6
_SOLID
 10
0.5022576677
 20
2.1498519464
 30
0
 11
0.490823902
 21
2.1532339855
 31
0
  0
LINE
  5
20E
100
AcDbEntity
  8
SEMA2D
100
AcDbLine
370
9
 62
0
 48
0
  6
_SOLID
 10
0.5221346299
 20
2.5267298659
 30
0
 11
0.5263510535
 21
2.5280519464
 31
0
  0
LINE
  5
20F
100
AcDbEntity
  8
SEMA2D
100
AcDbLine
370
9
 62
0
 48
0
  6
_SOLID
 10
0.4863249572
 20
2.1489019464
 30
0
 11
0.7115481607
 21
2.1489019464
 31
0
  0
LINE
  5
210
100
AcDbEntity
  8
SEMA2D
100
AcDbLine
370
9
 62
0
 48
0
  6
_SOLID
 10
0.487311559
 20
2.1498519464
 30
0
 11
0.710561559
 21
2.1498519464
 31
0
  0
LINE
  5
211
100
AcDbEntity
  8
SEMA2D
100
AcDbLine
370
9
 62
0
 48
0
  6
_SOLID
 10
0.4935265305
 20
2.1498519464
 30
0
 11
0.4935265305
 21
2.1489019464
 31
0
  0
LINE
  5
212
100
AcDbEntity
  8
SEMA2D
100
AcDbLine
370
9
 62
0
 48
0
  6
_SOLID
 10
0.5022576677
 20
2.1498519464
 30
0
 11
0.5022576677
 21
2.1489019464
 31
0
  0
LINE
  5
213
100
AcDbEntity
  8
SEMA2D
100
AcDbLine
370
9
 62
0
 48
0
  6
_SOLID
 10
0.5154443683
 20
2.5280519464
 30
0
 11
0.5154443683
 21
2.5290019464
 31
0
  0
LINE
  5
214
100
AcDbEntity
  8
SEMA2D
100
AcDbLine
370
9
 62
0
 48
0
  6
_SOLID
 10
0.5263510535
 20
2.5280519464
 30
0
 11
0.5263510535
 21
2.5290019464
 31
0
  0
LINE
  5
215
100
AcDbEntity
  8
SEMA2D
100
AcDbLine
370
9
 62
0
 48
0
  6
_DASHDOT
 10
0.598936559
 20
2.1499019464
 30
0
 11
0.598936559
 21
2.5280019464
 31
0
  0
LINE
  5
216
100
AcDbEntity
  8
SEMA2D
100
AcDbLine
370
9
 62
0
 48
0
  6
_DASHDOT
 10
0.4973040361
 20
2.3389519464
 30
0
 11
0.7005690818
 21
2.3389519464
 31
0
  0
LINE
  5
217
100
AcDbEntity
  8
SEMA2D
100
AcDbLine
370
9
 62
0
 48
0
  6
_SOLID
 10
0.6715220644
 20
2.5280519464
 30
0
 11
0.6715220644
 21
2.5290019464
 31
0
  0
LINE
  5
218
100
AcDbEntity
  8
SEMA2D
100
AcDbLine
370
9
 62
0
 48
0
  6
_SOLID
 10
0.6824287496
 20
2.5280519464
 30
0
 11
0.6824287496
 21
2.5290019464
 31
0
  0
LINE
  5
219
100
AcDbEntity
  8
SEMA2D
100
AcDbLine
370
9
 62
0
 48
0
  6
_SOLID
 10
0.6956154502
 20
2.1498519464
 30
0
 11
0.6956154502
 21
2.1489019464
 31
0
  0
LINE
  5
21A
100
AcDbEntity
  8
SEMA2D
100
AcDbLine
370
9
 62
0
 48
0
  6
_SOLID
 10
0.7043465874
 20
2.1498519464
 30
0
 11
0.7043465874
 21
2.1489019464
 31
0
  0
LINE
  5
21B
100
AcDbEntity
  8
SEMA2D
100
AcDbLine
370
9
 62
0
 48
0
  6
_SOLID
 10
0.509161559
 20
2.5280519464
 30
0
 11
0.688711559
 21
2.5280519464
 31
0
  0
LINE
  5
21C
100
AcDbEntity
  8
SEMA2D
100
AcDbLine
370
9
 62
0
 48
0
  6
_SOLID
 10
0.6895900029
 20
2.5290019464
 30
0
 11
0.508283115
 21
2.5290019464
 31
0
  0
LINE
  5
21D
100
AcDbEntity
  8
SEMA2D
100
AcDbLine
370
9
 62
0
 48
0
  6
_SOLID
 10
0.6956154502
 20
2.1498519464
 30
0
 11
0.7070492163
 21
2.1532339856
 31
0
  0
LINE
  5
21E
100
AcDbEntity
  8
SEMA2D
100
AcDbLine
370
9
 62
0
 48
0
  6
_SOLID
 10
0.6715220644
 20
2.5280519464
 30
0
 11
0.675738488
 21
2.5267298659
 31
0
  0
LINE
  5
21F
100
AcDbEntity
  8
SEMA2D
100
AcDbLine
370
9
 62
0
 48
0
  6
_SOLID
 10
0.4880519743
 20
2.6098145807
 30
0
 11
0.4885731757
 21
2.6076979841
 31
0
  0
ARC
  5
220
100
AcDbEntity
  8
SEMA2D
100
AcDbCircle
370
9
 62
0
 48
0
  6
_SOLID
 10
0.4905151643
 20
2.6081761891
 30
0
 40
0.002
100
AcDbArc
 50
193.833575788928
 51
270
  0
LINE
  5
221
100
AcDbEntity
  8
SEMA2D
100
AcDbLine
370
9
 62
0
 48
0
  6
_SOLID
 10
0.4863249572
 20
2.6134561891
 30
0
 11
0.4863249572
 21
2.6098161891
 31
0
  0
LINE
  5
222
100
AcDbEntity
  8
SEMA2D
100
AcDbLine
370
9
 62
0
 48
0
  6
_SOLID
 10
0.4909070348
 20
2.6061761891
 30
0
 11
0.4909070348
 21
2.6078624043
 31
0
  0
LINE
  5
223
100
AcDbEntity
  8
SEMA2D
100
AcDbLine
370
9
 62
0
 48
0
  6
_SOLID
 10
0.4976623379
 20
2.6061761891
 30
0
 11
0.4976623379
 21
2.6078623758
 31
0
  0
LINE
  5
224
100
AcDbEntity
  8
SEMA2D
100
AcDbLine
370
9
 62
0
 48
0
  6
_DASHDOT
 10
0.4663249582
 20
2.6061761741
 30
0
 11
0.7315481617
 21
2.6061762495
 31
0
  0
LINE
  5
225
100
AcDbEntity
  8
SEMA2D
100
AcDbLine
370
9
 62
0
 48
0
  6
_SOLID
 10
0.4976623379
 20
2.6061761891
 30
0
 11
0.519696245
 21
2.6061761891
 31
0
  0
LINE
  5
226
100
AcDbEntity
  8
SEMA2D
100
AcDbLine
370
9
 62
0
 48
0
  6
_SOLID
 10
0.7069661813
 20
2.6078623758
 30
0
 11
0.6997916411
 21
2.6078623758
 31
0
  0
ARC
  5
227
100
AcDbEntity
  8
SEMA2D
100
AcDbCircle
370
9
 62
0
 48
0
  6
_SOLID
 10
0.6997916411
 20
2.6103436741
 30
0
 40
0.0024812983
100
AcDbArc
 50
180
 51
270
  0
LINE
  5
228
100
AcDbEntity
  8
SEMA2D
100
AcDbLine
370
9
 62
0
 48
0
  6
_SOLID
 10
0.4976623379
 20
2.6078623758
 30
0
 11
0.4909069365
 21
2.6078623758
 31
0
  0
LINE
  5
229
100
AcDbEntity
  8
SEMA2D
100
AcDbLine
370
9
 62
0
 48
0
  6
_SOLID
 10
0.6781772645
 20
2.6061762353
 30
0
 11
0.70021078
 21
2.6061762
 31
0
  0
ARC
  5
22A
100
AcDbEntity
  8
SEMA2D
100
AcDbCircle
370
9
 62
0
 48
0
  6
_SOLID
 10
0.7073579535
 20
2.6081761886
 30
0
 40
0.002
100
AcDbArc
 50
258.701319740336
 51
346.166425663227
  0
LINE
  5
22B
100
AcDbEntity
  8
SEMA2D
100
AcDbLine
370
9
 62
0
 48
0
  6
_SOLID
 10
0.5056960659
 20
2.639216142
 30
0
 11
0.4965904475
 21
2.6432945182
 31
0
  0
LINE
  5
22C
100
AcDbEntity
  8
SEMA2D
100
AcDbLine
370
9
 62
0
 48
0
  6
_SOLID
 10
0.4863249572
 20
2.6098161891
 30
0
 11
0.496811559
 21
2.6098161891
 31
0
  0
LINE
  5
22D
100
AcDbEntity
  8
SEMA2D
100
AcDbLine
370
9
 62
0
 48
0
  6
_SOLID
 10
0.701061559
 20
2.6098161891
 30
0
 11
0.7115481607
 21
2.6098161891
 31
0
  0
LINE
  5
22E
100
AcDbEntity
  8
SEMA2D
100
AcDbLine
370
9
 62
0
 48
0
  6
_SOLID
 10
0.7115481607
 20
2.6134561891
 30
0
 11
0.7043465874
 21
2.6134561891
 31
0
  0
LINE
  5
22F
100
AcDbEntity
  8
SEMA2D
100
AcDbLine
370
9
 62
0
 48
0
  6
_SOLID
 10
0.4863249572
 20
2.6134561891
 30
0
 11
0.4935265305
 21
2.6134561891
 31
0
  0
LINE
  5
230
100
AcDbEntity
  8
SEMA2D
100
AcDbLine
370
9
 62
0
 48
0
  6
_SOLID
 10
0.5600794142
 20
2.6703311888
 30
0
 11
0.5600794142
 21
2.6724079098
 31
0
  0
LINE
  5
231
100
AcDbEntity
  8
SEMA2D
100
AcDbLine
370
9
 62
0
 48
0
  6
_SOLID
 10
0.5636180454
 20
2.6674909293
 30
0
 11
0.5644158222
 21
2.6678658865
 31
0
  0
LINE
  5
232
100
AcDbEntity
  8
SEMA2D
100
AcDbLine
370
9
 62
0
 48
0
  6
_SOLID
 10
0.588613951
 20
2.6703311891
 30
0
 11
0.588613951
 21
2.6724079098
 31
0
  0
LINE
  5
233
100
AcDbEntity
  8
SEMA2D
100
AcDbLine
370
9
 62
0
 48
0
  6
_SOLID
 10
0.5954480109
 20
2.6716961884
 30
0
 11
0.5954480109
 21
2.6737729101
 31
0
  0
LINE
  5
234
100
AcDbEntity
  8
SEMA2D
100
AcDbLine
370
9
 62
0
 48
0
  6
_DASHDOT
 10
0.598936559
 20
2.6061762118
 30
0
 11
0.598936559
 21
2.7268775356
 31
0
  0
LINE
  5
235
100
AcDbEntity
  8
SEMA2D
100
AcDbLine
370
9
 62
0
 48
0
  6
_SOLID
 10
0.602425107
 20
2.6716961891
 30
0
 11
0.602425107
 21
2.6737729098
 31
0
  0
LINE
  5
236
100
AcDbEntity
  8
SEMA2D
100
AcDbLine
370
9
 62
0
 48
0
  6
_SOLID
 10
0.6092591669
 20
2.6703311908
 30
0
 11
0.6092591669
 21
2.6724079098
 31
0
  0
LINE
  5
237
100
AcDbEntity
  8
SEMA2D
100
AcDbLine
370
9
 62
0
 48
0
  6
_SOLID
 10
0.5841270852
 20
2.6703311891
 30
0
 11
0.554352841
 21
2.6703311891
 31
0
  0
LINE
  5
238
100
AcDbEntity
  8
SEMA2D
100
AcDbLine
370
9
 62
0
 48
0
  6
_SOLID
 10
0.6137460328
 20
2.6703311891
 30
0
 11
0.5841270852
 21
2.6703311891
 31
0
  0
LINE
  5
239
100
AcDbEntity
  8
SEMA2D
100
AcDbLine
370
9
 62
0
 48
0
  6
_SOLID
 10
0.6435202759
 20
2.6703311891
 30
0
 11
0.6137460328
 21
2.6703311891
 31
0
  0
LINE
  5
23A
100
AcDbEntity
  8
SEMA2D
100
AcDbLine
370
9
 62
0
 48
0
  6
_SOLID
 10
0.6024250668
 20
2.6716961891
 30
0
 11
0.5954480511
 21
2.6716961891
 31
0
  0
LINE
  5
23B
100
AcDbEntity
  8
SEMA2D
100
AcDbLine
370
9
 62
0
 48
0
  6
_SOLID
 10
0.637793737
 20
2.6724079098
 30
0
 11
0.6092591669
 21
2.6724079098
 31
0
  0
LINE
  5
23C
100
AcDbEntity
  8
SEMA2D
100
AcDbLine
370
9
 62
0
 48
0
  6
_SOLID
 10
0.588613951
 20
2.6724079098
 30
0
 11
0.560079381
 21
2.6724079098
 31
0
  0
LINE
  5
23D
100
AcDbEntity
  8
SEMA2D
100
AcDbLine
370
9
 62
0
 48
0
  6
_SOLID
 10
0.602425107
 20
2.6737729098
 30
0
 11
0.5954480109
 21
2.6737729098
 31
0
  0
LINE
  5
23E
100
AcDbEntity
  8
SEMA2D
100
AcDbLine
370
9
 62
0
 48
0
  6
_SOLID
 10
0.6377937038
 20
2.6703311891
 30
0
 11
0.6377937038
 21
2.6724079098
 31
0
  0
LINE
  5
23F
100
AcDbEntity
  8
SEMA2D
100
AcDbLine
370
9
 62
0
 48
0
  6
_SOLID
 10
0.6921770521
 20
2.639216142
 30
0
 11
0.7012524968
 21
2.6432810035
 31
0
  0
LINE
  5
240
100
AcDbEntity
  8
SEMA2D
100
AcDbLine
370
9
 62
0
 48
0
  6
_SOLID
 10
0.70021078
 20
2.6061761903
 30
0
 11
0.70021078
 21
2.6078623758
 31
0
  0
LINE
  5
241
100
AcDbEntity
  8
SEMA2D
100
AcDbLine
370
9
 62
0
 48
0
  6
_SOLID
 10
0.7069660831
 20
2.6061761891
 30
0
 11
0.7069660831
 21
2.6078623758
 31
0
  0
LINE
  5
242
100
AcDbEntity
  8
SEMA2D
100
AcDbLine
370
9
 62
0
 48
0
  6
_SOLID
 10
0.7115481607
 20
2.6098161891
 30
0
 11
0.7115481607
 21
2.6134561891
 31
0
  0
LINE
  5
243
100
AcDbEntity
  8
SEMA2D
100
AcDbLine
370
9
 62
0
 48
0
  6
_SOLID
 10
0.7098211436
 20
2.6098145807
 30
0
 11
0.7092999422
 21
2.6076979836
 31
0
  0
LINE
  5
244
100
AcDbEntity
  8
SEMA2D
100
AcDbLine
370
9
 62
0
 48
0
  6
_DASHDOT
 10
0.598936559
 20
2.0738426693
 30
0
 11
0.598936559
 21
1.9531413454
 31
0
  0
LINE
  5
245
100
AcDbEntity
  8
SEMA2D
100
AcDbLine
370
9
 62
0
 48
0
  6
_DASHDOT
 10
0.4663249562
 20
2.0738426317
 30
0
 11
0.7315481597
 21
2.0738427069
 31
0
  0
LINE
  5
246
100
AcDbEntity
  8
SEMA2D
100
AcDbLine
370
9
 62
0
 48
0
  6
_SOLID
 10
0.7069661813
 20
2.6078623758
 30
0
 11
0.7098211436
 21
2.6098145807
 31
0
  0
LINE
  5
247
100
AcDbEntity
  8
SEMA2D
100
AcDbLine
370
9
 62
0
 48
0
  6
_SOLID
 10
0.4909069365
 20
2.6078623758
 30
0
 11
0.4880519743
 21
2.6098145807
 31
0
  0
ARC
  5
248
100
AcDbEntity
  8
SEMA2D
100
AcDbCircle
370
9
 62
0
 48
0
  6
_SOLID
 10
0.6012030532
 20
2.598334775
 30
0
 40
0.0730412216
100
AcDbArc
 50
9.33568226376147
 51
80.111889921074
  0
ARC
  5
249
100
AcDbEntity
  8
SEMA2D
100
AcDbCircle
370
9
 62
0
 48
0
  6
_SOLID
 10
0.5966700648
 20
2.598334775
 30
0
 40
0.0730412216
100
AcDbArc
 50
99.888110078926
 51
170.664317736239
  0
ARC
  5
24A
100
AcDbEntity
  8
SEMA2D
100
AcDbCircle
370
9
 62
0
 48
0
  6
_SOLID
 10
0.6431938015
 20
2.6429682421
 30
0
 40
0.0273579801
100
AcDbArc
 50
47.2132907845485
 51
89.3164392219394
  0
ARC
  5
24B
100
AcDbEntity
  8
SEMA2D
100
AcDbCircle
370
9
 62
0
 48
0
  6
_SOLID
 10
0.632536074
 20
2.6429750033
 30
0
 40
0.0273439733
100
AcDbArc
 50
55.0601068883102
 51
85.7960912444303
  0
ARC
  5
24C
100
AcDbEntity
  8
SEMA2D
100
AcDbCircle
370
9
 62
0
 48
0
  6
_SOLID
 10
0.5653779788
 20
2.6428943607
 30
0
 40
0.0274335273
100
AcDbArc
 50
91.264457358715
 51
124.91351746089
  0
ARC
  5
24D
100
AcDbEntity
  8
SEMA2D
100
AcDbCircle
370
9
 62
0
 48
0
  6
_SOLID
 10
0.554724907
 20
2.6428799601
 30
0
 40
0.0274537503
100
AcDbArc
 50
90.7765229386365
 51
132.731385153054
  0
ARC
  5
24E
100
AcDbEntity
  8
SEMA2D
100
AcDbCircle
370
9
 62
0
 48
0
  6
_SOLID
 10
0.6006374453
 20
2.5955113877
 30
0
 40
0.1113791937
100
AcDbArc
 50
9.27283090046449
 51
90.8769522239376
  0
ARC
  5
24F
100
AcDbEntity
  8
SEMA2D
100
AcDbCircle
370
9
 62
0
 48
0
  6
_SOLID
 10
0.5970958903
 20
2.5956782676
 30
0
 40
0.1112144386
100
AcDbArc
 50
89.0536253876748
 51
170.800415351182
  0
LINE
  5
250
100
AcDbEntity
  8
SEMA2D
100
AcDbLine
370
9
 62
0
 48
0
  6
_SOLID
 10
0.4862670774
 20
2.1489053078
 30
0
 11
0.50834119
 21
2.5290019464
 31
0
  0
LINE
  5
251
100
AcDbEntity
  8
SEMA2D
100
AcDbLine
370
9
 62
0
 48
0
  6
_SOLID
 10
0.5092196398
 20
2.5280519461
 30
0
 11
0.4872536734
 21
2.1498553081
 31
0
  0
LINE
  5
252
100
AcDbEntity
  8
SEMA2D
100
AcDbLine
370
9
 62
0
 48
0
  6
_SOLID
 10
0.4906557598
 20
2.1530720811
 30
0
 11
0.4863249572
 21
2.1489019464
 31
0
  0
ARC
  5
253
100
AcDbEntity
  8
SEMA2D
100
AcDbCircle
370
9
 62
0
 48
0
  6
_SOLID
 10
0.4955110898
 20
2.1480296839
 30
0
 40
0.007
100
AcDbArc
 50
90
 51
133.917237911038
  0
LINE
  5
254
100
AcDbEntity
  8
SEMA2D
100
AcDbLine
370
9
 62
0
 48
0
  6
_SOLID
 10
0.7106230805
 20
2.1497927073
 30
0
 11
0.6886534782
 21
2.5280519464
 31
0
  0
LINE
  5
255
100
AcDbEntity
  8
SEMA2D
100
AcDbLine
370
9
 62
0
 48
0
  6
_SOLID
 10
0.6895319279
 20
2.5290019467
 30
0
 11
0.711609676
 21
2.1488427069
 31
0
  0
LINE
  5
256
100
AcDbEntity
  8
SEMA2D
100
AcDbLine
370
9
 62
0
 48
0
  6
_SOLID
 10
0.7023620285
 20
2.1550296839
 30
0
 11
0.4955110898
 21
2.1550296839
 31
0
  0
ARC
  5
257
100
AcDbEntity
  8
SEMA2D
100
AcDbCircle
370
9
 62
0
 48
0
  6
_SOLID
 10
0.7023620285
 20
2.1480296839
 30
0
 40
0.007
100
AcDbArc
 50
46.0827591836138
 51
90
  0
LINE
  5
258
100
AcDbEntity
  8
SEMA2D
100
AcDbLine
370
9
 62
0
 48
0
  6
_SOLID
 10
0.7115481607
 20
2.1489019464
 30
0
 11
0.7072173588
 21
2.1530720809
 31
0
  0
LINE
  5
259
100
AcDbEntity
  8
SEMA2D
100
AcDbLine
370
9
 62
0
 48
0
  6
_SOLID
 10
0.6871112128
 20
2.5263212395
 30
0
 11
0.5107619054
 21
2.5263212395
 31
0
  0
LINE
  5
25A
100
AcDbEntity
  8
SEMA2D
100
AcDbLine
370
9
 62
0
 48
0
  6
_SOLID
 10
0.508283115
 20
2.5290019464
 30
0
 11
0.5107619054
 21
2.5263212395
 31
0
  0
LINE
  5
25B
100
AcDbEntity
  8
SEMA2D
100
AcDbLine
370
9
 62
0
 48
0
  6
_SOLID
 10
0.6895900029
 20
2.5290019464
 30
0
 11
0.6871112128
 21
2.5263212395
 31
0
  0
LINE
  5
25C
100
AcDbEntity
  8
SEMA2D
100
AcDbLine
370
9
 62
0
 48
0
  6
_SOLID
 10
0.1523548392
 20
2.1508519464
 30
0
 11
0.1485354897
 21
2.1519203223
 31
0
  0
LINE
  5
25D
100
AcDbEntity
  8
SEMA2D
100
AcDbLine
370
9
 62
0
 48
0
  6
_SOLID
 10
0.2422245561
 20
2.1499019464
 30
0
 11
0.1523548392
 21
2.1499019464
 31
0
  0
LINE
  5
25E
100
AcDbEntity
  8
SEMA2D
100
AcDbLine
370
9
 62
0
 48
0
  6
_SOLID
 10
0.2422245561
 20
2.1515644464
 30
0
 11
0.1559837007
 21
2.1515644464
 31
0
  0
LINE
  5
25F
100
AcDbEntity
  8
SEMA2D
100
AcDbLine
370
9
 62
0
 48
0
  6
_SOLID
 10
0.2444033287
 20
2.1521739083
 30
0
 11
0.2422245561
 21
2.1515644464
 31
0
  0
ARC
  5
260
100
AcDbEntity
  8
SEMA2D
100
AcDbCircle
370
9
 62
0
 48
0
  6
_SOLID
 10
0.2438645561
 20
2.1540999727
 30
0
 40
0.002
100
AcDbArc
 50
285.627750822189
 51
0
  0
LINE
  5
261
100
AcDbEntity
  8
SEMA2D
100
AcDbLine
370
9
 62
0
 48
0
  6
_SOLID
 10
0.1589793712
 20
2.1524024169
 30
0
 11
0.1559837007
 21
2.1515644464
 31
0
  0
LINE
  5
262
100
AcDbEntity
  8
SEMA2D
100
AcDbLine
370
9
 62
0
 48
0
  6
_SOLID
 10
0.1800233646
 20
2.5251632226
 30
0
 11
0.1811237697
 21
2.5240628175
 31
0
  0
LINE
  5
263
100
AcDbEntity
  8
SEMA2D
100
AcDbLine
370
9
 62
0
 48
0
  6
_SOLID
 10
0.1798914676
 20
2.2290608926
 30
0
 11
0.1707092837
 21
2.228222244
 31
0
  0
LINE
  5
264
100
AcDbEntity
  8
SEMA2D
100
AcDbLine
370
9
 62
0
 48
0
  6
_SOLID
 10
0.1798914676
 20
2.2393680003
 30
0
 11
0.1721713938
 21
2.240073108
 31
0
  0
LINE
  5
265
100
AcDbEntity
  8
SEMA2D
100
AcDbLine
370
9
 62
0
 48
0
  6
_SOLID
 10
0.2458645561
 20
2.1540999727
 30
0
 11
0.2458645561
 21
2.5238039201
 31
0
  0
ARC
  5
266
100
AcDbEntity
  8
SEMA2D
100
AcDbCircle
370
9
 62
0
 48
0
  6
_SOLID
 10
0.2438645561
 20
2.5238039201
 30
0
 40
0.002
100
AcDbArc
 50
0
 51
74.3722499396497
  0
LINE
  5
267
100
AcDbEntity
  8
SEMA2D
100
AcDbLine
370
9
 62
0
 48
0
  6
_SOLID
 10
0.2422245561
 20
2.1499019464
 30
0
 11
0.2422245561
 21
2.1515644464
 31
0
  0
LINE
  5
268
100
AcDbEntity
  8
SEMA2D
100
AcDbLine
370
9
 62
0
 48
0
  6
_SOLID
 10
0.2422245561
 20
2.5263394464
 30
0
 11
0.2422245561
 21
2.5280019464
 31
0
  0
LINE
  5
269
100
AcDbEntity
  8
SEMA2D
100
AcDbLine
370
9
 62
0
 48
0
  6
_SOLID
 10
0.1662122697
 20
2.3332449656
 30
0
 11
0.1565651779
 21
2.3341260761
 31
0
  0
LINE
  5
26A
100
AcDbEntity
  8
SEMA2D
100
AcDbLine
370
9
 62
0
 48
0
  6
_DASHDOT
 10
0.248936559
 20
2.3389519464
 30
0
 11
0.1395091078
 21
2.3389519464
 31
0
  0
LINE
  5
26B
100
AcDbEntity
  8
SEMA2D
100
AcDbLine
370
9
 62
0
 48
0
  6
_SOLID
 10
0.1817095561
 20
2.2310526025
 30
0
 11
0.1817095561
 21
2.2373762904
 31
0
  0
LINE
  5
26C
100
AcDbEntity
  8
SEMA2D
100
AcDbLine
370
9
 62
0
 48
0
  6
_SOLID
 10
0.1817095561
 20
2.3517026025
 30
0
 11
0.1817095561
 21
2.3517997703
 31
0
  0
LINE
  5
26D
100
AcDbEntity
  8
SEMA2D
100
AcDbLine
370
9
 62
0
 48
0
  6
_SOLID
 10
0.1817095561
 20
2.352053233
 30
0
 11
0.1817095561
 21
2.3576756599
 31
0
  0
LINE
  5
26E
100
AcDbEntity
  8
SEMA2D
100
AcDbLine
370
9
 62
0
 48
0
  6
_SOLID
 10
0.1817095561
 20
2.3578118346
 30
0
 11
0.1817095561
 21
2.3580262904
 31
0
  0
LINE
  5
26F
100
AcDbEntity
  8
SEMA2D
100
AcDbLine
370
9
 62
0
 48
0
  6
_SOLID
 10
0.1817095561
 20
2.4438542769
 30
0
 11
0.1817095561
 21
2.4522041446
 31
0
  0
LINE
  5
270
100
AcDbEntity
  8
SEMA2D
100
AcDbLine
370
9
 62
0
 48
0
  6
_SOLID
 10
0.1817095561
 20
2.5068658278
 30
0
 11
0.1817095561
 21
2.522648604
 31
0
  0
LINE
  5
271
100
AcDbEntity
  8
SEMA2D
100
AcDbLine
370
9
 62
0
 48
0
  6
_SOLID
 10
0.1684632957
 20
2.3429645233
 30
0
 11
0.1565651779
 21
2.3418778168
 31
0
  0
LINE
  5
272
100
AcDbEntity
  8
SEMA2D
100
AcDbLine
370
9
 62
0
 48
0
  6
_SOLID
 10
0.1756747708
 20
2.3493257634
 30
0
 11
0.1798914676
 21
2.3497108926
 31
0
  0
LINE
  5
273
100
AcDbEntity
  8
SEMA2D
100
AcDbLine
370
9
 62
0
 48
0
  6
_SOLID
 10
0.1654108969
 20
2.2458676158
 30
0
 11
0.1698427813
 21
2.3290487279
 31
0
  0
LINE
  5
274
100
AcDbEntity
  8
SEMA2D
100
AcDbLine
370
9
 62
0
 48
0
  6
_SOLID
 10
0.1758184681
 20
2.5280019464
 30
0
 11
0.1758184681
 21
2.5263394464
 31
0
  0
LINE
  5
275
100
AcDbEntity
  8
SEMA2D
100
AcDbLine
370
9
 62
0
 48
0
  6
_SOLID
 10
0.1721784681
 20
2.5280019464
 30
0
 11
0.1721784681
 21
2.5270519464
 31
0
  0
LINE
  5
276
100
AcDbEntity
  8
SEMA2D
100
AcDbLine
370
9
 62
0
 48
0
  6
_SOLID
 10
0.1798914676
 20
2.3600180003
 30
0
 11
0.1744103752
 21
2.3605186121
 31
0
  0
ARC
  5
277
100
AcDbEntity
  8
SEMA2D
100
AcDbCircle
370
9
 62
0
 48
0
  6
_SOLID
 10
0.1745922867
 20
2.362510322
 30
0
 40
0.002
100
AcDbArc
 50
177.043178296446
 51
264.78140833693
  0
LINE
  5
278
100
AcDbEntity
  8
SEMA2D
100
AcDbLine
370
9
 62
0
 48
0
  6
_SOLID
 10
0.1536480819
 20
2.3330017952
 30
0
 11
0.1542729556
 21
2.3447299191
 31
0
  0
LINE
  5
279
100
AcDbEntity
  8
SEMA2D
100
AcDbLine
370
9
 62
0
 48
0
  6
_SOLID
 10
0.1565651779
 20
2.3341260761
 30
0
 11
0.1565651779
 21
2.3418778168
 31
0
  0
LINE
  5
27A
100
AcDbEntity
  8
SEMA2D
100
AcDbLine
370
9
 62
0
 48
0
  6
_SOLID
 10
0.1559837007
 20
2.1499019464
 30
0
 11
0.1559837007
 21
2.1515644464
 31
0
  0
LINE
  5
27B
100
AcDbEntity
  8
SEMA2D
100
AcDbLine
370
9
 62
0
 48
0
  6
_SOLID
 10
0.1523548392
 20
2.1508519464
 30
0
 11
0.1523548392
 21
2.1499019464
 31
0
  0
LINE
  5
27C
100
AcDbEntity
  8
SEMA2D
100
AcDbLine
370
9
 62
0
 48
0
  6
_SOLID
 10
0.1758184681
 20
2.5263394464
 30
0
 11
0.1800233692
 21
2.5251632213
 31
0
  0
LINE
  5
27D
100
AcDbEntity
  8
SEMA2D
100
AcDbLine
370
9
 62
0
 48
0
  6
_SOLID
 10
0.2422245561
 20
2.5263394464
 30
0
 11
0.2444033287
 21
2.5257299845
 31
0
  0
LINE
  5
27E
100
AcDbEntity
  8
SEMA2D
100
AcDbLine
370
9
 62
0
 48
0
  6
_SOLID
 10
0.1758184681
 20
2.5263394464
 30
0
 11
0.2422245561
 21
2.5263394464
 31
0
  0
LINE
  5
27F
100
AcDbEntity
  8
SEMA2D
100
AcDbLine
370
9
 62
0
 48
0
  6
_SOLID
 10
0.2422245561
 20
2.5280019464
 30
0
 11
0.1721784681
 21
2.5280019464
 31
0
  0
LINE
  5
280
100
AcDbEntity
  8
SEMA2D
100
AcDbLine
370
9
 62
0
 48
0
  6
_SOLID
 10
0.1663258929
 20
2.5254148221
 30
0
 11
0.1721784681
 21
2.5270519464
 31
0
  0
LINE
  5
281
100
AcDbEntity
  8
SEMA2D
100
AcDbLine
370
9
 62
0
 48
0
  6
_SOLID
 10
0.1452306554
 20
2.1579080996
 30
0
 11
0.1544409113
 21
2.3307738996
 31
0
  0
LINE
  5
282
100
AcDbEntity
  8
SEMA2D
100
AcDbLine
370
9
 62
0
 48
0
  6
_SOLID
 10
0.1552836461
 20
2.3469273365
 30
0
 11
0.1648676018
 21
2.5235970941
 31
0
  0
LINE
  5
283
100
AcDbEntity
  8
SEMA2D
100
AcDbLine
370
9
 62
0
 48
0
  6
_SOLID
 10
0.1767047764
 20
2.4568276772
 30
0
 11
0.1789213508
 21
2.4989415974
 31
0
  0
ARC
  5
284
100
AcDbEntity
  8
SEMA2D
100
AcDbCircle
370
9
 62
0
 48
0
  6
_SOLID
 10
0.1806992474
 20
2.4566174369
 30
0
 40
0.004
100
AcDbArc
 50
176.987141535507
 51
254.961445921509
  0
LINE
  5
285
100
AcDbEntity
  8
SEMA2D
100
AcDbLine
370
9
 62
0
 48
0
  6
_SOLID
 10
0.1765720723
 20
2.4396117188
 30
0
 11
0.1725949493
 21
2.3626134887
 31
0
  0
ARC
  5
286
100
AcDbEntity
  8
SEMA2D
100
AcDbCircle
370
9
 62
0
 48
0
  6
_SOLID
 10
0.1805667471
 20
2.4394053854
 30
0
 40
0.004
100
AcDbArc
 50
105.038554078491
 51
177.043178296439
  0
ARC
  5
287
100
AcDbEntity
  8
SEMA2D
100
AcDbCircle
370
9
 62
0
 48
0
  6
_SOLID
 10
0.176219664
 20
2.3438954271
 30
0
 40
0.0054576058
100
AcDbArc
 50
95.7300185254686
 51
152.26420475048
  0
LINE
  5
288
100
AcDbEntity
  8
SEMA2D
100
AcDbLine
370
9
 62
0
 48
0
  6
_SOLID
 10
0.1542729556
 20
2.3447299191
 30
0
 11
0.1552836461
 21
2.3469273365
 31
0
  0
LINE
  5
289
100
AcDbEntity
  8
SEMA2D
100
AcDbLine
370
9
 62
0
 48
0
  6
_SOLID
 10
0.1536770327
 20
2.3329204419
 30
0
 11
0.1544409113
 21
2.3307738996
 31
0
  0
ARC
  5
28A
100
AcDbEntity
  8
SEMA2D
100
AcDbCircle
370
9
 62
0
 48
0
  6
_SOLID
 10
0.1715192946
 20
2.2208168455
 30
0
 40
0.0074495667
100
AcDbArc
 50
96.2422617637712
 51
178.308823304383
  0
ARC
  5
28B
100
AcDbEntity
  8
SEMA2D
100
AcDbCircle
370
9
 62
0
 48
0
  6
_SOLID
 10
0.1727049192
 20
2.2475275526
 30
0
 40
0.0074805182
100
AcDbArc
 50
192.820730568512
 51
267.504276997736
  0
LINE
  5
28C
100
AcDbEntity
  8
SEMA2D
100
AcDbLine
370
9
 62
0
 48
0
  6
_SOLID
 10
0.1640734562
 20
2.2210366732
 30
0
 11
0.1604376442
 21
2.1542198129
 31
0
  0
LINE
  5
28D
100
AcDbEntity
  8
SEMA2D
100
AcDbLine
370
9
 62
0
 48
0
  6
_SOLID
 10
0.1817095561
 20
2.4438542769
 30
0
 11
0.1795288713
 21
2.4432683912
 31
0
  0
LINE
  5
28E
100
AcDbEntity
  8
SEMA2D
100
AcDbLine
370
9
 62
0
 48
0
  6
_SOLID
 10
0.1817095561
 20
2.4522041443
 30
0
 11
0.1796613716
 21
2.4527544311
 31
0
  0
ARC
  5
28F
100
AcDbEntity
  8
SEMA2D
100
AcDbCircle
370
9
 62
0
 48
0
  6
_SOLID
 10
0.1858024895
 20
2.4994667743
 30
0
 40
0.0069011506
100
AcDbArc
 50
132.648505997355
 51
184.364423233244
  0
ARC
  5
290
100
AcDbEntity
  8
SEMA2D
100
AcDbCircle
370
9
 62
0
 48
0
  6
_SOLID
 10
0.1792098807
 20
2.5062581022
 30
0
 40
0.0025724905
100
AcDbArc
 50
318.178513035053
 51
13.6647380705953
  0
LINE
  5
291
100
AcDbEntity
  8
SEMA2D
100
AcDbLine
370
9
 62
0
 48
0
  6
_SOLID
 10
0.1452306553
 20
2.0499019464
 30
0
 11
0.2458645561
 21
2.0499019464
 31
0
  0
MTEXT
  5
293
100
AcDbEntity
  8
SEMATEXT
100
AcDbMText
370
9
 62
0
 10
0.188742636487553
 20
2.05480152423296
 30
0
 40
0.008
  1
{\fArial Narrow;101}
 50
0
 41
0
  7
STANDARD
 71
7
  0
LINE
  5
298
100
AcDbEntity
  8
SEMA2D
100
AcDbLine
370
9
 62
0
 48
0
  6
_SOLID
 10
0.1452306553
 20
2.0499019464
 30
0
 11
0.1452306553
 21
2.0569019464
 31
0
  0
LINE
  5
299
100
AcDbEntity
  8
SEMA2D
100
AcDbLine
370
9
 62
0
 48
0
  6
_SOLID
 10
0.1452306553
 20
2.0499019464
 30
0
 11
0.1452306553
 21
2.0429019464
 31
0
  0
LINE
  5
29A
100
AcDbEntity
  8
SEMA2D
100
AcDbLine
370
9
 62
0
 48
0
  6
_SOLID
 10
0.1452306553
 20
2.0499019464
 30
0
 11
0.151292833126491
 21
2.0534019464
 31
0
  0
LINE
  5
29B
100
AcDbEntity
  8
SEMA2D
100
AcDbLine
370
9
 62
0
 48
0
  6
_SOLID
 10
0.1452306553
 20
2.0499019464
 30
0
 11
0.139168477473509
 21
2.0464019464
 31
0
  0
LINE
  5
29C
100
AcDbEntity
  8
SEMA2D
100
AcDbLine
370
9
 62
0
 48
0
  6
_DOT
 10
0.1452306553
 20
2.1499019464
 30
0
 11
0.1452306553
 21
2.0499019464
 31
0
  0
LINE
  5
29D
100
AcDbEntity
  8
SEMA2D
100
AcDbLine
370
9
 62
0
 48
0
  6
_SOLID
 10
0.2458645561
 20
2.0499019464
 30
0
 11
0.2458645561
 21
2.0569019464
 31
0
  0
LINE
  5
29E
100
AcDbEntity
  8
SEMA2D
100
AcDbLine
370
9
 62
0
 48
0
  6
_SOLID
 10
0.2458645561
 20
2.0499019464
 30
0
 11
0.2458645561
 21
2.0429019464
 31
0
  0
LINE
  5
29F
100
AcDbEntity
  8
SEMA2D
100
AcDbLine
370
9
 62
0
 48
0
  6
_SOLID
 10
0.2458645561
 20
2.0499019464
 30
0
 11
0.251926733926491
 21
2.0534019464
 31
0
  0
LINE
  5
2A0
100
AcDbEntity
  8
SEMA2D
100
AcDbLine
370
9
 62
0
 48
0
  6
_SOLID
 10
0.2458645561
 20
2.0499019464
 30
0
 11
0.239802378273509
 21
2.0464019464
 31
0
  0
LINE
  5
2A1
100
AcDbEntity
  8
SEMA2D
100
AcDbLine
370
9
 62
0
 48
0
  6
_DOT
 10
0.2458645561
 20
2.1499019464
 30
0
 11
0.2458645561
 21
2.0499019464
 31
0
  0
ARC
  5
2A2
100
AcDbEntity
  8
SEMA2D
100
AcDbCircle
370
9
 62
0
 48
0
  6
_SOLID
 10
0.6006374453
 20
2.5955113877
 30
0
 40
0.101437691
100
AcDbArc
 50
8.10689692077997
 51
90
  0
ARC
  5
2A3
100
AcDbEntity
  8
SEMA2D
100
AcDbCircle
370
9
 62
0
 48
0
  6
_SOLID
 10
0.6006374453
 20
2.5955113877
 30
0
 40
0.1052416773
100
AcDbArc
 50
9.81669489765728
 51
90
  0
ARC
  5
2A4
100
AcDbEntity
  8
SEMA2D
100
AcDbCircle
370
9
 62
0
 48
0
  6
_SOLID
 10
0.70021078
 20
2.6111762416
 30
0
 40
0.005
100
AcDbArc
 50
191.453137852064
 51
270
  0
LINE
  5
2A5
100
AcDbEntity
  8
SEMA2D
100
AcDbLine
370
9
 62
0
 48
0
  6
_SOLID
 10
0.6732768353
 20
2.6101834034
 30
0
 11
0.6953103428
 21
2.6101834034
 31
0
  0
LINE
  5
2A6
100
AcDbEntity
  8
SEMA2D
100
AcDbLine
370
9
 62
0
 48
0
  6
_SOLID
 10
0.6953103428
 20
2.6101834096
 30
0
 11
0.6973103428
 21
2.6101834096
 31
0
  0
ARC
  5
2A7
100
AcDbEntity
  8
SEMA2D
100
AcDbCircle
370
9
 62
0
 48
0
  6
_SOLID
 10
0.6006374453
 20
2.5955113877
 30
0
 40
0.0977761267
100
AcDbArc
 50
8.72273141748632
 51
90
  0
ARC
  5
2A8
100
AcDbEntity
  8
SEMA2D
100
AcDbCircle
370
9
 62
0
 48
0
  6
_SOLID
 10
0.5972356727
 20
2.5955113877
 30
0
 40
0.101437691
100
AcDbArc
 50
90
 51
171.89310307922
  0
ARC
  5
2A9
100
AcDbEntity
  8
SEMA2D
100
AcDbCircle
370
9
 62
0
 48
0
  6
_SOLID
 10
0.5972356727
 20
2.5955113877
 30
0
 40
0.1052416773
100
AcDbArc
 50
90
 51
170.183305102343
  0
ARC
  5
2AA
100
AcDbEntity
  8
SEMA2D
100
AcDbCircle
370
9
 62
0
 48
0
  6
_SOLID
 10
0.5972356727
 20
2.5955113877
 30
0
 40
0.0977761267
100
AcDbArc
 50
90
 51
171.277268582514
  0
ARC
  5
2AB
100
AcDbEntity
  8
SEMA2D
100
AcDbCircle
370
9
 62
0
 48
0
  6
_SOLID
 10
0.4980814769
 20
2.6103436741
 30
0
 40
0.0024812983
100
AcDbArc
 50
270
 51
0
  0
ARC
  5
2AC
100
AcDbEntity
  8
SEMA2D
100
AcDbCircle
370
9
 62
0
 48
0
  6
_SOLID
 10
0.497662338
 20
2.6111762416
 30
0
 40
0.005
100
AcDbArc
 50
270
 51
348.546862147936
  0
LINE
  5
2AD
100
AcDbEntity
  8
SEMA2D
100
AcDbLine
370
9
 62
0
 48
0
  6
_SOLID
 10
0.5025627752
 20
2.6101834096
 30
0
 11
0.5005627752
 21
2.6101834096
 31
0
  0
ARC
  5
2AE
100
AcDbEntity
  8
SEMA2D
100
AcDbCircle
370
9
 62
0
 48
0
  6
_SOLID
 10
0.598936559
 20
2.5970413215
 30
0
 40
0.0911348676
100
AcDbArc
 50
46.4066483823984
 51
133.593351674304
  0
ARC
  5
2AF
100
AcDbEntity
  8
SEMA2D
100
AcDbCircle
370
9
 62
0
 48
0
  6
_SOLID
 10
0.598936559
 20
2.5906930424
 30
0
 40
0.0904831467
100
AcDbArc
 50
64.5679066598151
 51
115.432093340185
  0
ARC
  5
2B0
100
AcDbEntity
  8
SEMA2D
100
AcDbCircle
370
9
 62
0
 48
0
  6
_SOLID
 10
0.640893737
 20
2.6449479621
 30
0
 40
0.0276343758
100
AcDbArc
 50
40.9126319751795
 51
96.4409476614144
  0
ARC
  5
2B1
100
AcDbEntity
  8
SEMA2D
100
AcDbCircle
370
9
 62
0
 48
0
  6
_SOLID
 10
0.557579381
 20
2.6434108816
 30
0
 40
0.0291045983
100
AcDbArc
 50
85.0723875765214
 51
137.574032831815
  0
LINE
  5
2B2
100
AcDbEntity
  8
SEMA2D
100
AcDbLine
370
9
 62
0
 48
0
  6
_SOLID
 10
0.70021078
 20
2.6061762416
 30
0
 11
0.7069660831
 21
2.6061762435
 31
0
  0
LINE
  5
2B3
100
AcDbEntity
  8
SEMA2D
100
AcDbLine
370
9
 62
0
 48
0
  6
_SOLID
 10
0.4905151643
 20
2.6061761891
 30
0
 11
0.497662338
 21
2.6061761911
 31
0
  0
LINE
  5
2B4
100
AcDbEntity
  8
SEMA2D
100
AcDbLine
370
9
 62
0
 48
0
  6
_SOLID
 10
0.5972356727
 20
2.6913186642
 30
0
 11
0.6006374453
 21
2.6913186642
 31
0
  0
LINE
  5
2B5
100
AcDbEntity
  8
SEMA2D
100
AcDbLine
370
9
 62
0
 48
0
  6
_SOLID
 10
0.6006374453
 20
2.6932875144
 30
0
 11
0.5972356727
 21
2.6932875144
 31
0
  0
LINE
  5
2B6
100
AcDbEntity
  8
SEMA2D
100
AcDbLine
370
9
 62
0
 48
0
  6
_SOLID
 10
0.6006374453
 20
2.6969490787
 30
0
 11
0.5972356727
 21
2.6969490787
 31
0
  0
LINE
  5
2B7
100
AcDbEntity
  8
SEMA2D
100
AcDbLine
370
9
 62
0
 48
0
  6
_SOLID
 10
0.6006374453
 20
2.700753065
 30
0
 11
0.5972356727
 21
2.700753065
 31
0
  0
LINE
  5
2B8
100
AcDbEntity
  8
SEMA2D
100
AcDbLine
370
9
 62
0
 48
0
  6
_SOLID
 10
0.510936559
 20
2.7568775356
 30
0
 11
0.686936559
 21
2.7568775356
 31
0
  0
MTEXT
  5
2B9
100
AcDbEntity
  8
SEMATEXT
100
AcDbMText
370
9
 62
0
 10
0.592131589787553
 20
2.76177711343296
 30
0
 40
0.008
  1
{\fArial Narrow;176}
 50
0
 41
0
  7
STANDARD
 71
7
  0
LINE
  5
2BD
100
AcDbEntity
  8
SEMA2D
100
AcDbLine
370
9
 62
0
 48
0
  6
_SOLID
 10
0.510936559
 20
2.7568775356
 30
0
 11
0.510936559
 21
2.7638775356
 31
0
  0
LINE
  5
2BE
100
AcDbEntity
  8
SEMA2D
100
AcDbLine
370
9
 62
0
 48
0
  6
_SOLID
 10
0.510936559
 20
2.7568775356
 30
0
 11
0.510936559
 21
2.7498775356
 31
0
  0
LINE
  5
2BF
100
AcDbEntity
  8
SEMA2D
100
AcDbLine
370
9
 62
0
 48
0
  6
_SOLID
 10
0.510936559
 20
2.7568775356
 30
0
 11
0.516998736826491
 21
2.7603775356
 31
0
  0
LINE
  5
2C0
100
AcDbEntity
  8
SEMA2D
100
AcDbLine
370
9
 62
0
 48
0
  6
_SOLID
 10
0.510936559
 20
2.7568775356
 30
0
 11
0.504874381173509
 21
2.7533775356
 31
0
  0
LINE
  5
2C1
100
AcDbEntity
  8
SEMA2D
100
AcDbLine
370
9
 62
0
 48
0
  6
_DOT
 10
0.510936559
 20
2.7068775356
 30
0
 11
0.510936559
 21
2.7568775356
 31
0
  0
LINE
  5
2C2
100
AcDbEntity
  8
SEMA2D
100
AcDbLine
370
9
 62
0
 48
0
  6
_SOLID
 10
0.686936559
 20
2.7568775356
 30
0
 11
0.686936559
 21
2.7638775356
 31
0
  0
LINE
  5
2C3
100
AcDbEntity
  8
SEMA2D
100
AcDbLine
370
9
 62
0
 48
0
  6
_SOLID
 10
0.686936559
 20
2.7568775356
 30
0
 11
0.686936559
 21
2.7498775356
 31
0
  0
LINE
  5
2C4
100
AcDbEntity
  8
SEMA2D
100
AcDbLine
370
9
 62
0
 48
0
  6
_SOLID
 10
0.686936559
 20
2.7568775356
 30
0
 11
0.692998736826491
 21
2.7603775356
 31
0
  0
LINE
  5
2C5
100
AcDbEntity
  8
SEMA2D
100
AcDbLine
370
9
 62
0
 48
0
  6
_SOLID
 10
0.686936559
 20
2.7568775356
 30
0
 11
0.680874381173509
 21
2.7533775356
 31
0
  0
LINE
  5
2C6
100
AcDbEntity
  8
SEMA2D
100
AcDbLine
370
9
 62
0
 48
0
  6
_DOT
 10
0.686936559
 20
2.7068775356
 30
0
 11
0.686936559
 21
2.7568775356
 31
0
  0
LINE
  5
2C7
100
AcDbEntity
  8
SEMA2D
100
AcDbLine
370
9
 62
0
 48
0
  6
_SOLID
 10
0.1452306553
 20
2.0999019464
 30
0
 11
0.2458645561
 21
2.0999019464
 31
0
  0
MTEXT
  5
2C8
100
AcDbEntity
  8
SEMATEXT
100
AcDbMText
370
9
 62
0
 10
0.148010959558369
 20
2.10480152423296
 30
0
 40
0.008
  1
{\fArial Narrow;15}
 50
0
 41
0
  7
STANDARD
 71
7
  0
MTEXT
  5
2CC
100
AcDbEntity
  8
SEMATEXT
100
AcDbMText
370
9
 62
0
 10
0.198327909958369
 20
2.10480152423296
 30
0
 40
0.008
  1
{\fArial Narrow;86}
 50
0
 41
0
  7
STANDARD
 71
7
  0
LINE
  5
2D0
100
AcDbEntity
  8
SEMA2D
100
AcDbLine
370
9
 62
0
 48
0
  6
_SOLID
 10
0.1452306553
 20
2.0999019464
 30
0
 11
0.1452306553
 21
2.1069019464
 31
0
  0
LINE
  5
2D1
100
AcDbEntity
  8
SEMA2D
100
AcDbLine
370
9
 62
0
 48
0
  6
_SOLID
 10
0.1452306553
 20
2.0999019464
 30
0
 11
0.1452306553
 21
2.0929019464
 31
0
  0
LINE
  5
2D2
100
AcDbEntity
  8
SEMA2D
100
AcDbLine
370
9
 62
0
 48
0
  6
_SOLID
 10
0.1452306553
 20
2.0999019464
 30
0
 11
0.151292833126491
 21
2.1034019464
 31
0
  0
LINE
  5
2D3
100
AcDbEntity
  8
SEMA2D
100
AcDbLine
370
9
 62
0
 48
0
  6
_SOLID
 10
0.1452306553
 20
2.0999019464
 30
0
 11
0.139168477473509
 21
2.0964019464
 31
0
  0
LINE
  5
2D4
100
AcDbEntity
  8
SEMA2D
100
AcDbLine
370
9
 62
0
 48
0
  6
_DOT
 10
0.1452306553
 20
2.1499019464
 30
0
 11
0.1452306553
 21
2.0999019464
 31
0
  0
LINE
  5
2D5
100
AcDbEntity
  8
SEMA2D
100
AcDbLine
370
9
 62
0
 48
0
  6
_SOLID
 10
0.1598645561
 20
2.0999019464
 30
0
 11
0.1598645561
 21
2.1069019464
 31
0
  0
LINE
  5
2D6
100
AcDbEntity
  8
SEMA2D
100
AcDbLine
370
9
 62
0
 48
0
  6
_SOLID
 10
0.1598645561
 20
2.0999019464
 30
0
 11
0.1598645561
 21
2.0929019464
 31
0
  0
LINE
  5
2D7
100
AcDbEntity
  8
SEMA2D
100
AcDbLine
370
9
 62
0
 48
0
  6
_SOLID
 10
0.1598645561
 20
2.0999019464
 30
0
 11
0.165926733926491
 21
2.1034019464
 31
0
  0
LINE
  5
2D8
100
AcDbEntity
  8
SEMA2D
100
AcDbLine
370
9
 62
0
 48
0
  6
_SOLID
 10
0.1598645561
 20
2.0999019464
 30
0
 11
0.153802378273509
 21
2.0964019464
 31
0
  0
LINE
  5
2D9
100
AcDbEntity
  8
SEMA2D
100
AcDbLine
370
9
 62
0
 48
0
  6
_DOT
 10
0.1598645561
 20
2.1499019464
 30
0
 11
0.1598645561
 21
2.0999019464
 31
0
  0
LINE
  5
2DA
100
AcDbEntity
  8
SEMA2D
100
AcDbLine
370
9
 62
0
 48
0
  6
_SOLID
 10
0.2458645561
 20
2.0999019464
 30
0
 11
0.2458645561
 21
2.1069019464
 31
0
  0
LINE
  5
2DB
100
AcDbEntity
  8
SEMA2D
100
AcDbLine
370
9
 62
0
 48
0
  6
_SOLID
 10
0.2458645561
 20
2.0999019464
 30
0
 11
0.2458645561
 21
2.0929019464
 31
0
  0
LINE
  5
2DC
100
AcDbEntity
  8
SEMA2D
100
AcDbLine
370
9
 62
0
 48
0
  6
_SOLID
 10
0.2458645561
 20
2.0999019464
 30
0
 11
0.251926733926491
 21
2.1034019464
 31
0
  0
LINE
  5
2DD
100
AcDbEntity
  8
SEMA2D
100
AcDbLine
370
9
 62
0
 48
0
  6
_SOLID
 10
0.2458645561
 20
2.0999019464
 30
0
 11
0.239802378273509
 21
2.0964019464
 31
0
  0
LINE
  5
2DE
100
AcDbEntity
  8
SEMA2D
100
AcDbLine
370
9
 62
0
 48
0
  6
_DOT
 10
0.2458645561
 20
2.1499019464
 30
0
 11
0.2458645561
 21
2.0999019464
 31
0
  0
LINE
  5
2DF
100
AcDbEntity
  8
SEMA2D
100
AcDbLine
370
9
 62
0
 48
0
  6
_SOLID
 10
0.1817095561
 20
2.5780019464
 30
0
 11
0.2458645561
 21
2.5780019464
 31
0
  0
MTEXT
  5
2E0
100
AcDbEntity
  8
SEMATEXT
100
AcDbMText
370
9
 62
0
 10
0.209250409958369
 20
2.58290152423296
 30
0
 40
0.008
  1
{\fArial Narrow;64}
 50
0
 41
0
  7
STANDARD
 71
7
  0
LINE
  5
2E4
100
AcDbEntity
  8
SEMA2D
100
AcDbLine
370
9
 62
0
 48
0
  6
_SOLID
 10
0.1817095561
 20
2.5780019464
 30
0
 11
0.1817095561
 21
2.5850019464
 31
0
  0
LINE
  5
2E5
100
AcDbEntity
  8
SEMA2D
100
AcDbLine
370
9
 62
0
 48
0
  6
_SOLID
 10
0.1817095561
 20
2.5780019464
 30
0
 11
0.1817095561
 21
2.5710019464
 31
0
  0
LINE
  5
2E6
100
AcDbEntity
  8
SEMA2D
100
AcDbLine
370
9
 62
0
 48
0
  6
_SOLID
 10
0.1817095561
 20
2.5780019464
 30
0
 11
0.187771733926491
 21
2.5815019464
 31
0
  0
LINE
  5
2E7
100
AcDbEntity
  8
SEMA2D
100
AcDbLine
370
9
 62
0
 48
0
  6
_SOLID
 10
0.1817095561
 20
2.5780019464
 30
0
 11
0.175647378273509
 21
2.5745019464
 31
0
  0
LINE
  5
2E8
100
AcDbEntity
  8
SEMA2D
100
AcDbLine
370
9
 62
0
 48
0
  6
_DOT
 10
0.1817095561
 20
2.5280019464
 30
0
 11
0.1817095561
 21
2.5780019464
 31
0
  0
LINE
  5
2E9
100
AcDbEntity
  8
SEMA2D
100
AcDbLine
370
9
 62
0
 48
0
  6
_SOLID
 10
0.2458645561
 20
2.5780019464
 30
0
 11
0.2458645561
 21
2.5850019464
 31
0
  0
LINE
  5
2EA
100
AcDbEntity
  8
SEMA2D
100
AcDbLine
370
9
 62
0
 48
0
  6
_SOLID
 10
0.2458645561
 20
2.5780019464
 30
0
 11
0.2458645561
 21
2.5710019464
 31
0
  0
LINE
  5
2EB
100
AcDbEntity
  8
SEMA2D
100
AcDbLine
370
9
 62
0
 48
0
  6
_SOLID
 10
0.2458645561
 20
2.5780019464
 30
0
 11
0.251926733926491
 21
2.5815019464
 31
0
  0
LINE
  5
2EC
100
AcDbEntity
  8
SEMA2D
100
AcDbLine
370
9
 62
0
 48
0
  6
_SOLID
 10
0.2458645561
 20
2.5780019464
 30
0
 11
0.239802378273509
 21
2.5745019464
 31
0
  0
LINE
  5
2ED
100
AcDbEntity
  8
SEMA2D
100
AcDbLine
370
9
 62
0
 48
0
  6
_DOT
 10
0.2458645561
 20
2.5280019464
 30
0
 11
0.2458645561
 21
2.5780019464
 31
0
  0
LINE
  5
2EE
100
AcDbEntity
  8
SEMA2D
100
AcDbLine
370
9
 62
0
 48
0
  6
_SOLID
 10
0.1668676018
 20
2.6280019464
 30
0
 11
0.2458645561
 21
2.6280019464
 31
0
  0
MTEXT
  5
2EF
100
AcDbEntity
  8
SEMATEXT
100
AcDbMText
370
9
 62
0
 10
0.201829432808369
 20
2.63290152423296
 30
0
 40
0.008
  1
{\fArial Narrow;79}
 50
0
 41
0
  7
STANDARD
 71
7
  0
LINE
  5
2F3
100
AcDbEntity
  8
SEMA2D
100
AcDbLine
370
9
 62
0
 48
0
  6
_SOLID
 10
0.1668676018
 20
2.6280019464
 30
0
 11
0.1668676018
 21
2.6350019464
 31
0
  0
LINE
  5
2F4
100
AcDbEntity
  8
SEMA2D
100
AcDbLine
370
9
 62
0
 48
0
  6
_SOLID
 10
0.1668676018
 20
2.6280019464
 30
0
 11
0.1668676018
 21
2.6210019464
 31
0
  0
LINE
  5
2F5
100
AcDbEntity
  8
SEMA2D
100
AcDbLine
370
9
 62
0
 48
0
  6
_SOLID
 10
0.1668676018
 20
2.6280019464
 30
0
 11
0.172929779626491
 21
2.6315019464
 31
0
  0
LINE
  5
2F6
100
AcDbEntity
  8
SEMA2D
100
AcDbLine
370
9
 62
0
 48
0
  6
_SOLID
 10
0.1668676018
 20
2.6280019464
 30
0
 11
0.160805423973509
 21
2.6245019464
 31
0
  0
LINE
  5
2F7
100
AcDbEntity
  8
SEMA2D
100
AcDbLine
370
9
 62
0
 48
0
  6
_DOT
 10
0.1668676018
 20
2.5780019464
 30
0
 11
0.1668676018
 21
2.6280019464
 31
0
  0
LINE
  5
2F8
100
AcDbEntity
  8
SEMA2D
100
AcDbLine
370
9
 62
0
 48
0
  6
_SOLID
 10
0.2458645561
 20
2.6280019464
 30
0
 11
0.2458645561
 21
2.6350019464
 31
0
  0
LINE
  5
2F9
100
AcDbEntity
  8
SEMA2D
100
AcDbLine
370
9
 62
0
 48
0
  6
_SOLID
 10
0.2458645561
 20
2.6280019464
 30
0
 11
0.2458645561
 21
2.6210019464
 31
0
  0
LINE
  5
2FA
100
AcDbEntity
  8
SEMA2D
100
AcDbLine
370
9
 62
0
 48
0
  6
_SOLID
 10
0.2458645561
 20
2.6280019464
 30
0
 11
0.251926733926491
 21
2.6315019464
 31
0
  0
LINE
  5
2FB
100
AcDbEntity
  8
SEMA2D
100
AcDbLine
370
9
 62
0
 48
0
  6
_SOLID
 10
0.2458645561
 20
2.6280019464
 30
0
 11
0.239802378273509
 21
2.6245019464
 31
0
  0
LINE
  5
2FC
100
AcDbEntity
  8
SEMA2D
100
AcDbLine
370
9
 62
0
 48
0
  6
_DOT
 10
0.2458645561
 20
2.5780019464
 30
0
 11
0.2458645561
 21
2.6280019464
 31
0
  0
LINE
  5
2FD
100
AcDbEntity
  8
SEMA2D
100
AcDbLine
370
9
 62
0
 48
0
  6
_SOLID
 10
0.7765481607
 20
2.1488427069
 30
0
 11
0.7765481607
 21
2.5290019464
 31
0
  0
MTEXT
  5
2FE
100
AcDbEntity
  8
SEMATEXT
100
AcDbMText
370
9
 62
0
 10
0.771648582867038
 20
2.33347835128004
 30
0
 40
0.008
  1
{\fArial Narrow;38}
 50
90
 41
0
  7
STANDARD
 71
7
  0
LINE
  5
302
100
AcDbEntity
  8
SEMA2D
100
AcDbLine
370
9
 62
0
 48
0
  6
_SOLID
 10
0.7765481607
 20
2.1488427069
 30
0
 11
0.7695481607
 21
2.1488427069
 31
0
  0
LINE
  5
303
100
AcDbEntity
  8
SEMA2D
100
AcDbLine
370
9
 62
0
 48
0
  6
_SOLID
 10
0.7765481607
 20
2.1488427069
 30
0
 11
0.7835481607
 21
2.1488427069
 31
0
  0
LINE
  5
304
100
AcDbEntity
  8
SEMA2D
100
AcDbLine
370
9
 62
0
 48
0
  6
_SOLID
 10
0.7765481607
 20
2.1488427069
 30
0
 11
0.7730481607
 21
2.15490488472649
 31
0
  0
LINE
  5
305
100
AcDbEntity
  8
SEMA2D
100
AcDbLine
370
9
 62
0
 48
0
  6
_SOLID
 10
0.7765481607
 20
2.1488427069
 30
0
 11
0.7800481607
 21
2.14278052907351
 31
0
  0
LINE
  5
306
100
AcDbEntity
  8
SEMA2D
100
AcDbLine
370
9
 62
0
 48
0
  6
_DOT
 10
0.7265481607
 20
2.1488427069
 30
0
 11
0.7765481607
 21
2.1488427069
 31
0
  0
LINE
  5
307
100
AcDbEntity
  8
SEMA2D
100
AcDbLine
370
9
 62
0
 48
0
  6
_SOLID
 10
0.7765481607
 20
2.5290019464
 30
0
 11
0.7695481607
 21
2.5290019464
 31
0
  0
LINE
  5
308
100
AcDbEntity
  8
SEMA2D
100
AcDbLine
370
9
 62
0
 48
0
  6
_SOLID
 10
0.7765481607
 20
2.5290019464
 30
0
 11
0.7835481607
 21
2.5290019464
 31
0
  0
LINE
  5
309
100
AcDbEntity
  8
SEMA2D
100
AcDbLine
370
9
 62
0
 48
0
  6
_SOLID
 10
0.7765481607
 20
2.5290019464
 30
0
 11
0.7730481607
 21
2.53506412422649
 31
0
  0
LINE
  5
30A
100
AcDbEntity
  8
SEMA2D
100
AcDbLine
370
9
 62
0
 48
0
  6
_SOLID
 10
0.7765481607
 20
2.5290019464
 30
0
 11
0.7800481607
 21
2.52293976857351
 31
0
  0
LINE
  5
30B
100
AcDbEntity
  8
SEMA2D
100
AcDbLine
370
9
 62
0
 48
0
  6
_DOT
 10
0.7265481607
 20
2.5290019464
 30
0
 11
0.7765481607
 21
2.5290019464
 31
0
  0
LINE
  5
30C
100
AcDbEntity
  8
SEMA2D
100
AcDbLine
370
9
 62
0
 48
0
  6
_SOLID
 10
0.4873119558
 20
1.9231413454
 30
0
 11
0.710561162
 21
1.9231413454
 31
0
  0
MTEXT
  5
30D
100
AcDbEntity
  8
SEMATEXT
100
AcDbMText
370
9
 62
0
 10
0.592131589687553
 20
1.92804092323296
 30
0
 40
0.008
  1
{\fArial Narrow;223}
 50
0
 41
0
  7
STANDARD
 71
7
  0
LINE
  5
311
100
AcDbEntity
  8
SEMA2D
100
AcDbLine
370
9
 62
0
 48
0
  6
_SOLID
 10
0.4873119558
 20
1.9231413454
 30
0
 11
0.4873119558
 21
1.9301413454
 31
0
  0
LINE
  5
312
100
AcDbEntity
  8
SEMA2D
100
AcDbLine
370
9
 62
0
 48
0
  6
_SOLID
 10
0.4873119558
 20
1.9231413454
 30
0
 11
0.4873119558
 21
1.9161413454
 31
0
  0
LINE
  5
313
100
AcDbEntity
  8
SEMA2D
100
AcDbLine
370
9
 62
0
 48
0
  6
_SOLID
 10
0.4873119558
 20
1.9231413454
 30
0
 11
0.493374133626491
 21
1.9266413454
 31
0
  0
LINE
  5
314
100
AcDbEntity
  8
SEMA2D
100
AcDbLine
370
9
 62
0
 48
0
  6
_SOLID
 10
0.4873119558
 20
1.9231413454
 30
0
 11
0.481249777973509
 21
1.9196413454
 31
0
  0
LINE
  5
315
100
AcDbEntity
  8
SEMA2D
100
AcDbLine
370
9
 62
0
 48
0
  6
_DOT
 10
0.4873119558
 20
1.9731413454
 30
0
 11
0.4873119558
 21
1.9231413454
 31
0
  0
LINE
  5
316
100
AcDbEntity
  8
SEMA2D
100
AcDbLine
370
9
 62
0
 48
0
  6
_SOLID
 10
0.710561162
 20
1.9231413454
 30
0
 11
0.710561162
 21
1.9301413454
 31
0
  0
LINE
  5
317
100
AcDbEntity
  8
SEMA2D
100
AcDbLine
370
9
 62
0
 48
0
  6
_SOLID
 10
0.710561162
 20
1.9231413454
 30
0
 11
0.710561162
 21
1.9161413454
 31
0
  0
LINE
  5
318
100
AcDbEntity
  8
SEMA2D
100
AcDbLine
370
9
 62
0
 48
0
  6
_SOLID
 10
0.710561162
 20
1.9231413454
 30
0
 11
0.716623339826491
 21
1.9266413454
 31
0
  0
LINE
  5
319
100
AcDbEntity
  8
SEMA2D
100
AcDbLine
370
9
 62
0
 48
0
  6
_SOLID
 10
0.710561162
 20
1.9231413454
 30
0
 11
0.704498984173509
 21
1.9196413454
 31
0
  0
LINE
  5
31A
100
AcDbEntity
  8
SEMA2D
100
AcDbLine
370
9
 62
0
 48
0
  6
_DOT
 10
0.710561162
 20
1.9731413454
 30
0
 11
0.710561162
 21
1.9231413454
 31
0
  0
LINE
  5
31B
100
AcDbEntity
  8
SEMA2D
100
AcDbLine
370
9
 62
0
 48
0
  6
_SOLID
 10
0.4885731758
 20
2.0723208974
 30
0
 11
0.4880519743
 21
2.0702043002
 31
0
  0
ARC
  5
31C
100
AcDbEntity
  8
SEMA2D
100
AcDbCircle
370
9
 62
0
 48
0
  6
_SOLID
 10
0.4905151644
 20
2.0718426924
 30
0
 40
0.002
100
AcDbArc
 50
90
 51
166.166424919775
  0
LINE
  5
31D
100
AcDbEntity
  8
SEMA2D
100
AcDbLine
370
9
 62
0
 48
0
  6
_SOLID
 10
0.4863249572
 20
2.0665626919
 30
0
 11
0.4863249572
 21
2.0702026919
 31
0
  0
LINE
  5
31E
100
AcDbEntity
  8
SEMA2D
100
AcDbLine
370
9
 62
0
 48
0
  6
_SOLID
 10
0.508283115
 20
2.0665626919
 30
0
 11
0.508283115
 21
2.0702026919
 31
0
  0
LINE
  5
31F
100
AcDbEntity
  8
SEMA2D
100
AcDbLine
370
9
 62
0
 48
0
  6
_SOLID
 10
0.5191772254
 20
2.0738426856
 30
0
 11
0.5191772254
 21
2.0721565052
 31
0
  0
LINE
  5
320
100
AcDbEntity
  8
SEMA2D
100
AcDbLine
370
9
 62
0
 48
0
  6
_SOLID
 10
0.5221346299
 20
2.0368080063
 30
0
 11
0.5258597509
 21
2.0389766691
 31
0
  0
ARC
  5
321
100
AcDbEntity
  8
SEMA2D
100
AcDbCircle
370
9
 62
0
 48
0
  6
_SOLID
 10
0.678106606
 20
2.0688426919
 30
0
 40
0.005
100
AcDbArc
 50
90
 51
170.146568033195
  0
ARC
  5
322
100
AcDbEntity
  8
SEMA2D
100
AcDbCircle
370
9
 62
0
 48
0
  6
_SOLID
 10
0.5197672884
 20
2.0688426458
 30
0
 40
0.005
100
AcDbArc
 50
9.83287751227947
 51
90
  0
LINE
  5
323
100
AcDbEntity
  8
SEMA2D
100
AcDbLine
370
9
 62
0
 48
0
  6
_SOLID
 10
0.5852396086
 20
2.0096876929
 30
0
 11
0.612633531
 21
2.0096876929
 31
0
  0
LINE
  5
324
100
AcDbEntity
  8
SEMA2D
100
AcDbLine
370
9
 62
0
 48
0
  6
_SOLID
 10
0.5154443683
 20
2.0665626919
 30
0
 11
0.4863249572
 21
2.0665626919
 31
0
  0
LINE
  5
325
100
AcDbEntity
  8
SEMA2D
100
AcDbLine
370
9
 62
0
 48
0
  6
_SOLID
 10
0.6824287496
 20
2.0665626919
 30
0
 11
0.7115481607
 21
2.0665626919
 31
0
  0
LINE
  5
326
100
AcDbEntity
  8
SEMA2D
100
AcDbLine
370
9
 62
0
 48
0
  6
_SOLID
 10
0.518661559
 20
2.0702026919
 30
0
 11
0.4863249572
 21
2.0702026919
 31
0
  0
LINE
  5
327
100
AcDbEntity
  8
SEMA2D
100
AcDbLine
370
9
 62
0
 48
0
  6
_SOLID
 10
0.679211559
 20
2.0702026919
 30
0
 11
0.7115481607
 21
2.0702026919
 31
0
  0
LINE
  5
328
100
AcDbEntity
  8
SEMA2D
100
AcDbLine
370
9
 62
0
 48
0
  6
_SOLID
 10
0.4884907441
 20
2.0719624612
 30
0
 11
0.5099394837
 21
2.0719615814
 31
0
  0
LINE
  5
329
100
AcDbEntity
  8
SEMA2D
100
AcDbLine
370
9
 62
0
 48
0
  6
_SOLID
 10
0.6879336342
 20
2.0719615814
 30
0
 11
0.7093823738
 21
2.0719624612
 31
0
  0
LINE
  5
32A
100
AcDbEntity
  8
SEMA2D
100
AcDbLine
370
9
 62
0
 48
0
  6
_SOLID
 10
0.5122345665
 20
2.0721565052
 30
0
 11
0.5206763953
 21
2.0721565052
 31
0
  0
ARC
  5
32B
100
AcDbEntity
  8
SEMA2D
100
AcDbCircle
370
9
 62
0
 48
0
  6
_SOLID
 10
0.5206763953
 20
2.0701565052
 30
0
 40
0.002
100
AcDbArc
 50
10.0000000019836
 51
90
  0
LINE
  5
32C
100
AcDbEntity
  8
SEMA2D
100
AcDbLine
370
9
 62
0
 48
0
  6
_SOLID
 10
0.6786958925
 20
2.0721565052
 30
0
 11
0.6856385513
 21
2.0721565052
 31
0
  0
LINE
  5
32D
100
AcDbEntity
  8
SEMA2D
100
AcDbLine
370
9
 62
0
 48
0
  6
_SOLID
 10
0.707045312
 20
2.0738426919
 30
0
 11
0.678106606
 21
2.0738426919
 31
0
  0
LINE
  5
32E
100
AcDbEntity
  8
SEMA2D
100
AcDbLine
370
9
 62
0
 48
0
  6
_SOLID
 10
0.4905151676
 20
2.0738426924
 30
0
 11
0.5197672964
 21
2.0738426458
 31
0
  0
LINE
  5
32F
100
AcDbEntity
  8
SEMA2D
100
AcDbLine
370
9
 62
0
 48
0
  6
_SOLID
 10
0.6720133671
 20
2.038976669
 30
0
 11
0.675738488
 21
2.0368080063
 31
0
  0
LINE
  5
330
100
AcDbEntity
  8
SEMA2D
100
AcDbLine
370
9
 62
0
 48
0
  6
_SOLID
 10
0.6786958925
 20
2.0738426919
 30
0
 11
0.6786958925
 21
2.0721565052
 31
0
  0
LINE
  5
331
100
AcDbEntity
  8
SEMA2D
100
AcDbLine
370
9
 62
0
 48
0
  6
_SOLID
 10
0.6895900029
 20
2.0702026919
 30
0
 11
0.6895900029
 21
2.0665626919
 31
0
  0
LINE
  5
332
100
AcDbEntity
  8
SEMA2D
100
AcDbLine
370
9
 62
0
 48
0
  6
_SOLID
 10
0.7115481607
 20
2.0702026919
 30
0
 11
0.7115481607
 21
2.0665626919
 31
0
  0
LINE
  5
333
100
AcDbEntity
  8
SEMA2D
100
AcDbLine
370
9
 62
0
 48
0
  6
_SOLID
 10
0.7078173329
 20
2.0737189537
 30
0
 11
0.7076666852
 21
2.0737631756
 31
0
  0
LINE
  5
334
100
AcDbEntity
  8
SEMA2D
100
AcDbLine
370
9
 62
0
 48
0
  6
_SOLID
 10
0.7076666852
 20
2.0737631756
 30
0
 11
0.7075134255
 21
2.0737977931
 31
0
  0
LINE
  5
335
100
AcDbEntity
  8
SEMA2D
100
AcDbLine
370
9
 62
0
 48
0
  6
_SOLID
 10
0.7075134255
 20
2.0737977931
 30
0
 11
0.7073582879
 21
2.0738226664
 31
0
  0
LINE
  5
336
100
AcDbEntity
  8
SEMA2D
100
AcDbLine
370
9
 62
0
 48
0
  6
_SOLID
 10
0.7073582879
 20
2.0738226664
 30
0
 11
0.7072020421
 21
2.0738376674
 31
0
  0
LINE
  5
337
100
AcDbEntity
  8
SEMA2D
100
AcDbLine
370
9
 62
0
 48
0
  6
_SOLID
 10
0.7072020421
 20
2.0738376674
 30
0
 11
0.7070453334
 21
2.0738426919
 31
0
  0
LINE
  5
338
100
AcDbEntity
  8
SEMA2D
100
AcDbLine
370
9
 62
0
 48
0
  6
_SOLID
 10
0.7098211436
 20
2.0702043002
 30
0
 11
0.7093566853
 21
2.0720904638
 31
0
  0
ARC
  5
339
100
AcDbEntity
  8
SEMA2D
100
AcDbCircle
370
9
 62
0
 48
0
  6
_SOLID
 10
0.5973058019
 20
2.0845914245
 30
0
 40
0.1114619539
100
AcDbArc
 50
189.309602241767
 51
270.836357075148
  0
ARC
  5
33A
100
AcDbEntity
  8
SEMA2D
100
AcDbCircle
370
9
 62
0
 48
0
  6
_SOLID
 10
0.6007073846
 20
2.0844239213
 30
0
 40
0.1112967247
100
AcDbArc
 50
269.086388628923
 51
350.763828193941
  0
ARC
  5
33B
100
AcDbEntity
  8
SEMA2D
100
AcDbCircle
370
9
 62
0
 48
0
  6
_SOLID
 10
0.6015988606
 20
2.0813701852
 30
0
 40
0.0725268467
100
AcDbArc
 50
278.751308750043
 51
350.739034375474
  0
ARC
  5
33C
100
AcDbEntity
  8
SEMA2D
100
AcDbCircle
370
9
 62
0
 48
0
  6
_SOLID
 10
0.5961974022
 20
2.0812917071
 30
0
 40
0.0724376141
100
AcDbArc
 50
189.21103767016
 51
261.299346049405
  0
ARC
  5
33D
100
AcDbEntity
  8
SEMA2D
100
AcDbCircle
370
9
 62
0
 48
0
  6
_SOLID
 10
0.5961974022
 20
2.0812917071
 30
0
 40
0.0891329328
100
AcDbArc
 50
189.510909642182
 51
270
  0
ARC
  5
33E
100
AcDbEntity
  8
SEMA2D
100
AcDbCircle
370
9
 62
0
 48
0
  6
_SOLID
 10
0.5961974022
 20
2.0812917071
 30
0
 40
0.0820850025
100
AcDbArc
 50
190.336879923076
 51
270
  0
ARC
  5
33F
100
AcDbEntity
  8
SEMA2D
100
AcDbCircle
370
9
 62
0
 48
0
  6
_SOLID
 10
0.5961974022
 20
2.0812917071
 30
0
 40
0.0783191401
100
AcDbArc
 50
188.139129893059
 51
270
  0
ARC
  5
340
100
AcDbEntity
  8
SEMA2D
100
AcDbCircle
370
9
 62
0
 48
0
  6
_SOLID
 10
0.5961974022
 20
2.0812917071
 30
0
 40
0.074346489
100
AcDbArc
 50
188.139129893059
 51
270
  0
ARC
  5
341
100
AcDbEntity
  8
SEMA2D
100
AcDbCircle
370
9
 62
0
 48
0
  6
_SOLID
 10
0.5961974022
 20
2.0812917071
 30
0
 40
0.0863936514
100
AcDbArc
 50
201.002488380859
 51
270
  0
LINE
  5
342
100
AcDbEntity
  8
SEMA2D
100
AcDbLine
370
9
 62
0
 48
0
  6
_SOLID
 10
0.5155433158
 20
2.0503275123
 30
0
 11
0.508283115
 21
2.0665626919
 31
0
  0
ARC
  5
343
100
AcDbEntity
  8
SEMA2D
100
AcDbCircle
370
9
 62
0
 48
0
  6
_SOLID
 10
0.7073579536
 20
2.0718426924
 30
0
 40
0.002
100
AcDbArc
 50
13.8335750802249
 51
90
  0
LINE
  5
344
100
AcDbEntity
  8
SEMA2D
100
AcDbLine
370
9
 62
0
 48
0
  6
_SOLID
 10
0.689590003
 20
2.0665626919
 30
0
 11
0.689590003
 21
2.0702026919
 31
0
  0
LINE
  5
345
100
AcDbEntity
  8
SEMA2D
100
AcDbLine
370
9
 62
0
 48
0
  6
_SOLID
 10
0.6786958926
 20
2.0738426856
 30
0
 11
0.6786958926
 21
2.0721565052
 31
0
  0
LINE
  5
346
100
AcDbEntity
  8
SEMA2D
100
AcDbLine
370
9
 62
0
 48
0
  6
_SOLID
 10
0.6757384881
 20
2.0368080063
 30
0
 11
0.6720133671
 21
2.0389766691
 31
0
  0
ARC
  5
347
100
AcDbEntity
  8
SEMA2D
100
AcDbCircle
370
9
 62
0
 48
0
  6
_SOLID
 10
0.6781058296
 20
2.0688426458
 30
0
 40
0.005
100
AcDbArc
 50
90
 51
170.167122487721
  0
LINE
  5
348
100
AcDbEntity
  8
SEMA2D
100
AcDbLine
370
9
 62
0
 48
0
  6
_SOLID
 10
0.6856385515
 20
2.0721565052
 30
0
 11
0.6771967227
 21
2.0721565052
 31
0
  0
ARC
  5
349
100
AcDbEntity
  8
SEMA2D
100
AcDbCircle
370
9
 62
0
 48
0
  6
_SOLID
 10
0.6771967227
 20
2.0701565052
 30
0
 40
0.002
100
AcDbArc
 50
90
 51
169.999999998016
  0
ARC
  5
34A
100
AcDbEntity
  8
SEMA2D
100
AcDbCircle
370
9
 62
0
 48
0
  6
_SOLID
 10
0.6016757158
 20
2.0812917071
 30
0
 40
0.0891329328
100
AcDbArc
 50
270
 51
350.489090357818
  0
ARC
  5
34B
100
AcDbEntity
  8
SEMA2D
100
AcDbCircle
370
9
 62
0
 48
0
  6
_SOLID
 10
0.6016757158
 20
2.0812917071
 30
0
 40
0.0820850025
100
AcDbArc
 50
270
 51
349.663120076924
  0
ARC
  5
34C
100
AcDbEntity
  8
SEMA2D
100
AcDbCircle
370
9
 62
0
 48
0
  6
_SOLID
 10
0.6016757158
 20
2.0812917071
 30
0
 40
0.0783191401
100
AcDbArc
 50
270
 51
351.860870106941
  0
ARC
  5
34D
100
AcDbEntity
  8
SEMA2D
100
AcDbCircle
370
9
 62
0
 48
0
  6
_SOLID
 10
0.6016757158
 20
2.0812917071
 30
0
 40
0.074346489
100
AcDbArc
 50
270
 51
351.860870106941
  0
ARC
  5
34E
100
AcDbEntity
  8
SEMA2D
100
AcDbCircle
370
9
 62
0
 48
0
  6
_SOLID
 10
0.6016757158
 20
2.0812917071
 30
0
 40
0.0863936514
100
AcDbArc
 50
270
 51
338.997511619141
  0
LINE
  5
34F
100
AcDbEntity
  8
SEMA2D
100
AcDbLine
370
9
 62
0
 48
0
  6
_SOLID
 10
0.6823298022
 20
2.0503275123
 30
0
 11
0.689590003
 21
2.0665626919
 31
0
  0
LINE
  5
350
100
AcDbEntity
  8
SEMA2D
100
AcDbLine
370
9
 62
0
 48
0
  6
_SOLID
 10
0.6041507774
 20
1.9910289878
 30
0
 11
0.5939986922
 21
1.9910314654
 31
0
  0
ARC
  5
351
100
AcDbEntity
  8
SEMA2D
100
AcDbCircle
370
9
 62
0
 48
0
  6
_SOLID
 10
0.5990798978
 20
2.0121861915
 30
0
 40
0.0217564034
100
AcDbArc
 50
256.493840796668
 51
283.478193540579
  0
ARC
  5
352
100
AcDbEntity
  8
SEMA2D
100
AcDbCircle
370
9
 62
0
 48
0
  6
_SOLID
 10
0.5989880626
 20
1.9907000681
 30
0
 40
0.0100625256
100
AcDbArc
 50
242.712108734983
 51
297.390024957558
  0
ARC
  5
353
100
AcDbEntity
  8
SEMA2D
100
AcDbCircle
370
9
 62
0
 48
0
  6
_SOLID
 10
0.5989191918
 20
2.0679714195
 30
0
 40
0.0863337469
100
AcDbArc
 50
266.982685886239
 51
273.119447805254
  0
LINE
  5
354
100
AcDbEntity
  8
SEMA2D
100
AcDbLine
370
9
 62
0
 48
0
  6
_SOLID
 10
0.5099394837
 20
2.0718426446
 30
0
 11
0.5099394837
 21
2.0702026919
 31
0
  0
ARC
  5
355
100
AcDbEntity
  8
SEMA2D
100
AcDbCircle
370
9
 62
0
 48
0
  6
_SOLID
 10
0.5119394837
 20
2.0718426446
 30
0
 40
0.002
100
AcDbArc
 50
90
 51
180
  0
LINE
  5
356
100
AcDbEntity
  8
SEMA2D
100
AcDbLine
370
9
 62
0
 48
0
  6
_SOLID
 10
0.5191898425
 20
2.0738426467
 30
0
 11
0.5119394831
 21
2.0738426446
 31
0
  0
LINE
  5
357
100
AcDbEntity
  8
SEMA2D
100
AcDbLine
370
9
 62
0
 48
0
  6
_SOLID
 10
0.5122345665
 20
2.0721565052
 30
0
 11
0.5119394837
 21
2.0738426446
 31
0
  0
LINE
  5
358
100
AcDbEntity
  8
SEMA2D
100
AcDbLine
370
9
 62
0
 48
0
  6
_SOLID
 10
0.5122345665
 20
2.0721565052
 30
0
 11
0.5099394837
 21
2.0702026919
 31
0
  0
LINE
  5
359
100
AcDbEntity
  8
SEMA2D
100
AcDbLine
370
9
 62
0
 48
0
  6
_SOLID
 10
0.6879462513
 20
2.0718426446
 30
0
 11
0.6879462513
 21
2.0702026919
 31
0
  0
ARC
  5
35A
100
AcDbEntity
  8
SEMA2D
100
AcDbCircle
370
9
 62
0
 48
0
  6
_SOLID
 10
0.6859462513
 20
2.0718426446
 30
0
 40
0.002
100
AcDbArc
 50
0
 51
90
  0
LINE
  5
35B
100
AcDbEntity
  8
SEMA2D
100
AcDbLine
370
9
 62
0
 48
0
  6
_SOLID
 10
0.6786958925
 20
2.0738426467
 30
0
 11
0.6859462519
 21
2.0738426446
 31
0
  0
LINE
  5
35C
100
AcDbEntity
  8
SEMA2D
100
AcDbLine
370
9
 62
0
 48
0
  6
_SOLID
 10
0.6856511685
 20
2.0721565052
 30
0
 11
0.6859462513
 21
2.0738426446
 31
0
  0
LINE
  5
35D
100
AcDbEntity
  8
SEMA2D
100
AcDbLine
370
9
 62
0
 48
0
  6
_SOLID
 10
0.6856511685
 20
2.0721565052
 30
0
 11
0.6879462513
 21
2.0702026919
 31
0
  0
LINE
  5
35E
100
AcDbEntity
  8
SEMA2D
100
AcDbLine
370
9
 62
0
 48
0
  6
_SOLID
 10
0.5961974022
 20
2.0069452181
 30
0
 11
0.6016974022
 21
2.0069452181
 31
0
  0
LINE
  5
35F
100
AcDbEntity
  8
SEMA2D
100
AcDbLine
370
9
 62
0
 48
0
  6
_SOLID
 10
0.5961974022
 20
1.9921587743
 30
0
 11
0.6016757158
 21
1.9921587743
 31
0
  0
LINE
  5
360
100
AcDbEntity
  8
SEMA2D
100
AcDbLine
370
9
 62
0
 48
0
  6
_SOLID
 10
0.6016757158
 20
1.9948980557
 30
0
 11
0.5961974022
 21
1.9948980557
 31
0
  0
LINE
  5
361
100
AcDbEntity
  8
SEMA2D
100
AcDbLine
370
9
 62
0
 48
0
  6
_SOLID
 10
0.5961974022
 20
1.9992067046
 30
0
 11
0.6016757158
 21
1.9992067046
 31
0
  0
LINE
  5
362
100
AcDbEntity
  8
SEMA2D
100
AcDbLine
370
9
 62
0
 48
0
  6
_SOLID
 10
0.5961974022
 20
2.002972567
 30
0
 11
0.6016757158
 21
2.002972567
 31
0
  0
ARC
  5
363
100
AcDbEntity
  8
SEMA2D
100
AcDbCircle
370
9
 62
0
 48
0
  6
_SOLID
 10
0.5989365697
 20
2.0759900415
 30
0
 40
0.0677023486
100
AcDbArc
 50
258.327843317222
 51
281.672156810859
  0
CIRCLE
  5
364
100
AcDbEntity
  8
SEMA2D
100
AcDbCircle
370
9
 62
0
 48
0
  6
_SOLID
 10
0.5989365589
 20
2.3389519464
 30
0
 40
0.003
  0
CIRCLE
  5
365
100
AcDbEntity
  8
SEMA2D
100
AcDbCircle
370
9
 62
0
 48
0
  6
_SOLID
 10
0.5989365589
 20
2.3389519464
 30
0
 40
0.004
  0
CIRCLE
  5
366
100
AcDbEntity
  8
SEMA2D
100
AcDbCircle
370
9
 62
0
 48
0
  6
_SOLID
 10
0.5989365589
 20
2.3389519464
 30
0
 40
0.005
  0
CIRCLE
  5
367
100
AcDbEntity
  8
SEMA2D
100
AcDbCircle
370
9
 62
0
 48
0
  6
_SOLID
 10
0.5989365589
 20
2.3389519464
 30
0
 40
0.008
  0
CIRCLE
  5
368
100
AcDbEntity
  8
SEMA2D
100
AcDbCircle
370
9
 62
0
 48
0
  6
_SOLID
 10
0.598936559
 20
2.4890019464
 30
0
 40
0.005
  0
CIRCLE
  5
369
100
AcDbEntity
  8
SEMA2D
100
AcDbCircle
370
9
 62
0
 48
0
  6
_SOLID
 10
0.598936559
 20
2.4890019464
 30
0
 40
0.006
  0
LINE
  5
36A
100
AcDbEntity
  8
SEMA2D
100
AcDbLine
370
9
 62
0
 48
0
  6
_SOLID
 10
0.7395900029
 20
2.4890019464
 30
0
 11
0.7395900029
 21
2.5290019464
 31
0
  0
MTEXT
  5
36B
100
AcDbEntity
  8
SEMATEXT
100
AcDbMText
370
9
 62
0
 10
0.734690425067038
 20
2.50627995871502
 30
0
 40
0.008
  1
{\fArial Narrow;4}
 50
90
 41
0
  7
STANDARD
 71
7
  0
LINE
  5
36F
100
AcDbEntity
  8
SEMA2D
100
AcDbLine
370
9
 62
0
 48
0
  6
_SOLID
 10
0.7395900029
 20
2.4890019464
 30
0
 11
0.7325900029
 21
2.4890019464
 31
0
  0
LINE
  5
370
100
AcDbEntity
  8
SEMA2D
100
AcDbLine
370
9
 62
0
 48
0
  6
_SOLID
 10
0.7395900029
 20
2.4890019464
 30
0
 11
0.7465900029
 21
2.4890019464
 31
0
  0
LINE
  5
371
100
AcDbEntity
  8
SEMA2D
100
AcDbLine
370
9
 62
0
 48
0
  6
_SOLID
 10
0.7395900029
 20
2.4890019464
 30
0
 11
0.7360900029
 21
2.49506412422649
 31
0
  0
LINE
  5
372
100
AcDbEntity
  8
SEMA2D
100
AcDbLine
370
9
 62
0
 48
0
  6
_SOLID
 10
0.7395900029
 20
2.4890019464
 30
0
 11
0.7430900029
 21
2.48293976857351
 31
0
  0
LINE
  5
373
100
AcDbEntity
  8
SEMA2D
100
AcDbLine
370
9
 62
0
 48
0
  6
_DOT
 10
0.6895900029
 20
2.4890019464
 30
0
 11
0.7395900029
 21
2.4890019464
 31
0
  0
LINE
  5
374
100
AcDbEntity
  8
SEMA2D
100
AcDbLine
370
9
 62
0
 48
0
  6
_SOLID
 10
0.7395900029
 20
2.5290019464
 30
0
 11
0.7325900029
 21
2.5290019464
 31
0
  0
LINE
  5
375
100
AcDbEntity
  8
SEMA2D
100
AcDbLine
370
9
 62
0
 48
0
  6
_SOLID
 10
0.7395900029
 20
2.5290019464
 30
0
 11
0.7465900029
 21
2.5290019464
 31
0
  0
LINE
  5
376
100
AcDbEntity
  8
SEMA2D
100
AcDbLine
370
9
 62
0
 48
0
  6
_SOLID
 10
0.7395900029
 20
2.5290019464
 30
0
 11
0.7360900029
 21
2.53506412422649
 31
0
  0
LINE
  5
377
100
AcDbEntity
  8
SEMA2D
100
AcDbLine
370
9
 62
0
 48
0
  6
_SOLID
 10
0.7395900029
 20
2.5290019464
 30
0
 11
0.7430900029
 21
2.52293976857351
 31
0
  0
LINE
  5
378
100
AcDbEntity
  8
SEMA2D
100
AcDbLine
370
9
 62
0
 48
0
  6
_DOT
 10
0.6895900029
 20
2.5290019464
 30
0
 11
0.7395900029
 21
2.5290019464
 31
0
  0
LINE
  5
379
100
AcDbEntity
  8
SEMA2D
100
AcDbLine
370
9
 62
0
 48
0
  6
_SOLID
 10
0.4473040361
 20
2.3389519464
 30
0
 11
0.4473040361
 21
2.5290019464
 31
0
  0
MTEXT
  5
37A
100
AcDbEntity
  8
SEMATEXT
100
AcDbMText
370
9
 62
0
 10
0.442404458267038
 20
2.42853297103004
 30
0
 40
0.008
  1
{\fArial Narrow;19}
 50
90
 41
0
  7
STANDARD
 71
7
  0
LINE
  5
37E
100
AcDbEntity
  8
SEMA2D
100
AcDbLine
370
9
 62
0
 48
0
  6
_SOLID
 10
0.4473040361
 20
2.3389519464
 30
0
 11
0.4403040361
 21
2.3389519464
 31
0
  0
LINE
  5
37F
100
AcDbEntity
  8
SEMA2D
100
AcDbLine
370
9
 62
0
 48
0
  6
_SOLID
 10
0.4473040361
 20
2.3389519464
 30
0
 11
0.4543040361
 21
2.3389519464
 31
0
  0
LINE
  5
380
100
AcDbEntity
  8
SEMA2D
100
AcDbLine
370
9
 62
0
 48
0
  6
_SOLID
 10
0.4473040361
 20
2.3389519464
 30
0
 11
0.4438040361
 21
2.34501412422649
 31
0
  0
LINE
  5
381
100
AcDbEntity
  8
SEMA2D
100
AcDbLine
370
9
 62
0
 48
0
  6
_SOLID
 10
0.4473040361
 20
2.3389519464
 30
0
 11
0.4508040361
 21
2.33288976857351
 31
0
  0
LINE
  5
382
100
AcDbEntity
  8
SEMA2D
100
AcDbLine
370
9
 62
0
 48
0
  6
_DOT
 10
0.4973040361
 20
2.3389519464
 30
0
 11
0.4473040361
 21
2.3389519464
 31
0
  0
LINE
  5
383
100
AcDbEntity
  8
SEMA2D
100
AcDbLine
370
9
 62
0
 48
0
  6
_SOLID
 10
0.4473040361
 20
2.5290019464
 30
0
 11
0.4403040361
 21
2.5290019464
 31
0
  0
LINE
  5
384
100
AcDbEntity
  8
SEMA2D
100
AcDbLine
370
9
 62
0
 48
0
  6
_SOLID
 10
0.4473040361
 20
2.5290019464
 30
0
 11
0.4543040361
 21
2.5290019464
 31
0
  0
LINE
  5
385
100
AcDbEntity
  8
SEMA2D
100
AcDbLine
370
9
 62
0
 48
0
  6
_SOLID
 10
0.4473040361
 20
2.5290019464
 30
0
 11
0.4438040361
 21
2.53506412422649
 31
0
  0
LINE
  5
386
100
AcDbEntity
  8
SEMA2D
100
AcDbLine
370
9
 62
0
 48
0
  6
_SOLID
 10
0.4473040361
 20
2.5290019464
 30
0
 11
0.4508040361
 21
2.52293976857351
 31
0
  0
LINE
  5
387
100
AcDbEntity
  8
SEMA2D
100
AcDbLine
370
9
 62
0
 48
0
  6
_DOT
 10
0.4973040361
 20
2.5290019464
 30
0
 11
0.4473040361
 21
2.5290019464
 31
0
  0
LINE
  5
388
100
AcDbEntity
  8
SEMA2D
100
AcDbLine
370
9
 62
0
 48
0
  6
_DOT
 10
0.1817095561
 20
2.5780019464
 30
0
 11
0.1817095561
 21
2.2297042374
 31
0
  0
LINE
  5
389
100
AcDbEntity
  8
SEMA2D
100
AcDbLine
370
9
 62
0
 48
0
  6
_SOLID
 10
0.2958645561
 20
2.4487299845
 30
0
 11
0.2958645561
 21
2.5280019464
 31
0
  0
MTEXT
  5
38A
100
AcDbEntity
  8
SEMATEXT
100
AcDbMText
370
9
 62
0
 10
0.290964978267038
 20
2.48292199008004
 30
0
 40
0.008
  1
{\fArial Narrow;79}
 50
90
 41
0
  7
STANDARD
 71
7
  0
LINE
  5
38E
100
AcDbEntity
  8
SEMA2D
100
AcDbLine
370
9
 62
0
 48
0
  6
_SOLID
 10
0.2958645561
 20
2.4487299845
 30
0
 11
0.2888645561
 21
2.4487299845
 31
0
  0
LINE
  5
38F
100
AcDbEntity
  8
SEMA2D
100
AcDbLine
370
9
 62
0
 48
0
  6
_SOLID
 10
0.2958645561
 20
2.4487299845
 30
0
 11
0.3028645561
 21
2.4487299845
 31
0
  0
LINE
  5
390
100
AcDbEntity
  8
SEMA2D
100
AcDbLine
370
9
 62
0
 48
0
  6
_SOLID
 10
0.2958645561
 20
2.4487299845
 30
0
 11
0.2923645561
 21
2.45479216232649
 31
0
  0
LINE
  5
391
100
AcDbEntity
  8
SEMA2D
100
AcDbLine
370
9
 62
0
 48
0
  6
_SOLID
 10
0.2958645561
 20
2.4487299845
 30
0
 11
0.2993645561
 21
2.44266780667351
 31
0
  0
LINE
  5
392
100
AcDbEntity
  8
SEMA2D
100
AcDbLine
370
9
 62
0
 48
0
  6
_DOT
 10
0.2458645561
 20
2.4487299845
 30
0
 11
0.2958645561
 21
2.4487299845
 31
0
  0
LINE
  5
393
100
AcDbEntity
  8
SEMA2D
100
AcDbLine
370
9
 62
0
 48
0
  6
_SOLID
 10
0.2958645561
 20
2.5280019464
 30
0
 11
0.2888645561
 21
2.5280019464
 31
0
  0
LINE
  5
394
100
AcDbEntity
  8
SEMA2D
100
AcDbLine
370
9
 62
0
 48
0
  6
_SOLID
 10
0.2958645561
 20
2.5280019464
 30
0
 11
0.3028645561
 21
2.5280019464
 31
0
  0
LINE
  5
395
100
AcDbEntity
  8
SEMA2D
100
AcDbLine
370
9
 62
0
 48
0
  6
_SOLID
 10
0.2958645561
 20
2.5280019464
 30
0
 11
0.2923645561
 21
2.53406412422649
 31
0
  0
LINE
  5
396
100
AcDbEntity
  8
SEMA2D
100
AcDbLine
370
9
 62
0
 48
0
  6
_SOLID
 10
0.2958645561
 20
2.5280019464
 30
0
 11
0.2993645561
 21
2.52193976857351
 31
0
  0
LINE
  5
397
100
AcDbEntity
  8
SEMA2D
100
AcDbLine
370
9
 62
0
 48
0
  6
_DOT
 10
0.2458645561
 20
2.5280019464
 30
0
 11
0.2958645561
 21
2.5280019464
 31
0
  0
LINE
  5
398
100
AcDbEntity
  8
SEMA2D
100
AcDbLine
370
9
 62
0
 48
0
  6
_SOLID
 10
0.3258645561
 20
2.3560019464
 30
0
 11
0.3258645561
 21
2.5280019464
 31
0
  0
MTEXT
  5
399
100
AcDbEntity
  8
SEMATEXT
100
AcDbMText
370
9
 62
0
 10
0.320964978267038
 20
2.43383598334506
 30
0
 40
0.008
  1
{\fArial Narrow;172}
 50
90
 41
0
  7
STANDARD
 71
7
  0
LINE
  5
39D
100
AcDbEntity
  8
SEMA2D
100
AcDbLine
370
9
 62
0
 48
0
  6
_SOLID
 10
0.3258645561
 20
2.3560019464
 30
0
 11
0.3188645561
 21
2.3560019464
 31
0
  0
LINE
  5
39E
100
AcDbEntity
  8
SEMA2D
100
AcDbLine
370
9
 62
0
 48
0
  6
_SOLID
 10
0.3258645561
 20
2.3560019464
 30
0
 11
0.3328645561
 21
2.3560019464
 31
0
  0
LINE
  5
39F
100
AcDbEntity
  8
SEMA2D
100
AcDbLine
370
9
 62
0
 48
0
  6
_SOLID
 10
0.3258645561
 20
2.3560019464
 30
0
 11
0.3223645561
 21
2.36206412422649
 31
0
  0
LINE
  5
3A0
100
AcDbEntity
  8
SEMA2D
100
AcDbLine
370
9
 62
0
 48
0
  6
_SOLID
 10
0.3258645561
 20
2.3560019464
 30
0
 11
0.3293645561
 21
2.34993976857351
 31
0
  0
LINE
  5
3A1
100
AcDbEntity
  8
SEMA2D
100
AcDbLine
370
9
 62
0
 48
0
  6
_DOT
 10
0.2708645561
 20
2.3560019464
 30
0
 11
0.3258645561
 21
2.3560019464
 31
0
  0
LINE
  5
3A2
100
AcDbEntity
  8
SEMA2D
100
AcDbLine
370
9
 62
0
 48
0
  6
_SOLID
 10
0.3258645561
 20
2.5280019464
 30
0
 11
0.3188645561
 21
2.5280019464
 31
0
  0
LINE
  5
3A3
100
AcDbEntity
  8
SEMA2D
100
AcDbLine
370
9
 62
0
 48
0
  6
_SOLID
 10
0.3258645561
 20
2.5280019464
 30
0
 11
0.3328645561
 21
2.5280019464
 31
0
  0
LINE
  5
3A4
100
AcDbEntity
  8
SEMA2D
100
AcDbLine
370
9
 62
0
 48
0
  6
_SOLID
 10
0.3258645561
 20
2.5280019464
 30
0
 11
0.3223645561
 21
2.53406412422649
 31
0
  0
LINE
  5
3A5
100
AcDbEntity
  8
SEMA2D
100
AcDbLine
370
9
 62
0
 48
0
  6
_SOLID
 10
0.3258645561
 20
2.5280019464
 30
0
 11
0.3293645561
 21
2.52193976857351
 31
0
  0
LINE
  5
3A6
100
AcDbEntity
  8
SEMA2D
100
AcDbLine
370
9
 62
0
 48
0
  6
_DOT
 10
0.2708645561
 20
2.5280019464
 30
0
 11
0.3258645561
 21
2.5280019464
 31
0
  0
LINE
  5
3A7
100
AcDbEntity
  8
SEMA2D
100
AcDbLine
370
9
 62
0
 48
0
  6
_SOLID
 10
0.3558645561
 20
2.2360019464
 30
0
 11
0.3558645561
 21
2.5280019464
 31
0
  0
MTEXT
  5
3A8
100
AcDbEntity
  8
SEMATEXT
100
AcDbMText
370
9
 62
0
 10
0.350964978267038
 20
2.37383598334506
 30
0
 40
0.008
  1
{\fArial Narrow;292}
 50
90
 41
0
  7
STANDARD
 71
7
  0
LINE
  5
3AC
100
AcDbEntity
  8
SEMA2D
100
AcDbLine
370
9
 62
0
 48
0
  6
_SOLID
 10
0.3558645561
 20
2.2360019464
 30
0
 11
0.3488645561
 21
2.2360019464
 31
0
  0
LINE
  5
3AD
100
AcDbEntity
  8
SEMA2D
100
AcDbLine
370
9
 62
0
 48
0
  6
_SOLID
 10
0.3558645561
 20
2.2360019464
 30
0
 11
0.3628645561
 21
2.2360019464
 31
0
  0
LINE
  5
3AE
100
AcDbEntity
  8
SEMA2D
100
AcDbLine
370
9
 62
0
 48
0
  6
_SOLID
 10
0.3558645561
 20
2.2360019464
 30
0
 11
0.3523645561
 21
2.24206412422649
 31
0
  0
LINE
  5
3AF
100
AcDbEntity
  8
SEMA2D
100
AcDbLine
370
9
 62
0
 48
0
  6
_SOLID
 10
0.3558645561
 20
2.2360019464
 30
0
 11
0.3593645561
 21
2.22993976857351
 31
0
  0
LINE
  5
3B0
100
AcDbEntity
  8
SEMA2D
100
AcDbLine
370
9
 62
0
 48
0
  6
_DOT
 10
0.2708645561
 20
2.2360019464
 30
0
 11
0.3558645561
 21
2.2360019464
 31
0
  0
LINE
  5
3B1
100
AcDbEntity
  8
SEMA2D
100
AcDbLine
370
9
 62
0
 48
0
  6
_SOLID
 10
0.3558645561
 20
2.5280019464
 30
0
 11
0.3488645561
 21
2.5280019464
 31
0
  0
LINE
  5
3B2
100
AcDbEntity
  8
SEMA2D
100
AcDbLine
370
9
 62
0
 48
0
  6
_SOLID
 10
0.3558645561
 20
2.5280019464
 30
0
 11
0.3628645561
 21
2.5280019464
 31
0
  0
LINE
  5
3B3
100
AcDbEntity
  8
SEMA2D
100
AcDbLine
370
9
 62
0
 48
0
  6
_SOLID
 10
0.3558645561
 20
2.5280019464
 30
0
 11
0.3523645561
 21
2.53406412422649
 31
0
  0
LINE
  5
3B4
100
AcDbEntity
  8
SEMA2D
100
AcDbLine
370
9
 62
0
 48
0
  6
_SOLID
 10
0.3558645561
 20
2.5280019464
 30
0
 11
0.3593645561
 21
2.52193976857351
 31
0
  0
LINE
  5
3B5
100
AcDbEntity
  8
SEMA2D
100
AcDbLine
370
9
 62
0
 48
0
  6
_DOT
 10
0.2708645561
 20
2.5280019464
 30
0
 11
0.3558645561
 21
2.5280019464
 31
0
  0
LINE
  5
3B6
100
AcDbEntity
  8
SEMA2D
100
AcDbLine
370
9
 62
0
 48
0
  6
_SOLID
 10
0.4473040361
 20
2.6061761798
 30
0
 11
0.4473040361
 21
2.6703311908
 31
0
  0
MTEXT
  5
3B7
100
AcDbEntity
  8
SEMATEXT
100
AcDbMText
370
9
 62
0
 10
0.442404458267038
 20
2.63280970993004
 30
0
 40
0.008
  1
{\fArial Narrow;64}
 50
90
 41
0
  7
STANDARD
 71
7
  0
LINE
  5
3BB
100
AcDbEntity
  8
SEMA2D
100
AcDbLine
370
9
 62
0
 48
0
  6
_SOLID
 10
0.4473040361
 20
2.6061761798
 30
0
 11
0.4403040361
 21
2.6061761798
 31
0
  0
LINE
  5
3BC
100
AcDbEntity
  8
SEMA2D
100
AcDbLine
370
9
 62
0
 48
0
  6
_SOLID
 10
0.4473040361
 20
2.6061761798
 30
0
 11
0.4543040361
 21
2.6061761798
 31
0
  0
LINE
  5
3BD
100
AcDbEntity
  8
SEMA2D
100
AcDbLine
370
9
 62
0
 48
0
  6
_SOLID
 10
0.4473040361
 20
2.6061761798
 30
0
 11
0.4438040361
 21
2.61223835762649
 31
0
  0
LINE
  5
3BE
100
AcDbEntity
  8
SEMA2D
100
AcDbLine
370
9
 62
0
 48
0
  6
_SOLID
 10
0.4473040361
 20
2.6061761798
 30
0
 11
0.4508040361
 21
2.60011400197351
 31
0
  0
LINE
  5
3BF
100
AcDbEntity
  8
SEMA2D
100
AcDbLine
370
9
 62
0
 48
0
  6
_DOT
 10
0.4863249572
 20
2.6061761798
 30
0
 11
0.4473040361
 21
2.6061761798
 31
0
  0
LINE
  5
3C0
100
AcDbEntity
  8
SEMA2D
100
AcDbLine
370
9
 62
0
 48
0
  6
_SOLID
 10
0.4473040361
 20
2.6703311908
 30
0
 11
0.4403040361
 21
2.6703311908
 31
0
  0
LINE
  5
3C1
100
AcDbEntity
  8
SEMA2D
100
AcDbLine
370
9
 62
0
 48
0
  6
_SOLID
 10
0.4473040361
 20
2.6703311908
 30
0
 11
0.4543040361
 21
2.6703311908
 31
0
  0
LINE
  5
3C2
100
AcDbEntity
  8
SEMA2D
100
AcDbLine
370
9
 62
0
 48
0
  6
_SOLID
 10
0.4473040361
 20
2.6703311908
 30
0
 11
0.4438040361
 21
2.67639336862649
 31
0
  0
LINE
  5
3C3
100
AcDbEntity
  8
SEMA2D
100
AcDbLine
370
9
 62
0
 48
0
  6
_SOLID
 10
0.4473040361
 20
2.6703311908
 30
0
 11
0.4508040361
 21
2.66426901297351
 31
0
  0
LINE
  5
3C4
100
AcDbEntity
  8
SEMA2D
100
AcDbLine
370
9
 62
0
 48
0
  6
_DOT
 10
0.4863249572
 20
2.6703311908
 30
0
 11
0.4473040361
 21
2.6703311908
 31
0
  0
LINE
  5
3C5
100
AcDbEntity
  8
SEMA2D
100
AcDbLine
370
9
 62
0
 48
0
  6
_SOLID
 10
0.4473040361
 20
1.9731413454
 30
0
 11
0.4473040361
 21
2.0738426374
 31
0
  0
MTEXT
  5
3C6
100
AcDbEntity
  8
SEMATEXT
100
AcDbMText
370
9
 62
0
 10
0.442404458267038
 20
2.01532602834506
 30
0
 40
0.008
  1
{\fArial Narrow;101}
 50
90
 41
0
  7
STANDARD
 71
7
  0
LINE
  5
3CA
100
AcDbEntity
  8
SEMA2D
100
AcDbLine
370
9
 62
0
 48
0
  6
_SOLID
 10
0.4473040361
 20
1.9731413454
 30
0
 11
0.4403040361
 21
1.9731413454
 31
0
  0
LINE
  5
3CB
100
AcDbEntity
  8
SEMA2D
100
AcDbLine
370
9
 62
0
 48
0
  6
_SOLID
 10
0.4473040361
 20
1.9731413454
 30
0
 11
0.4543040361
 21
1.9731413454
 31
0
  0
LINE
  5
3CC
100
AcDbEntity
  8
SEMA2D
100
AcDbLine
370
9
 62
0
 48
0
  6
_SOLID
 10
0.4473040361
 20
1.9731413454
 30
0
 11
0.4438040361
 21
1.97920352322649
 31
0
  0
LINE
  5
3CD
100
AcDbEntity
  8
SEMA2D
100
AcDbLine
370
9
 62
0
 48
0
  6
_SOLID
 10
0.4473040361
 20
1.9731413454
 30
0
 11
0.4508040361
 21
1.96707916757351
 31
0
  0
LINE
  5
3CE
100
AcDbEntity
  8
SEMA2D
100
AcDbLine
370
9
 62
0
 48
0
  6
_DOT
 10
0.4863249572
 20
1.9731413454
 30
0
 11
0.4473040361
 21
1.9731413454
 31
0
  0
LINE
  5
3CF
100
AcDbEntity
  8
SEMA2D
100
AcDbLine
370
9
 62
0
 48
0
  6
_SOLID
 10
0.4473040361
 20
2.0738426374
 30
0
 11
0.4403040361
 21
2.0738426374
 31
0
  0
LINE
  5
3D0
100
AcDbEntity
  8
SEMA2D
100
AcDbLine
370
9
 62
0
 48
0
  6
_SOLID
 10
0.4473040361
 20
2.0738426374
 30
0
 11
0.4543040361
 21
2.0738426374
 31
0
  0
LINE
  5
3D1
100
AcDbEntity
  8
SEMA2D
100
AcDbLine
370
9
 62
0
 48
0
  6
_SOLID
 10
0.4473040361
 20
2.0738426374
 30
0
 11
0.4438040361
 21
2.07990481522649
 31
0
  0
LINE
  5
3D2
100
AcDbEntity
  8
SEMA2D
100
AcDbLine
370
9
 62
0
 48
0
  6
_SOLID
 10
0.4473040361
 20
2.0738426374
 30
0
 11
0.4508040361
 21
2.06778045957351
 31
0
  0
LINE
  5
3D3
100
AcDbEntity
  8
SEMA2D
100
AcDbLine
370
9
 62
0
 48
0
  6
_DOT
 10
0.4863249572
 20
2.0738426374
 30
0
 11
0.4473040361
 21
2.0738426374
 31
0
  0
LINE
  5
3D4
100
AcDbEntity
  8
SEMA2D
100
AcDbLine
370
9
 62
1
 48
0
  6
_SOLID
 10
0.7645900029
 20
2.4690019464
 30
0
 11
0.7645900029
 21
2.5290019464
 31
0
  0
MTEXT
  5
3D5
100
AcDbEntity
  8
SEMATEXT
100
AcDbMText
370
9
 62
1
 10
0.759690425067038
 20
2.49627995871502
 30
0
 40
0.008
  1
{\fArial Narrow;6}
 50
90
 41
0
  7
STANDARD
 71
7
  0
LINE
  5
3D9
100
AcDbEntity
  8
SEMA2D
100
AcDbLine
370
9
 62
1
 48
0
  6
_SOLID
 10
0.7645900029
 20
2.4690019464
 30
0
 11
0.7575900029
 21
2.4690019464
 31
0
  0
LINE
  5
3DA
100
AcDbEntity
  8
SEMA2D
100
AcDbLine
370
9
 62
1
 48
0
  6
_SOLID
 10
0.7645900029
 20
2.4690019464
 30
0
 11
0.7715900029
 21
2.4690019464
 31
0
  0
LINE
  5
3DB
100
AcDbEntity
  8
SEMA2D
100
AcDbLine
370
9
 62
1
 48
0
  6
_SOLID
 10
0.7645900029
 20
2.4690019464
 30
0
 11
0.7610900029
 21
2.47506412422649
 31
0
  0
LINE
  5
3DC
100
AcDbEntity
  8
SEMA2D
100
AcDbLine
370
9
 62
1
 48
0
  6
_SOLID
 10
0.7645900029
 20
2.4690019464
 30
0
 11
0.7680900029
 21
2.46293976857351
 31
0
  0
LINE
  5
3DD
100
AcDbEntity
  8
SEMA2D
100
AcDbLine
370
9
 62
1
 48
0
  6
_DOT
 10
0.7395900029
 20
2.4690019464
 30
0
 11
0.7645900029
 21
2.4690019464
 31
0
  0
LINE
  5
3DE
100
AcDbEntity
  8
SEMA2D
100
AcDbLine
370
9
 62
1
 48
0
  6
_SOLID
 10
0.7645900029
 20
2.5290019464
 30
0
 11
0.7575900029
 21
2.5290019464
 31
0
  0
LINE
  5
3DF
100
AcDbEntity
  8
SEMA2D
100
AcDbLine
370
9
 62
1
 48
0
  6
_SOLID
 10
0.7645900029
 20
2.5290019464
 30
0
 11
0.7715900029
 21
2.5290019464
 31
0
  0
LINE
  5
3E0
100
AcDbEntity
  8
SEMA2D
100
AcDbLine
370
9
 62
1
 48
0
  6
_SOLID
 10
0.7645900029
 20
2.5290019464
 30
0
 11
0.7610900029
 21
2.53506412422649
 31
0
  0
LINE
  5
3E1
100
AcDbEntity
  8
SEMA2D
100
AcDbLine
370
9
 62
1
 48
0
  6
_SOLID
 10
0.7645900029
 20
2.5290019464
 30
0
 11
0.7680900029
 21
2.52293976857351
 31
0
  0
LINE
  5
3E2
100
AcDbEntity
  8
SEMA2D
100
AcDbLine
370
9
 62
1
 48
0
  6
_DOT
 10
0.7395900029
 20
2.5290019464
 30
0
 11
0.7645900029
 21
2.5290019464
 31
0
  0
LINE
  5
3E3
100
AcDbEntity
  8
SEMA2D
100
AcDbLine
370
9
 62
0
 48
0
  6
_SOLID
 10
0.526596289919132
 20
2.5811761912
 30
0
 11
0.671276843519132
 21
2.5811762324
 31
0
  0
MTEXT
  5
3E4
100
AcDbEntity
  8
SEMATEXT
100
AcDbMText
370
9
 62
0
 10
0.592131596111456
 20
2.58607578769514
 30
0
 40
0.008
  1
{\fArial Narrow;145}
 50
1.63158492796356E-5
 41
0
  7
STANDARD
 71
7
  0
LINE
  5
3E8
100
AcDbEntity
  8
SEMA2D
100
AcDbLine
370
9
 62
0
 48
0
  6
_SOLID
 10
0.526596289919132
 20
2.5811761912
 30
0
 11
0.526596287925775
 21
2.5881761912
 31
0
  0
LINE
  5
3E9
100
AcDbEntity
  8
SEMA2D
100
AcDbLine
370
9
 62
0
 48
0
  6
_SOLID
 10
0.526596289919132
 20
2.5811761912
 30
0
 11
0.526596291912489
 21
2.5741761912
 31
0
  0
LINE
  5
3EA
100
AcDbEntity
  8
SEMA2D
100
AcDbLine
370
9
 62
0
 48
0
  6
_SOLID
 10
0.526596289919132
 20
2.5811761912
 30
0
 11
0.532658466748945
 21
2.5846761929263
 31
0
  0
LINE
  5
3EB
100
AcDbEntity
  8
SEMA2D
100
AcDbLine
370
9
 62
0
 48
0
  6
_SOLID
 10
0.526596289919132
 20
2.5811761912
 30
0
 11
0.52053411308932
 21
2.5776761894737
 31
0
  0
LINE
  5
3EC
100
AcDbEntity
  8
SEMA2D
100
AcDbLine
370
9
 62
0
 48
0
  6
_DOT
 10
0.5265962828
 20
2.6061761912
 30
0
 11
0.526596289919132
 21
2.5811761912
 31
0
  0
LINE
  5
3ED
100
AcDbEntity
  8
SEMA2D
100
AcDbLine
370
9
 62
0
 48
0
  6
_SOLID
 10
0.671276843519132
 20
2.5811762324
 30
0
 11
0.671276841525775
 21
2.5881762324
 31
0
  0
LINE
  5
3EE
100
AcDbEntity
  8
SEMA2D
100
AcDbLine
370
9
 62
0
 48
0
  6
_SOLID
 10
0.671276843519132
 20
2.5811762324
 30
0
 11
0.671276845512489
 21
2.5741762324
 31
0
  0
LINE
  5
3EF
100
AcDbEntity
  8
SEMA2D
100
AcDbLine
370
9
 62
0
 48
0
  6
_SOLID
 10
0.671276843519132
 20
2.5811762324
 30
0
 11
0.677339020348945
 21
2.5846762341263
 31
0
  0
LINE
  5
3F0
100
AcDbEntity
  8
SEMA2D
100
AcDbLine
370
9
 62
0
 48
0
  6
_SOLID
 10
0.671276843519132
 20
2.5811762324
 30
0
 11
0.66521466668932
 21
2.5776762306737
 31
0
  0
LINE
  5
3F1
100
AcDbEntity
  8
SEMA2D
100
AcDbLine
370
9
 62
0
 48
0
  6
_DOT
 10
0.6712768364
 20
2.6061762324
 30
0
 11
0.671276843519132
 21
2.5811762324
 31
0
  0
MTEXT
  5
3F2
100
AcDbEntity
  8
SEMATEXT
100
AcDbMText
370
9
 62
1
 10
0.7585900029
 20
2.4043019464
 30
0
 40
0.008
  1
{\fArial Narrow;Überdeckung}
 50
90
 41
0
  7
STANDARD
 71
7
  0
LINE
  5
3F6
100
AcDbEntity
  8
SEMA2D
100
AcDbLine
370
9
 62
5
 48
0
  6
_SOLID
 10
0.4758814924
 20
1.9533769941
 30
0
 11
0.5409838575
 21
1.9884058591
 31
0
  0
LINE
  5
3F7
100
AcDbEntity
  8
SEMA2D
100
AcDbLine
370
9
 62
5
 48
0
  6
_SOLID
 10
0.4758814924
 20
1.9533769941
 30
0
 11
0.4610959057
 21
1.9533769941
 31
0
  0
MTEXT
  5
3F8
100
AcDbEntity
  8
SEMATEXT
100
AcDbMText
370
9
 62
5
 10
0.383065592063942
 20
1.9533769941
 30
0
 40
0.008
  1
{\fArial Narrow;Bogenmass 335 mm}
 50
0
 41
0
  7
STANDARD
 71
7
  0
LINE
  5
3FC
100
AcDbEntity
  8
SEMA2D
100
AcDbLine
370
9
 62
92
 48
0
  6
_SOLID
 10
0.7283199322
 20
1.9817858676
 30
0
 11
0.6632175671
 21
2.0168147326
 31
0
  0
LINE
  5
3FD
100
AcDbEntity
  8
SEMA2D
100
AcDbLine
370
9
 62
92
 48
0
  6
_SOLID
 10
0.7283199322
 20
1.9817858676
 30
0
 11
0.7431055189
 21
1.9817858676
 31
0
  0
MTEXT
  5
3FE
100
AcDbEntity
  8
SEMATEXT
100
AcDbMText
370
9
 62
92
 10
0.7431055189
 20
1.9817858676
 30
0
 40
0.008
  1
{\fArial Narrow;Bogenmass 283 mm}
 50
0
 41
0
  7
STANDARD
 71
7
  0
LINE
  5
402
100
AcDbEntity
  8
SEMA2D
100
AcDbLine
370
9
 62
5
 48
0
  6
_SOLID
 10
0.4674671175
 20
2.7012320139
 30
0
 11
0.5325694826
 21
2.6662031489
 31
0
  0
LINE
  5
403
100
AcDbEntity
  8
SEMA2D
100
AcDbLine
370
9
 62
5
 48
0
  6
_SOLID
 10
0.4674671175
 20
2.7012320139
 30
0
 11
0.4526815308
 21
2.7012320139
 31
0
  0
MTEXT
  5
404
100
AcDbEntity
  8
SEMATEXT
100
AcDbMText
370
9
 62
5
 10
0.374651217163942
 20
2.7012320138992
 30
0
 40
0.008
  1
{\fArial Narrow;Bogenmass 273 mm}
 50
5.84807924308706E-10
 41
0
  7
STANDARD
 71
7
  0
LINE
  5
408
100
AcDbEntity
  8
SEMA2D
100
AcDbLine
370
9
 62
92
 48
0
  6
_SOLID
 10
0.6933036382
 20
2.7012320139
 30
0
 11
0.6282012731
 21
2.6662031489
 31
0
  0
LINE
  5
409
100
AcDbEntity
  8
SEMA2D
100
AcDbLine
370
9
 62
92
 48
0
  6
_SOLID
 10
0.6933036382
 20
2.7012320139
 30
0
 11
0.7080892249
 21
2.7012320139
 31
0
  0
MTEXT
  5
40A
100
AcDbEntity
  8
SEMATEXT
100
AcDbMText
370
9
 62
92
 10
0.7080892249
 20
2.7012320139
 30
0
 40
0.008
  1
{\fArial Narrow;Bogenmass 220 mm}
 50
5.84807924308706E-10
 41
0
  7
STANDARD
 71
7
  0
LINE
  5
40E
100
AcDbEntity
  8
SEMA2D
100
AcDbLine
370
9
 62
0
 48
0
  6
_SOLID
 10
0.505936551916667
 20
2.0988427233
 30
0
 11
0.691936554716667
 21
2.098842776
 31
0
  0
MTEXT
  5
40F
100
AcDbEntity
  8
SEMATEXT
100
AcDbMText
370
9
 62
0
 10
0.592131582716006
 20
2.10374232555489
 30
0
 40
0.008
  1
{\fArial Narrow;186}
 50
1.62338037625887E-5
 41
0
  7
STANDARD
 71
7
  0
LINE
  5
413
100
AcDbEntity
  8
SEMA2D
100
AcDbLine
370
9
 62
0
 48
0
  6
_SOLID
 10
0.505936551916667
 20
2.0988427233
 30
0
 11
0.505936549933333
 21
2.1058427233
 31
0
  0
LINE
  5
414
100
AcDbEntity
  8
SEMA2D
100
AcDbLine
370
9
 62
0
 48
0
  6
_SOLID
 10
0.505936551916667
 20
2.0988427233
 30
0
 11
0.5059365539
 21
2.0918427233
 31
0
  0
LINE
  5
415
100
AcDbEntity
  8
SEMA2D
100
AcDbLine
370
9
 62
0
 48
0
  6
_SOLID
 10
0.505936551916667
 20
2.0988427233
 30
0
 11
0.511998728751491
 21
2.10234272501762
 31
0
  0
LINE
  5
416
100
AcDbEntity
  8
SEMA2D
100
AcDbLine
370
9
 62
0
 48
0
  6
_SOLID
 10
0.505936551916667
 20
2.0988427233
 30
0
 11
0.499874375081843
 21
2.09534272158238
 31
0
  0
LINE
  5
417
100
AcDbEntity
  8
SEMA2D
100
AcDbLine
370
9
 62
0
 48
0
  6
_DOT
 10
0.505936559
 20
2.0738427233
 30
0
 11
0.505936551916667
 21
2.0988427233
 31
0
  0
LINE
  5
418
100
AcDbEntity
  8
SEMA2D
100
AcDbLine
370
9
 62
0
 48
0
  6
_SOLID
 10
0.691936554716667
 20
2.098842776
 30
0
 11
0.691936552733333
 21
2.105842776
 31
0
  0
LINE
  5
419
100
AcDbEntity
  8
SEMA2D
100
AcDbLine
370
9
 62
0
 48
0
  6
_SOLID
 10
0.691936554716667
 20
2.098842776
 30
0
 11
0.6919365567
 21
2.091842776
 31
0
  0
LINE
  5
41A
100
AcDbEntity
  8
SEMA2D
100
AcDbLine
370
9
 62
0
 48
0
  6
_SOLID
 10
0.691936554716667
 20
2.098842776
 30
0
 11
0.697998731551491
 21
2.10234277771762
 31
0
  0
LINE
  5
41B
100
AcDbEntity
  8
SEMA2D
100
AcDbLine
370
9
 62
0
 48
0
  6
_SOLID
 10
0.691936554716667
 20
2.098842776
 30
0
 11
0.685874377881843
 21
2.09534277428238
 31
0
  0
LINE
  5
41C
100
AcDbEntity
  8
SEMA2D
100
AcDbLine
370
9
 62
0
 48
0
  6
_DOT
 10
0.6919365618
 20
2.073842776
 30
0
 11
0.691936554716667
 21
2.098842776
 31
0
  0
VIEWPORT
  5
434
100
AcDbEntity
 67
1
  8
0
100
AcDbViewport
370
-1
 48
0
 10
0
 20
0
 30
0
 40
-2E20
 41
-2E20
 68
1
 69
1
 12
0
 22
0
 32
0
 16
0
 26
0
 36
1
 17
0
 27
0
 37
0
 42
50
 43
0
 44
0
 45
-2E20
 51
0
 90
32800
340
0
  0
ENDSEC
  0
SECTION
  2
OBJECTS
  0
DICTIONARY
  5
435
100
AcDbDictionary
  3
ACAD_GROUP
350
436
  3
ACAD_MATERIAL
350
437
  3
ACAD_WIPEOUT_VARS
350
438
  3
ACAD_MLINESTYLE
350
439
  3
ACAD_LAYOUT
350
43A
  0
DICTIONARY
  5
436
100
AcDbDictionary
  0
DICTIONARY
  5
437
100
AcDbDictionary
  0
WIPEOUTVARIABLES
  5
438
100
AcDbWipeoutVariables
 70
1
  0
DICTIONARY
  5
439
100
AcDbDictionary
  3
STANDARD
350
43B
  0
MLINESTYLE
  5
43B
100
AcDbMlineStyle
  2
STANDARD
 70
0
  3

 62
256
 51
90
 52
90
 71
2
 49
0.5
 62
256
  6
ByLayer
 49
-0.5
 62
256
  6
ByLayer
  0
DICTIONARY
  5
43A
100
AcDbDictionary
  3
Model
350
41D
  3
Layout1
350
41E
  0
LAYOUT
  5
41D
100
AcDbPlotSettings
100
AcDbLayout
  1
Model
 70
1
 71
1
 10
0.139168477473509
 20
1.9161413454
 11
0.827166808289997
 21
2.76997829151911
 12
0
 22
0
 32
0
 14
0.139168477473509
 24
1.9161413454
 34
0
 15
0.827166808289997
 25
2.76997829151911
 35
0
146
0
 13
0
 23
0
 33
0
 16
1
 26
0
 36
0
 17
0
 27
1
 37
0
 76
0
330
422
  0
LAYOUT
  5
41E
100
AcDbPlotSettings
100
AcDbLayout
  1
Layout1
 70
1
 71
2
 10
1E20
 20
1E20
 11
-1E20
 21
-1E20
 12
0
 22
0
 32
0
 14
1E20
 24
1E20
 34
1E20
 15
-1E20
 25
-1E20
 35
-1E20
146
0
 13
0
 23
0
 33
0
 16
1
 26
0
 36
0
 17
0
 27
1
 37
0
 76
0
330
423
  0
ENDSEC
  0
EOF
