999
Created by Soft Gold Ltd. www.cadsofttools.com
999

  0
SECTION
  2
HEADER
  9
$ACADVER
  1
AC1015
  9
$CLAYER
  8
0
  9
$CELTYPE
  6
BYLAYER
  9
$CELTSCALE
 40
1
  9
$CELWEIGHT
370
-1
  9
$DIMSTYLE
  2
STANDARD
  9
$DIMALT
 70
0
  9
$DIMALTF
 40
1
  9
$DIMAPOST
  1

  9
$DIMASZ
 40
0.18
  9
$DIMCLRD
 70
0
  9
$DIMCLRE
 70
0
  9
$DIMCLRT
 70
0
  9
$DIMEXE
 40
0.18
  9
$DIMEXO
 40
0.0625
  9
$DIMGAP
 40
0.0625
  9
$DIMLFAC
 40
1
  9
$DIMDEC
 70
4
  9
$DIMTAD
 70
0
  9
$DIMTIH
 70
1
  9
$DIMTIX
 70
0
  9
$DIMTOH
 70
1
  9
$DIMPOST
  1

  9
$DIMBLK
  1
_CLOSEDFILLED
  9
$DIMBLK1
  1

  9
$DIMBLK2
  1

  9
$DIMLDRBLK
  1

  9
$DIMTXT
 40
0.18
  9
$DIMTXSTY
  7
STANDARD
  9
$TEXTSIZE
 40
0.18
  9
$TEXTSTYLE
  7
STANDARD
  9
$HANDSEED
  5
00000000000004C3
  9
$FILLETRAD
 40
0.5
  9
$INSUNITS
 70
4
  9
$LIMMIN
 10
1.04274872786777
 20
1.72596895030372
  9
$LIMMAX
 10
1.91591429323283
 20
2.88650133034048
  9
$LTSCALE
 40
1
  9
$MEASUREMENT
 70
0
  9
$PDMODE
 70
0
  9
$PDSIZE
 40
0
  9
$TILEMODE
 70
1
  9
$UCSORG
 10
0
 20
0
 30
0
  9
$UCSXDIR
 10
1
 20
0
 30
0
  9
$UCSYDIR
 10
0
 20
1
 30
0
  0
ENDSEC
  0
SECTION
  2
CLASSES
  0
CLASS
  1
IMAGE
  2
AcDbRasterImage
  3
ISM
 90
2175
280
0
281
1
  0
CLASS
  1
IMAGEDEF
  2
AcDbRasterImageDef
  3
ISM
 90
0
280
0
281
0
  0
CLASS
  1
WIPEOUT
  2
AcDbWipeout
  3
"WipeOut"
 90
2175
280
0
281
1
  0
CLASS
  1
WIPEOUTVARIABLES
  2
AcDbWipeoutVariables
  3
"WipeOut"
 90
0
280
0
281
0
  0
CLASS
  1
MPOLYGON
  2
AcDbMPolygon
  3
"AcMPolygonObj15"
 90
3071
280
0
281
1
  0
ENDSEC
  0
SECTION
  2
TABLES
  0
TABLE
  2
APPID
  5
4A5
100
AcDbSymbolTable
  0
APPID
  5
4A6
100
AcDbSymbolTableRecord
100
AcDbRegAppTableRecord
  2
ACAD
 70
0
  0
ENDTAB
  0
TABLE
  2
BLOCK_RECORD
  5
4A7
100
AcDbSymbolTable
  0
BLOCK_RECORD
  5
4A8
100
AcDbSymbolTableRecord
100
AcDbBlockTableRecord
  2
*MODEL_SPACE
  0
BLOCK_RECORD
  5
4A9
100
AcDbSymbolTableRecord
100
AcDbBlockTableRecord
  2
*PAPER_SPACE
  0
ENDTAB
  0
TABLE
  2
STYLE
  5
4AA
100
AcDbSymbolTable
  0
STYLE
  5
29E
100
AcDbSymbolTableRecord
100
AcDbTextStyleTableRecord
  2
STANDARD
 70
0
 40
0
 41
1
 50
0
 71
0
 42
2.5
  3
txt
  4

  0
ENDTAB
  0
TABLE
  2
LTYPE
  5
4AB
100
AcDbSymbolTable
  0
LTYPE
  5
1
100
AcDbSymbolTableRecord
100
AcDbLinetypeTableRecord
  2
_SOLID
 70
0
  3
_.
 72
65
 73
2
 40
5
 49
5
 74
0
 49
0
 74
0
  0
LTYPE
  5
2
100
AcDbSymbolTableRecord
100
AcDbLinetypeTableRecord
  2
_DASH
 70
0
  3
_ 
 72
65
 73
2
 40
7
 49
5
 74
0
 49
-2
 74
0
  0
LTYPE
  5
3
100
AcDbSymbolTableRecord
100
AcDbLinetypeTableRecord
  2
_DOT
 70
0
  3
_ 
 72
65
 73
2
 40
4
 49
2
 74
0
 49
-2
 74
0
  0
LTYPE
  5
4
100
AcDbSymbolTableRecord
100
AcDbLinetypeTableRecord
  2
_DASHDOT
 70
0
  3
_ _ 
 72
65
 73
4
 40
11
 49
5
 74
0
 49
-2
 74
0
 49
2
 74
0
 49
-2
 74
0
  0
LTYPE
  5
5
100
AcDbSymbolTableRecord
100
AcDbLinetypeTableRecord
  2
_DASHDOTDOT
 70
0
  3
_ _ _ 
 72
65
 73
6
 40
15
 49
5
 74
0
 49
-2
 74
0
 49
2
 74
0
 49
-2
 74
0
 49
2
 74
0
 49
-2
 74
0
  0
LTYPE
  5
6
100
AcDbSymbolTableRecord
100
AcDbLinetypeTableRecord
  2
ISO128-20-02
 70
0
  3
_ 
 72
65
 73
2
 40
15
 49
12
 74
0
 49
-3
 74
0
  0
LTYPE
  5
7
100
AcDbSymbolTableRecord
100
AcDbLinetypeTableRecord
  2
ISO128-20-03
 70
0
  3
_ 
 72
65
 73
2
 40
30
 49
12
 74
0
 49
-18
 74
0
  0
LTYPE
  5
8
100
AcDbSymbolTableRecord
100
AcDbLinetypeTableRecord
  2
ISO128-20-04
 70
0
  3
_ . 
 72
65
 73
4
 40
30
 49
24
 74
0
 49
-3
 74
0
 49
0
 74
0
 49
-3
 74
0
  0
LTYPE
  5
9
100
AcDbSymbolTableRecord
100
AcDbLinetypeTableRecord
  2
ISO128-20-05
 70
0
  3
_ . . 
 72
65
 73
6
 40
33
 49
24
 74
0
 49
-3
 74
0
 49
0
 74
0
 49
-3
 74
0
 49
0
 74
0
 49
-3
 74
0
  0
LTYPE
  5
A
100
AcDbSymbolTableRecord
100
AcDbLinetypeTableRecord
  2
ISO128-20-06
 70
0
  3
_ . . . 
 72
65
 73
8
 40
36
 49
24
 74
0
 49
-3
 74
0
 49
0
 74
0
 49
-3
 74
0
 49
0
 74
0
 49
-3
 74
0
 49
0
 74
0
 49
-3
 74
0
  0
LTYPE
  5
B
100
AcDbSymbolTableRecord
100
AcDbLinetypeTableRecord
  2
ISO128-20-07
 70
0
  3
. 
 72
65
 73
2
 40
3
 49
0
 74
0
 49
-3
 74
0
  0
LTYPE
  5
C
100
AcDbSymbolTableRecord
100
AcDbLinetypeTableRecord
  2
ISO128-20-08
 70
0
  3
_ _ 
 72
65
 73
4
 40
36
 49
24
 74
0
 49
-3
 74
0
 49
6
 74
0
 49
-3
 74
0
  0
LTYPE
  5
D
100
AcDbSymbolTableRecord
100
AcDbLinetypeTableRecord
  2
ISO128-20-09
 70
0
  3
_ _ _ 
 72
65
 73
6
 40
45
 49
24
 74
0
 49
-3
 74
0
 49
6
 74
0
 49
-3
 74
0
 49
6
 74
0
 49
-3
 74
0
  0
LTYPE
  5
E
100
AcDbSymbolTableRecord
100
AcDbLinetypeTableRecord
  2
ISO128-20-10
 70
0
  3
_ . 
 72
65
 73
4
 40
18
 49
12
 74
0
 49
-3
 74
0
 49
0
 74
0
 49
-3
 74
0
  0
LTYPE
  5
F
100
AcDbSymbolTableRecord
100
AcDbLinetypeTableRecord
  2
ISO128-20-11
 70
0
  3
_ _ . 
 72
65
 73
6
 40
33
 49
12
 74
0
 49
-3
 74
0
 49
12
 74
0
 49
-3
 74
0
 49
0
 74
0
 49
-3
 74
0
  0
LTYPE
  5
10
100
AcDbSymbolTableRecord
100
AcDbLinetypeTableRecord
  2
ISO128-20-12
 70
0
  3
_ . . 
 72
65
 73
6
 40
21
 49
12
 74
0
 49
-3
 74
0
 49
0
 74
0
 49
-3
 74
0
 49
0
 74
0
 49
-3
 74
0
  0
LTYPE
  5
11
100
AcDbSymbolTableRecord
100
AcDbLinetypeTableRecord
  2
ISO128-20-13
 70
0
  3
_ _ . . 
 72
65
 73
8
 40
36
 49
12
 74
0
 49
-3
 74
0
 49
12
 74
0
 49
-3
 74
0
 49
0
 74
0
 49
-3
 74
0
 49
0
 74
0
 49
-3
 74
0
  0
LTYPE
  5
12
100
AcDbSymbolTableRecord
100
AcDbLinetypeTableRecord
  2
ISO128-20-14
 70
0
  3
_ . . . 
 72
65
 73
8
 40
24
 49
12
 74
0
 49
-3
 74
0
 49
0
 74
0
 49
-3
 74
0
 49
0
 74
0
 49
-3
 74
0
 49
0
 74
0
 49
-3
 74
0
  0
LTYPE
  5
13
100
AcDbSymbolTableRecord
100
AcDbLinetypeTableRecord
  2
ISO128-20-15
 70
0
  3
_ _ . . . 
 72
65
 73
10
 40
39
 49
12
 74
0
 49
-3
 74
0
 49
12
 74
0
 49
-3
 74
0
 49
0
 74
0
 49
-3
 74
0
 49
0
 74
0
 49
-3
 74
0
 49
0
 74
0
 49
-3
 74
0
  0
LTYPE
  5
4AC
100
AcDbSymbolTableRecord
100
AcDbLinetypeTableRecord
  2
ByBlock
 70
0
  3

 72
65
 73
0
 40
0
  0
LTYPE
  5
4AD
100
AcDbSymbolTableRecord
100
AcDbLinetypeTableRecord
  2
ByLayer
 70
0
  3

 72
65
 73
0
 40
0
  0
ENDTAB
  0
TABLE
  2
LAYER
  5
4AE
100
AcDbSymbolTable
  0
LAYER
  5
4AF
100
AcDbSymbolTableRecord
100
AcDbLayerTableRecord
  2
0
 70
0
 62
7
  6
CONTINUOUS
370
-3
390
0
  0
LAYER
  5
14
100
AcDbSymbolTableRecord
100
AcDbLayerTableRecord
  2
SEMA2D
 70
0
 62
7
290
1
370
-3
390
0
  0
LAYER
  5
29C
100
AcDbSymbolTableRecord
100
AcDbLayerTableRecord
  2
SEMATEXT
 70
0
 62
7
290
1
370
-3
390
0
  0
ENDTAB
  0
TABLE
  2
VPORT
  5
4B0
100
AcDbSymbolTable
  0
VPORT
  5
4B1
100
AcDbSymbolTableRecord
100
AcDbViewportTableRecord
  2
*ACTIVE
 70
0
 10
0
 20
0
 11
1
 21
1
 12
1.4793315105503
 22
2.3062351403221
 32
0
 13
0
 23
0
 14
1
 24
1
 15
1
 25
1
 16
0
 26
0
 36
1
 17
0
 27
0
 37
0
 40
0.928425904029411
 41
0.752383630465701
 42
50
 43
0
 44
0
 50
0
 51
0
 71
0
 72
100
 73
1
 74
1
 75
0
 76
0
 77
0
 78
0
  0
ENDTAB
  0
TABLE
  2
VIEW
  5
4B2
100
AcDbSymbolTable
  0
ENDTAB
  0
TABLE
  2
UCS
  5
4B3
100
AcDbSymbolTable
  0
ENDTAB
  0
TABLE
  2
DIMSTYLE
  5
4B4
100
AcDbSymbolTable
 70
1
100
AcDbDimStyleTable
 71
0
  0
DIMSTYLE
105
4B5
100
AcDbSymbolTableRecord
100
AcDbDimStyleTableRecord
  2
STANDARD
 70
0
340
0
  0
ENDTAB
  0
ENDSEC
  0
SECTION
  2
BLOCKS
  0
BLOCK
  5
4B6
100
AcDbEntity
  8
0
100
AcDbBlockBegin
  2
*MODEL_SPACE
 70
0
 10
0
 20
0
  0
ENDBLK
  5
4B7
100
AcDbEntity
  8
0
100
AcDbBlockEnd
  0
BLOCK
  5
4B8
100
AcDbEntity
  8
0
100
AcDbBlockBegin
  2
*PAPER_SPACE
 70
0
 10
0
 20
0
  0
ENDBLK
  5
4B9
100
AcDbEntity
  8
0
100
AcDbBlockEnd
  0
ENDSEC
  0
SECTION
  2
ENTITIES
  0
LINE
  5
15
100
AcDbEntity
  8
SEMA2D
100
AcDbLine
370
9
 62
0
 48
0
  6
_SOLID
 10
1.583936559
 20
2.4700019464
 30
0
 11
1.583936559
 21
2.4680019464
 31
0
  0
LINE
  5
17
100
AcDbEntity
  8
SEMA2D
100
AcDbLine
370
9
 62
0
 48
0
  6
_SOLID
 10
1.583936559
 20
2.4680019464
 30
0
 11
1.613936559
 21
2.4680019464
 31
0
  0
LINE
  5
18
100
AcDbEntity
  8
SEMA2D
100
AcDbLine
370
9
 62
0
 48
0
  6
_SOLID
 10
1.613936559
 20
2.4680019464
 30
0
 11
1.613936559
 21
2.4700019464
 31
0
  0
LINE
  5
19
100
AcDbEntity
  8
SEMA2D
100
AcDbLine
370
9
 62
0
 48
0
  6
_SOLID
 10
1.613936559
 20
2.4700019464
 30
0
 11
1.583936559
 21
2.4700019464
 31
0
  0
LINE
  5
1A
100
AcDbEntity
  8
SEMA2D
100
AcDbLine
370
9
 62
0
 48
0
  6
_SOLID
 10
1.583936559
 20
2.4700019464
 30
0
 11
1.583936559
 21
2.4680019464
 31
0
  0
LINE
  5
1B
100
AcDbEntity
  8
SEMA2D
100
AcDbLine
370
9
 62
0
 48
0
  6
_SOLID
 10
1.583936559
 20
2.4680019464
 30
0
 11
1.613936559
 21
2.4680019464
 31
0
  0
LINE
  5
1C
100
AcDbEntity
  8
SEMA2D
100
AcDbLine
370
9
 62
0
 48
0
  6
_SOLID
 10
1.613936559
 20
2.4680019464
 30
0
 11
1.613936559
 21
2.4700019464
 31
0
  0
LINE
  5
1D
100
AcDbEntity
  8
SEMA2D
100
AcDbLine
370
9
 62
0
 48
0
  6
_SOLID
 10
1.613936559
 20
2.4700019464
 30
0
 11
1.583936559
 21
2.4700019464
 31
0
  0
LINE
  5
1E
100
AcDbEntity
  8
SEMA2D
100
AcDbLine
370
9
 62
0
 48
0
  6
_SOLID
 10
1.583936559
 20
2.4700019464
 30
0
 11
1.583936559
 21
2.4680019464
 31
0
  0
LINE
  5
1F
100
AcDbEntity
  8
SEMA2D
100
AcDbLine
370
9
 62
0
 48
0
  6
_SOLID
 10
1.583936559
 20
2.4680019464
 30
0
 11
1.613936559
 21
2.4680019464
 31
0
  0
LINE
  5
20
100
AcDbEntity
  8
SEMA2D
100
AcDbLine
370
9
 62
0
 48
0
  6
_SOLID
 10
1.613936559
 20
2.4680019464
 30
0
 11
1.613936559
 21
2.4700019464
 31
0
  0
LINE
  5
21
100
AcDbEntity
  8
SEMA2D
100
AcDbLine
370
9
 62
0
 48
0
  6
_SOLID
 10
1.613936559
 20
2.4700019464
 30
0
 11
1.583936559
 21
2.4700019464
 31
0
  0
LINE
  5
22
100
AcDbEntity
  8
SEMA2D
100
AcDbLine
370
9
 62
0
 48
0
  6
_SOLID
 10
1.5961974022
 20
1.9271587743
 30
0
 11
1.58056745756875
 21
1.92853968546719
 31
0
  0
LINE
  5
23
100
AcDbEntity
  8
SEMA2D
100
AcDbLine
370
9
 62
0
 48
0
  6
_SOLID
 10
1.58056745756875
 20
1.92853968546719
 30
0
 11
1.565533469725
 21
1.9325993958875
 31
0
  0
LINE
  5
24
100
AcDbEntity
  8
SEMA2D
100
AcDbLine
370
9
 62
0
 48
0
  6
_SOLID
 10
1.565533469725
 20
1.9325993958875
 30
0
 11
1.55143533604375
 21
1.93921337093906
 31
0
  0
LINE
  5
25
100
AcDbEntity
  8
SEMA2D
100
AcDbLine
370
9
 62
0
 48
0
  6
_SOLID
 10
1.55143533604375
 20
1.93921337093906
 30
0
 11
1.5386129539
 21
1.948257076
 31
0
  0
LINE
  5
26
100
AcDbEntity
  8
SEMA2D
100
AcDbLine
370
9
 62
0
 48
0
  6
_SOLID
 10
1.5386129539
 20
1.948257076
 30
0
 11
1.52757860481094
 21
1.9594043348125
 31
0
  0
LINE
  5
27
100
AcDbEntity
  8
SEMA2D
100
AcDbLine
370
9
 62
0
 48
0
  6
_SOLID
 10
1.52757860481094
 20
1.9594043348125
 30
0
 11
1.5187280757875
 21
1.9722101557
 31
0
  0
LINE
  5
28
100
AcDbEntity
  8
SEMA2D
100
AcDbLine
370
9
 62
0
 48
0
  6
_SOLID
 10
1.5187280757875
 20
1.9722101557
 30
0
 11
1.51224015069531
 21
1.9863602460625
 31
0
  0
LINE
  5
29
100
AcDbEntity
  8
SEMA2D
100
AcDbLine
370
9
 62
0
 48
0
  6
_SOLID
 10
1.51224015069531
 20
1.9863602460625
 30
0
 11
1.5082936134
 21
2.0015403133
 31
0
  0
LINE
  5
2A
100
AcDbEntity
  8
SEMA2D
100
AcDbLine
370
9
 62
0
 48
0
  6
_SOLID
 10
1.5082936134
 20
2.0015403133
 30
0
 11
1.508283115
 21
2.0015637912
 31
0
  0
LINE
  5
2B
100
AcDbEntity
  8
SEMA2D
100
AcDbLine
370
9
 62
0
 48
0
  6
_SOLID
 10
1.508283115
 20
2.0015637912
 30
0
 11
1.508283115
 21
2.0052026919
 31
0
  0
LINE
  5
2C
100
AcDbEntity
  8
SEMA2D
100
AcDbLine
370
9
 62
0
 48
0
  6
_SOLID
 10
1.508283115
 20
2.0052026919
 30
0
 11
1.5099394837
 21
2.0052026919
 31
0
  0
LINE
  5
2D
100
AcDbEntity
  8
SEMA2D
100
AcDbLine
370
9
 62
0
 48
0
  6
_SOLID
 10
1.5099394837
 20
2.0052026919
 30
0
 11
1.5099394837
 21
2.0068426446
 31
0
  0
LINE
  5
2E
100
AcDbEntity
  8
SEMA2D
100
AcDbLine
370
9
 62
0
 48
0
  6
_SOLID
 10
1.5099394837
 20
2.0068426446
 30
0
 11
1.5102074329
 21
2.0078426446
 31
0
  0
LINE
  5
2F
100
AcDbEntity
  8
SEMA2D
100
AcDbLine
370
9
 62
0
 48
0
  6
_SOLID
 10
1.5102074329
 20
2.0078426446
 30
0
 11
1.5109394837
 21
2.0085746954
 31
0
  0
LINE
  5
30
100
AcDbEntity
  8
SEMA2D
100
AcDbLine
370
9
 62
0
 48
0
  6
_SOLID
 10
1.5109394837
 20
2.0085746954
 30
0
 11
1.5119394837
 21
2.0088426985
 31
0
  0
LINE
  5
31
100
AcDbEntity
  8
SEMA2D
100
AcDbLine
370
9
 62
0
 48
0
  6
_SOLID
 10
1.5119394837
 20
2.0088426985
 30
0
 11
1.4905151644
 21
2.0088426924
 31
0
  0
LINE
  5
32
100
AcDbEntity
  8
SEMA2D
100
AcDbLine
370
9
 62
0
 48
0
  6
_SOLID
 10
1.4905151644
 20
2.0088426924
 30
0
 11
1.4892815538
 21
2.008416924
 31
0
  0
LINE
  5
33
100
AcDbEntity
  8
SEMA2D
100
AcDbLine
370
9
 62
0
 48
0
  6
_SOLID
 10
1.4892815538
 20
2.008416924
 30
0
 11
1.4885731757
 21
2.0073208974
 31
0
  0
LINE
  5
34
100
AcDbEntity
  8
SEMA2D
100
AcDbLine
370
9
 62
0
 48
0
  6
_SOLID
 10
1.4885731757
 20
2.0073208974
 30
0
 11
1.4880519743
 21
2.0052043002
 31
0
  0
LINE
  5
35
100
AcDbEntity
  8
SEMA2D
100
AcDbLine
370
9
 62
0
 48
0
  6
_SOLID
 10
1.4880519743
 20
2.0052043002
 30
0
 11
1.4863249572
 21
2.0052026919
 31
0
  0
LINE
  5
36
100
AcDbEntity
  8
SEMA2D
100
AcDbLine
370
9
 62
0
 48
0
  6
_SOLID
 10
1.4863249572
 20
2.0052026919
 30
0
 11
1.4863249572
 21
2.0015626919
 31
0
  0
LINE
  5
37
100
AcDbEntity
  8
SEMA2D
100
AcDbLine
370
9
 62
0
 48
0
  6
_SOLID
 10
1.4863249572
 20
2.0015626919
 30
0
 11
1.4873119558
 21
2.0015603126
 31
0
  0
LINE
  5
38
100
AcDbEntity
  8
SEMA2D
100
AcDbLine
370
9
 62
0
 48
0
  6
_SOLID
 10
1.4873119558
 20
2.0015603126
 30
0
 11
1.49226297962031
 21
1.98231102775937
 31
0
  0
LINE
  5
39
100
AcDbEntity
  8
SEMA2D
100
AcDbLine
370
9
 62
0
 48
0
  6
_SOLID
 10
1.49226297962031
 20
1.98231102775937
 30
0
 11
1.5004780429375
 21
1.964381350575
 31
0
  0
LINE
  5
3A
100
AcDbEntity
  8
SEMA2D
100
AcDbLine
370
9
 62
0
 48
0
  6
_SOLID
 10
1.5004780429375
 20
1.964381350575
 30
0
 11
1.51172413741094
 21
1.94817993247813
 31
0
  0
LINE
  5
3B
100
AcDbEntity
  8
SEMA2D
100
AcDbLine
370
9
 62
0
 48
0
  6
_SOLID
 10
1.51172413741094
 20
1.94817993247813
 30
0
 11
1.5257682547
 21
1.9341154249
 31
0
  0
LINE
  5
3C
100
AcDbEntity
  8
SEMA2D
100
AcDbLine
370
9
 62
0
 48
0
  6
_SOLID
 10
1.5257682547
 20
1.9341154249
 30
0
 11
1.540876369525
 21
1.9234688792
 31
0
  0
LINE
  5
3D
100
AcDbEntity
  8
SEMA2D
100
AcDbLine
370
9
 62
0
 48
0
  6
_SOLID
 10
1.540876369525
 20
1.9234688792
 30
0
 11
1.5574026871
 21
1.9155168813
 31
0
  0
LINE
  5
3E
100
AcDbEntity
  8
SEMA2D
100
AcDbLine
370
9
 62
0
 48
0
  6
_SOLID
 10
1.5574026871
 20
1.9155168813
 30
0
 11
1.5777348629125
 21
1.90986085565
 31
0
  0
LINE
  5
3F
100
AcDbEntity
  8
SEMA2D
100
AcDbLine
370
9
 62
0
 48
0
  6
_SOLID
 10
1.5777348629125
 20
1.90986085565
 30
0
 11
1.5989327749
 21
1.9081413454
 31
0
  0
LINE
  5
40
100
AcDbEntity
  8
SEMA2D
100
AcDbLine
370
9
 62
0
 48
0
  6
_SOLID
 10
1.5989327749
 20
1.9081413454
 30
0
 11
1.6138583358375
 21
1.90890663329219
 31
0
  0
LINE
  5
41
100
AcDbEntity
  8
SEMA2D
100
AcDbLine
370
9
 62
0
 48
0
  6
_SOLID
 10
1.6138583358375
 20
1.90890663329219
 30
0
 11
1.628440007675
 21
1.9116376313125
 31
0
  0
LINE
  5
42
100
AcDbEntity
  8
SEMA2D
100
AcDbLine
370
9
 62
0
 48
0
  6
_SOLID
 10
1.628440007675
 20
1.9116376313125
 30
0
 11
1.64248984675
 21
1.91626776390156
 31
0
  0
LINE
  5
43
100
AcDbEntity
  8
SEMA2D
100
AcDbLine
370
9
 62
0
 48
0
  6
_SOLID
 10
1.64248984675
 20
1.91626776390156
 30
0
 11
1.6558199094
 21
1.9227304555
 31
0
  0
LINE
  5
44
100
AcDbEntity
  8
SEMA2D
100
AcDbLine
370
9
 62
0
 48
0
  6
_SOLID
 10
1.6558199094
 20
1.9227304555
 30
0
 11
1.6721360377
 21
1.9340722462
 31
0
  0
LINE
  5
45
100
AcDbEntity
  8
SEMA2D
100
AcDbLine
370
9
 62
0
 48
0
  6
_SOLID
 10
1.6721360377
 20
1.9340722462
 30
0
 11
1.6882826199
 21
1.950739236
 31
0
  0
LINE
  5
46
100
AcDbEntity
  8
SEMA2D
100
AcDbLine
370
9
 62
0
 48
0
  6
_SOLID
 10
1.6882826199
 20
1.950739236
 30
0
 11
1.69619717495156
 21
1.96225170448906
 31
0
  0
LINE
  5
47
100
AcDbEntity
  8
SEMA2D
100
AcDbLine
370
9
 62
0
 48
0
  6
_SOLID
 10
1.69619717495156
 20
1.96225170448906
 30
0
 11
1.7026037045625
 21
1.9746564193375
 31
0
  0
LINE
  5
48
100
AcDbEntity
  8
SEMA2D
100
AcDbLine
370
9
 62
0
 48
0
  6
_SOLID
 10
1.7026037045625
 20
1.9746564193375
 30
0
 11
1.70741932736719
 21
1.98780781166719
 31
0
  0
LINE
  5
49
100
AcDbEntity
  8
SEMA2D
100
AcDbLine
370
9
 62
0
 48
0
  6
_SOLID
 10
1.70741932736719
 20
1.98780781166719
 30
0
 11
1.710561162
 21
2.0015603126
 31
0
  0
LINE
  5
4A
100
AcDbEntity
  8
SEMA2D
100
AcDbLine
370
9
 62
0
 48
0
  6
_SOLID
 10
1.710561162
 20
2.0015603126
 30
0
 11
1.7115481607
 21
2.0015626919
 31
0
  0
LINE
  5
4B
100
AcDbEntity
  8
SEMA2D
100
AcDbLine
370
9
 62
0
 48
0
  6
_SOLID
 10
1.7115481607
 20
2.0015626919
 30
0
 11
1.7115481607
 21
2.0052026919
 31
0
  0
LINE
  5
4C
100
AcDbEntity
  8
SEMA2D
100
AcDbLine
370
9
 62
0
 48
0
  6
_SOLID
 10
1.7115481607
 20
2.0052026919
 30
0
 11
1.7098211436
 21
2.0052043002
 31
0
  0
LINE
  5
4D
100
AcDbEntity
  8
SEMA2D
100
AcDbLine
370
9
 62
0
 48
0
  6
_SOLID
 10
1.7098211436
 20
2.0052043002
 30
0
 11
1.7092999423
 21
2.0073208973
 31
0
  0
LINE
  5
4E
100
AcDbEntity
  8
SEMA2D
100
AcDbLine
370
9
 62
0
 48
0
  6
_SOLID
 10
1.7092999423
 20
2.0073208973
 30
0
 11
1.7085915642
 21
2.008416924
 31
0
  0
LINE
  5
4F
100
AcDbEntity
  8
SEMA2D
100
AcDbLine
370
9
 62
0
 48
0
  6
_SOLID
 10
1.7085915642
 20
2.008416924
 30
0
 11
1.7073580068
 21
2.0088426507
 31
0
  0
LINE
  5
50
100
AcDbEntity
  8
SEMA2D
100
AcDbLine
370
9
 62
0
 48
0
  6
_SOLID
 10
1.7073580068
 20
2.0088426507
 30
0
 11
1.6859462513
 21
2.0088426446
 31
0
  0
LINE
  5
51
100
AcDbEntity
  8
SEMA2D
100
AcDbLine
370
9
 62
0
 48
0
  6
_SOLID
 10
1.6859462513
 20
2.0088426446
 30
0
 11
1.6869462513
 21
2.0085746954
 31
0
  0
LINE
  5
52
100
AcDbEntity
  8
SEMA2D
100
AcDbLine
370
9
 62
0
 48
0
  6
_SOLID
 10
1.6869462513
 20
2.0085746954
 30
0
 11
1.6876783021
 21
2.0078426446
 31
0
  0
LINE
  5
53
100
AcDbEntity
  8
SEMA2D
100
AcDbLine
370
9
 62
0
 48
0
  6
_SOLID
 10
1.6876783021
 20
2.0078426446
 30
0
 11
1.6879462513
 21
2.0068426446
 31
0
  0
LINE
  5
54
100
AcDbEntity
  8
SEMA2D
100
AcDbLine
370
9
 62
0
 48
0
  6
_SOLID
 10
1.6879462513
 20
2.0068426446
 30
0
 11
1.6879462513
 21
2.0052026919
 31
0
  0
LINE
  5
55
100
AcDbEntity
  8
SEMA2D
100
AcDbLine
370
9
 62
0
 48
0
  6
_SOLID
 10
1.6879462513
 20
2.0052026919
 30
0
 11
1.6895834413
 21
2.0052026919
 31
0
  0
LINE
  5
56
100
AcDbEntity
  8
SEMA2D
100
AcDbLine
370
9
 62
0
 48
0
  6
_SOLID
 10
1.6895834413
 20
2.0052026919
 30
0
 11
1.6895834413
 21
2.0015637912
 31
0
  0
LINE
  5
57
100
AcDbEntity
  8
SEMA2D
100
AcDbLine
370
9
 62
0
 48
0
  6
_SOLID
 10
1.6895834413
 20
2.0015637912
 30
0
 11
1.6856388917375
 21
1.986376868725
 31
0
  0
LINE
  5
58
100
AcDbEntity
  8
SEMA2D
100
AcDbLine
370
9
 62
0
 48
0
  6
_SOLID
 10
1.6856388917375
 20
1.986376868725
 30
0
 11
1.67915083845
 21
1.972220343575
 31
0
  0
LINE
  5
59
100
AcDbEntity
  8
SEMA2D
100
AcDbLine
370
9
 62
0
 48
0
  6
_SOLID
 10
1.67915083845
 20
1.972220343575
 30
0
 11
1.6702982672875
 21
1.9594088634375
 31
0
  0
LINE
  5
5A
100
AcDbEntity
  8
SEMA2D
100
AcDbLine
370
9
 62
0
 48
0
  6
_SOLID
 10
1.6702982672875
 20
1.9594088634375
 30
0
 11
1.6592601641
 21
1.948257076
 31
0
  0
LINE
  5
5B
100
AcDbEntity
  8
SEMA2D
100
AcDbLine
370
9
 62
0
 48
0
  6
_SOLID
 10
1.6592601641
 20
1.948257076
 30
0
 11
1.64643778195625
 21
1.93921337093906
 31
0
  0
LINE
  5
5C
100
AcDbEntity
  8
SEMA2D
100
AcDbLine
370
9
 62
0
 48
0
  6
_SOLID
 10
1.64643778195625
 20
1.93921337093906
 30
0
 11
1.632339648275
 21
1.9325993958875
 31
0
  0
LINE
  5
5D
100
AcDbEntity
  8
SEMA2D
100
AcDbLine
370
9
 62
0
 48
0
  6
_SOLID
 10
1.632339648275
 20
1.9325993958875
 30
0
 11
1.61730566043125
 21
1.92853968546719
 31
0
  0
LINE
  5
5E
100
AcDbEntity
  8
SEMA2D
100
AcDbLine
370
9
 62
0
 48
0
  6
_SOLID
 10
1.61730566043125
 20
1.92853968546719
 30
0
 11
1.6016757158
 21
1.9271587743
 31
0
  0
LINE
  5
5F
100
AcDbEntity
  8
SEMA2D
100
AcDbLine
370
9
 62
0
 48
0
  6
_SOLID
 10
1.6016757158
 20
1.9271587743
 30
0
 11
1.5961974022
 21
1.9271587743
 31
0
  0
LINE
  5
60
100
AcDbEntity
  8
SEMA2D
100
AcDbLine
370
9
 62
0
 48
0
  6
_SOLID
 10
1.5961974022
 20
1.9271587743
 30
0
 11
1.5386129539
 21
1.948257076
 31
0
  0
LINE
  5
61
100
AcDbEntity
  8
SEMA2D
100
AcDbLine
370
9
 62
0
 48
0
  6
_SOLID
 10
1.5386129539
 20
1.948257076
 30
0
 11
1.5082936134
 21
2.0015403133
 31
0
  0
LINE
  5
62
100
AcDbEntity
  8
SEMA2D
100
AcDbLine
370
9
 62
0
 48
0
  6
_SOLID
 10
1.5082936134
 20
2.0015403133
 30
0
 11
1.508283115
 21
2.0015637912
 31
0
  0
LINE
  5
63
100
AcDbEntity
  8
SEMA2D
100
AcDbLine
370
9
 62
0
 48
0
  6
_SOLID
 10
1.508283115
 20
2.0015637912
 30
0
 11
1.508283115
 21
2.0052026919
 31
0
  0
LINE
  5
64
100
AcDbEntity
  8
SEMA2D
100
AcDbLine
370
9
 62
0
 48
0
  6
_SOLID
 10
1.508283115
 20
2.0052026919
 30
0
 11
1.5099394837
 21
2.0052026919
 31
0
  0
LINE
  5
65
100
AcDbEntity
  8
SEMA2D
100
AcDbLine
370
9
 62
0
 48
0
  6
_SOLID
 10
1.5099394837
 20
2.0052026919
 30
0
 11
1.5099394837
 21
2.0068426446
 31
0
  0
LINE
  5
66
100
AcDbEntity
  8
SEMA2D
100
AcDbLine
370
9
 62
0
 48
0
  6
_SOLID
 10
1.5099394837
 20
2.0068426446
 30
0
 11
1.5102074329
 21
2.0078426446
 31
0
  0
LINE
  5
67
100
AcDbEntity
  8
SEMA2D
100
AcDbLine
370
9
 62
0
 48
0
  6
_SOLID
 10
1.5102074329
 20
2.0078426446
 30
0
 11
1.5109394837
 21
2.0085746954
 31
0
  0
LINE
  5
68
100
AcDbEntity
  8
SEMA2D
100
AcDbLine
370
9
 62
0
 48
0
  6
_SOLID
 10
1.5109394837
 20
2.0085746954
 30
0
 11
1.5119394837
 21
2.0088426985
 31
0
  0
LINE
  5
69
100
AcDbEntity
  8
SEMA2D
100
AcDbLine
370
9
 62
0
 48
0
  6
_SOLID
 10
1.5119394837
 20
2.0088426985
 30
0
 11
1.4905151644
 21
2.0088426924
 31
0
  0
LINE
  5
6A
100
AcDbEntity
  8
SEMA2D
100
AcDbLine
370
9
 62
0
 48
0
  6
_SOLID
 10
1.4905151644
 20
2.0088426924
 30
0
 11
1.4892815538
 21
2.008416924
 31
0
  0
LINE
  5
6B
100
AcDbEntity
  8
SEMA2D
100
AcDbLine
370
9
 62
0
 48
0
  6
_SOLID
 10
1.4892815538
 20
2.008416924
 30
0
 11
1.4885731757
 21
2.0073208974
 31
0
  0
LINE
  5
6C
100
AcDbEntity
  8
SEMA2D
100
AcDbLine
370
9
 62
0
 48
0
  6
_SOLID
 10
1.4885731757
 20
2.0073208974
 30
0
 11
1.4880519743
 21
2.0052043002
 31
0
  0
LINE
  5
6D
100
AcDbEntity
  8
SEMA2D
100
AcDbLine
370
9
 62
0
 48
0
  6
_SOLID
 10
1.4880519743
 20
2.0052043002
 30
0
 11
1.4863249572
 21
2.0052026919
 31
0
  0
LINE
  5
6E
100
AcDbEntity
  8
SEMA2D
100
AcDbLine
370
9
 62
0
 48
0
  6
_SOLID
 10
1.4863249572
 20
2.0052026919
 30
0
 11
1.4863249572
 21
2.0015626919
 31
0
  0
LINE
  5
6F
100
AcDbEntity
  8
SEMA2D
100
AcDbLine
370
9
 62
0
 48
0
  6
_SOLID
 10
1.4863249572
 20
2.0015626919
 30
0
 11
1.4873119558
 21
2.0015603126
 31
0
  0
LINE
  5
70
100
AcDbEntity
  8
SEMA2D
100
AcDbLine
370
9
 62
0
 48
0
  6
_SOLID
 10
1.4873119558
 20
2.0015603126
 30
0
 11
1.5257682547
 21
1.9341154249
 31
0
  0
LINE
  5
71
100
AcDbEntity
  8
SEMA2D
100
AcDbLine
370
9
 62
0
 48
0
  6
_SOLID
 10
1.5257682547
 20
1.9341154249
 30
0
 11
1.5574026871
 21
1.9155168813
 31
0
  0
LINE
  5
72
100
AcDbEntity
  8
SEMA2D
100
AcDbLine
370
9
 62
0
 48
0
  6
_SOLID
 10
1.5574026871
 20
1.9155168813
 30
0
 11
1.5989327749
 21
1.9081413454
 31
0
  0
LINE
  5
73
100
AcDbEntity
  8
SEMA2D
100
AcDbLine
370
9
 62
0
 48
0
  6
_SOLID
 10
1.5989327749
 20
1.9081413454
 30
0
 11
1.6558199094
 21
1.9227304555
 31
0
  0
LINE
  5
74
100
AcDbEntity
  8
SEMA2D
100
AcDbLine
370
9
 62
0
 48
0
  6
_SOLID
 10
1.6558199094
 20
1.9227304555
 30
0
 11
1.6721360377
 21
1.9340722462
 31
0
  0
LINE
  5
75
100
AcDbEntity
  8
SEMA2D
100
AcDbLine
370
9
 62
0
 48
0
  6
_SOLID
 10
1.6721360377
 20
1.9340722462
 30
0
 11
1.6882826199
 21
1.950739236
 31
0
  0
LINE
  5
76
100
AcDbEntity
  8
SEMA2D
100
AcDbLine
370
9
 62
0
 48
0
  6
_SOLID
 10
1.6882826199
 20
1.950739236
 30
0
 11
1.710561162
 21
2.0015603126
 31
0
  0
LINE
  5
77
100
AcDbEntity
  8
SEMA2D
100
AcDbLine
370
9
 62
0
 48
0
  6
_SOLID
 10
1.710561162
 20
2.0015603126
 30
0
 11
1.7115481607
 21
2.0015626919
 31
0
  0
LINE
  5
78
100
AcDbEntity
  8
SEMA2D
100
AcDbLine
370
9
 62
0
 48
0
  6
_SOLID
 10
1.7115481607
 20
2.0015626919
 30
0
 11
1.7115481607
 21
2.0052026919
 31
0
  0
LINE
  5
79
100
AcDbEntity
  8
SEMA2D
100
AcDbLine
370
9
 62
0
 48
0
  6
_SOLID
 10
1.7115481607
 20
2.0052026919
 30
0
 11
1.7098211436
 21
2.0052043002
 31
0
  0
LINE
  5
7A
100
AcDbEntity
  8
SEMA2D
100
AcDbLine
370
9
 62
0
 48
0
  6
_SOLID
 10
1.7098211436
 20
2.0052043002
 30
0
 11
1.7092999423
 21
2.0073208973
 31
0
  0
LINE
  5
7B
100
AcDbEntity
  8
SEMA2D
100
AcDbLine
370
9
 62
0
 48
0
  6
_SOLID
 10
1.7092999423
 20
2.0073208973
 30
0
 11
1.7085915642
 21
2.008416924
 31
0
  0
LINE
  5
7C
100
AcDbEntity
  8
SEMA2D
100
AcDbLine
370
9
 62
0
 48
0
  6
_SOLID
 10
1.7085915642
 20
2.008416924
 30
0
 11
1.7073580068
 21
2.0088426507
 31
0
  0
LINE
  5
7D
100
AcDbEntity
  8
SEMA2D
100
AcDbLine
370
9
 62
0
 48
0
  6
_SOLID
 10
1.7073580068
 20
2.0088426507
 30
0
 11
1.6859462513
 21
2.0088426446
 31
0
  0
LINE
  5
7E
100
AcDbEntity
  8
SEMA2D
100
AcDbLine
370
9
 62
0
 48
0
  6
_SOLID
 10
1.6859462513
 20
2.0088426446
 30
0
 11
1.6869462513
 21
2.0085746954
 31
0
  0
LINE
  5
7F
100
AcDbEntity
  8
SEMA2D
100
AcDbLine
370
9
 62
0
 48
0
  6
_SOLID
 10
1.6869462513
 20
2.0085746954
 30
0
 11
1.6876783021
 21
2.0078426446
 31
0
  0
LINE
  5
80
100
AcDbEntity
  8
SEMA2D
100
AcDbLine
370
9
 62
0
 48
0
  6
_SOLID
 10
1.6876783021
 20
2.0078426446
 30
0
 11
1.6879462513
 21
2.0068426446
 31
0
  0
LINE
  5
81
100
AcDbEntity
  8
SEMA2D
100
AcDbLine
370
9
 62
0
 48
0
  6
_SOLID
 10
1.6879462513
 20
2.0068426446
 30
0
 11
1.6879462513
 21
2.0052026919
 31
0
  0
LINE
  5
82
100
AcDbEntity
  8
SEMA2D
100
AcDbLine
370
9
 62
0
 48
0
  6
_SOLID
 10
1.6879462513
 20
2.0052026919
 30
0
 11
1.6895834413
 21
2.0052026919
 31
0
  0
LINE
  5
83
100
AcDbEntity
  8
SEMA2D
100
AcDbLine
370
9
 62
0
 48
0
  6
_SOLID
 10
1.6895834413
 20
2.0052026919
 30
0
 11
1.6895834413
 21
2.0015637912
 31
0
  0
LINE
  5
84
100
AcDbEntity
  8
SEMA2D
100
AcDbLine
370
9
 62
0
 48
0
  6
_SOLID
 10
1.6895834413
 20
2.0015637912
 30
0
 11
1.6592601641
 21
1.948257076
 31
0
  0
LINE
  5
85
100
AcDbEntity
  8
SEMA2D
100
AcDbLine
370
9
 62
0
 48
0
  6
_SOLID
 10
1.6592601641
 20
1.948257076
 30
0
 11
1.6016757158
 21
1.9271587743
 31
0
  0
LINE
  5
86
100
AcDbEntity
  8
SEMA2D
100
AcDbLine
370
9
 62
0
 48
0
  6
_SOLID
 10
1.6016757158
 20
1.9271587743
 30
0
 11
1.5961974022
 21
1.9271587743
 31
0
  0
LINE
  5
87
100
AcDbEntity
  8
SEMA2D
100
AcDbLine
370
9
 62
0
 48
0
  6
_SOLID
 10
1.5961974022
 20
1.9271587743
 30
0
 11
1.5386129539
 21
1.948257076
 31
0
  0
LINE
  5
88
100
AcDbEntity
  8
SEMA2D
100
AcDbLine
370
9
 62
0
 48
0
  6
_SOLID
 10
1.5386129539
 20
1.948257076
 30
0
 11
1.5082936134
 21
2.0015403133
 31
0
  0
LINE
  5
89
100
AcDbEntity
  8
SEMA2D
100
AcDbLine
370
9
 62
0
 48
0
  6
_SOLID
 10
1.5082936134
 20
2.0015403133
 30
0
 11
1.508283115
 21
2.0015637912
 31
0
  0
LINE
  5
8A
100
AcDbEntity
  8
SEMA2D
100
AcDbLine
370
9
 62
0
 48
0
  6
_SOLID
 10
1.508283115
 20
2.0015637912
 30
0
 11
1.508283115
 21
2.0052026919
 31
0
  0
LINE
  5
8B
100
AcDbEntity
  8
SEMA2D
100
AcDbLine
370
9
 62
0
 48
0
  6
_SOLID
 10
1.508283115
 20
2.0052026919
 30
0
 11
1.5099394837
 21
2.0052026919
 31
0
  0
LINE
  5
8C
100
AcDbEntity
  8
SEMA2D
100
AcDbLine
370
9
 62
0
 48
0
  6
_SOLID
 10
1.5099394837
 20
2.0052026919
 30
0
 11
1.5099394837
 21
2.0068426446
 31
0
  0
LINE
  5
8D
100
AcDbEntity
  8
SEMA2D
100
AcDbLine
370
9
 62
0
 48
0
  6
_SOLID
 10
1.5099394837
 20
2.0068426446
 30
0
 11
1.5102074329
 21
2.0078426446
 31
0
  0
LINE
  5
8E
100
AcDbEntity
  8
SEMA2D
100
AcDbLine
370
9
 62
0
 48
0
  6
_SOLID
 10
1.5102074329
 20
2.0078426446
 30
0
 11
1.5109394837
 21
2.0085746954
 31
0
  0
LINE
  5
8F
100
AcDbEntity
  8
SEMA2D
100
AcDbLine
370
9
 62
0
 48
0
  6
_SOLID
 10
1.5109394837
 20
2.0085746954
 30
0
 11
1.5119394837
 21
2.0088426985
 31
0
  0
LINE
  5
90
100
AcDbEntity
  8
SEMA2D
100
AcDbLine
370
9
 62
0
 48
0
  6
_SOLID
 10
1.5119394837
 20
2.0088426985
 30
0
 11
1.4905151644
 21
2.0088426924
 31
0
  0
LINE
  5
91
100
AcDbEntity
  8
SEMA2D
100
AcDbLine
370
9
 62
0
 48
0
  6
_SOLID
 10
1.4905151644
 20
2.0088426924
 30
0
 11
1.4892815538
 21
2.008416924
 31
0
  0
LINE
  5
92
100
AcDbEntity
  8
SEMA2D
100
AcDbLine
370
9
 62
0
 48
0
  6
_SOLID
 10
1.4892815538
 20
2.008416924
 30
0
 11
1.4885731757
 21
2.0073208974
 31
0
  0
LINE
  5
93
100
AcDbEntity
  8
SEMA2D
100
AcDbLine
370
9
 62
0
 48
0
  6
_SOLID
 10
1.4885731757
 20
2.0073208974
 30
0
 11
1.4880519743
 21
2.0052043002
 31
0
  0
LINE
  5
94
100
AcDbEntity
  8
SEMA2D
100
AcDbLine
370
9
 62
0
 48
0
  6
_SOLID
 10
1.4880519743
 20
2.0052043002
 30
0
 11
1.4863249572
 21
2.0052026919
 31
0
  0
LINE
  5
95
100
AcDbEntity
  8
SEMA2D
100
AcDbLine
370
9
 62
0
 48
0
  6
_SOLID
 10
1.4863249572
 20
2.0052026919
 30
0
 11
1.4863249572
 21
2.0015626919
 31
0
  0
LINE
  5
96
100
AcDbEntity
  8
SEMA2D
100
AcDbLine
370
9
 62
0
 48
0
  6
_SOLID
 10
1.4863249572
 20
2.0015626919
 30
0
 11
1.4873119558
 21
2.0015603126
 31
0
  0
LINE
  5
97
100
AcDbEntity
  8
SEMA2D
100
AcDbLine
370
9
 62
0
 48
0
  6
_SOLID
 10
1.4873119558
 20
2.0015603126
 30
0
 11
1.5257682547
 21
1.9341154249
 31
0
  0
LINE
  5
98
100
AcDbEntity
  8
SEMA2D
100
AcDbLine
370
9
 62
0
 48
0
  6
_SOLID
 10
1.5257682547
 20
1.9341154249
 30
0
 11
1.5574026871
 21
1.9155168813
 31
0
  0
LINE
  5
99
100
AcDbEntity
  8
SEMA2D
100
AcDbLine
370
9
 62
0
 48
0
  6
_SOLID
 10
1.5574026871
 20
1.9155168813
 30
0
 11
1.5989327749
 21
1.9081413454
 31
0
  0
LINE
  5
9A
100
AcDbEntity
  8
SEMA2D
100
AcDbLine
370
9
 62
0
 48
0
  6
_SOLID
 10
1.5989327749
 20
1.9081413454
 30
0
 11
1.6558199094
 21
1.9227304555
 31
0
  0
LINE
  5
9B
100
AcDbEntity
  8
SEMA2D
100
AcDbLine
370
9
 62
0
 48
0
  6
_SOLID
 10
1.6558199094
 20
1.9227304555
 30
0
 11
1.6721360377
 21
1.9340722462
 31
0
  0
LINE
  5
9C
100
AcDbEntity
  8
SEMA2D
100
AcDbLine
370
9
 62
0
 48
0
  6
_SOLID
 10
1.6721360377
 20
1.9340722462
 30
0
 11
1.6882826199
 21
1.950739236
 31
0
  0
LINE
  5
9D
100
AcDbEntity
  8
SEMA2D
100
AcDbLine
370
9
 62
0
 48
0
  6
_SOLID
 10
1.6882826199
 20
1.950739236
 30
0
 11
1.710561162
 21
2.0015603126
 31
0
  0
LINE
  5
9E
100
AcDbEntity
  8
SEMA2D
100
AcDbLine
370
9
 62
0
 48
0
  6
_SOLID
 10
1.710561162
 20
2.0015603126
 30
0
 11
1.7115481607
 21
2.0015626919
 31
0
  0
LINE
  5
9F
100
AcDbEntity
  8
SEMA2D
100
AcDbLine
370
9
 62
0
 48
0
  6
_SOLID
 10
1.7115481607
 20
2.0015626919
 30
0
 11
1.7115481607
 21
2.0052026919
 31
0
  0
LINE
  5
A0
100
AcDbEntity
  8
SEMA2D
100
AcDbLine
370
9
 62
0
 48
0
  6
_SOLID
 10
1.7115481607
 20
2.0052026919
 30
0
 11
1.7098211436
 21
2.0052043002
 31
0
  0
LINE
  5
A1
100
AcDbEntity
  8
SEMA2D
100
AcDbLine
370
9
 62
0
 48
0
  6
_SOLID
 10
1.7098211436
 20
2.0052043002
 30
0
 11
1.7092999423
 21
2.0073208973
 31
0
  0
LINE
  5
A2
100
AcDbEntity
  8
SEMA2D
100
AcDbLine
370
9
 62
0
 48
0
  6
_SOLID
 10
1.7092999423
 20
2.0073208973
 30
0
 11
1.7085915642
 21
2.008416924
 31
0
  0
LINE
  5
A3
100
AcDbEntity
  8
SEMA2D
100
AcDbLine
370
9
 62
0
 48
0
  6
_SOLID
 10
1.7085915642
 20
2.008416924
 30
0
 11
1.7073580068
 21
2.0088426507
 31
0
  0
LINE
  5
A4
100
AcDbEntity
  8
SEMA2D
100
AcDbLine
370
9
 62
0
 48
0
  6
_SOLID
 10
1.7073580068
 20
2.0088426507
 30
0
 11
1.6859462513
 21
2.0088426446
 31
0
  0
LINE
  5
A5
100
AcDbEntity
  8
SEMA2D
100
AcDbLine
370
9
 62
0
 48
0
  6
_SOLID
 10
1.6859462513
 20
2.0088426446
 30
0
 11
1.6869462513
 21
2.0085746954
 31
0
  0
LINE
  5
A6
100
AcDbEntity
  8
SEMA2D
100
AcDbLine
370
9
 62
0
 48
0
  6
_SOLID
 10
1.6869462513
 20
2.0085746954
 30
0
 11
1.6876783021
 21
2.0078426446
 31
0
  0
LINE
  5
A7
100
AcDbEntity
  8
SEMA2D
100
AcDbLine
370
9
 62
0
 48
0
  6
_SOLID
 10
1.6876783021
 20
2.0078426446
 30
0
 11
1.6879462513
 21
2.0068426446
 31
0
  0
LINE
  5
A8
100
AcDbEntity
  8
SEMA2D
100
AcDbLine
370
9
 62
0
 48
0
  6
_SOLID
 10
1.6879462513
 20
2.0068426446
 30
0
 11
1.6879462513
 21
2.0052026919
 31
0
  0
LINE
  5
A9
100
AcDbEntity
  8
SEMA2D
100
AcDbLine
370
9
 62
0
 48
0
  6
_SOLID
 10
1.6879462513
 20
2.0052026919
 30
0
 11
1.6895834413
 21
2.0052026919
 31
0
  0
LINE
  5
AA
100
AcDbEntity
  8
SEMA2D
100
AcDbLine
370
9
 62
0
 48
0
  6
_SOLID
 10
1.6895834413
 20
2.0052026919
 30
0
 11
1.6895834413
 21
2.0015637912
 31
0
  0
LINE
  5
AB
100
AcDbEntity
  8
SEMA2D
100
AcDbLine
370
9
 62
0
 48
0
  6
_SOLID
 10
1.6895834413
 20
2.0015637912
 30
0
 11
1.6592601641
 21
1.948257076
 31
0
  0
LINE
  5
AC
100
AcDbEntity
  8
SEMA2D
100
AcDbLine
370
9
 62
0
 48
0
  6
_SOLID
 10
1.6592601641
 20
1.948257076
 30
0
 11
1.6016757158
 21
1.9271587743
 31
0
  0
LINE
  5
AD
100
AcDbEntity
  8
SEMA2D
100
AcDbLine
370
9
 62
0
 48
0
  6
_SOLID
 10
1.6016757158
 20
1.9271587743
 30
0
 11
1.5961974022
 21
1.9271587743
 31
0
  0
LINE
  5
AE
100
AcDbEntity
  8
SEMA2D
100
AcDbLine
370
9
 62
0
 48
0
  6
_SOLID
 10
1.5957935368
 20
1.9196162252
 30
0
 11
1.57872034109219
 21
1.92112464810937
 31
0
  0
LINE
  5
AF
100
AcDbEntity
  8
SEMA2D
100
AcDbLine
370
9
 62
0
 48
0
  6
_SOLID
 10
1.57872034109219
 20
1.92112464810937
 30
0
 11
1.5622981321375
 21
1.9255592275
 31
0
  0
LINE
  5
B0
100
AcDbEntity
  8
SEMA2D
100
AcDbLine
370
9
 62
0
 48
0
  6
_SOLID
 10
1.5622981321375
 20
1.9255592275
 30
0
 11
1.54689819303906
 21
1.93278392936563
 31
0
  0
LINE
  5
B1
100
AcDbEntity
  8
SEMA2D
100
AcDbLine
370
9
 62
0
 48
0
  6
_SOLID
 10
1.54689819303906
 20
1.93278392936563
 30
0
 11
1.5328918069
 21
1.9426627197
 31
0
  0
LINE
  5
B2
100
AcDbEntity
  8
SEMA2D
100
AcDbLine
370
9
 62
0
 48
0
  6
_SOLID
 10
1.5328918069
 20
1.9426627197
 30
0
 11
1.52083855873438
 21
1.95483930357656
 31
0
  0
LINE
  5
B3
100
AcDbEntity
  8
SEMA2D
100
AcDbLine
370
9
 62
0
 48
0
  6
_SOLID
 10
1.52083855873438
 20
1.95483930357656
 30
0
 11
1.511170782075
 21
1.9688275992375
 31
0
  0
LINE
  5
B4
100
AcDbEntity
  8
SEMA2D
100
AcDbLine
370
9
 62
0
 48
0
  6
_SOLID
 10
1.511170782075
 20
1.9688275992375
 30
0
 11
1.50408376947813
 21
1.98428429265469
 31
0
  0
LINE
  5
B5
100
AcDbEntity
  8
SEMA2D
100
AcDbLine
370
9
 62
0
 48
0
  6
_SOLID
 10
1.50408376947813
 20
1.98428429265469
 30
0
 11
1.4997728135
 21
2.0008660698
 31
0
  0
LINE
  5
B6
100
AcDbEntity
  8
SEMA2D
100
AcDbLine
370
9
 62
0
 48
0
  6
_SOLID
 10
1.4997728135
 20
2.0008660698
 30
0
 11
1.4997613457
 21
2.0008917156
 31
0
  0
LINE
  5
B7
100
AcDbEntity
  8
SEMA2D
100
AcDbLine
370
9
 62
0
 48
0
  6
_SOLID
 10
1.4997613457
 20
2.0008917156
 30
0
 11
1.4997613457
 21
2.0048666282
 31
0
  0
LINE
  5
B8
100
AcDbEntity
  8
SEMA2D
100
AcDbLine
370
9
 62
0
 48
0
  6
_SOLID
 10
1.4997613457
 20
2.0048666282
 30
0
 11
1.5015706615
 21
2.0048666282
 31
0
  0
LINE
  5
B9
100
AcDbEntity
  8
SEMA2D
100
AcDbLine
370
9
 62
0
 48
0
  6
_SOLID
 10
1.5015706615
 20
2.0048666282
 30
0
 11
1.5015706615
 21
2.0066580122
 31
0
  0
LINE
  5
BA
100
AcDbEntity
  8
SEMA2D
100
AcDbLine
370
9
 62
0
 48
0
  6
_SOLID
 10
1.5015706615
 20
2.0066580122
 30
0
 11
1.5018633529
 21
2.0077503511
 31
0
  0
LINE
  5
BB
100
AcDbEntity
  8
SEMA2D
100
AcDbLine
370
9
 62
0
 48
0
  6
_SOLID
 10
1.5018633529
 20
2.0077503511
 30
0
 11
1.5026630004
 21
2.0085499986
 31
0
  0
LINE
  5
BC
100
AcDbEntity
  8
SEMA2D
100
AcDbLine
370
9
 62
0
 48
0
  6
_SOLID
 10
1.5026630004
 20
2.0085499986
 30
0
 11
1.5037553392
 21
2.0088427488
 31
0
  0
LINE
  5
BD
100
AcDbEntity
  8
SEMA2D
100
AcDbLine
370
9
 62
0
 48
0
  6
_SOLID
 10
1.5037553392
 20
2.0088427488
 30
0
 11
1.480352723
 21
2.0088427421
 31
0
  0
LINE
  5
BE
100
AcDbEntity
  8
SEMA2D
100
AcDbLine
370
9
 62
0
 48
0
  6
_SOLID
 10
1.480352723
 20
2.0088427421
 30
0
 11
1.4790052022
 21
2.0083776588
 31
0
  0
LINE
  5
BF
100
AcDbEntity
  8
SEMA2D
100
AcDbLine
370
9
 62
0
 48
0
  6
_SOLID
 10
1.4790052022
 20
2.0083776588
 30
0
 11
1.4782314133
 21
2.0071804263
 31
0
  0
LINE
  5
C0
100
AcDbEntity
  8
SEMA2D
100
AcDbLine
370
9
 62
0
 48
0
  6
_SOLID
 10
1.4782314133
 20
2.0071804263
 30
0
 11
1.4776620847
 21
2.004868385
 31
0
  0
LINE
  5
C1
100
AcDbEntity
  8
SEMA2D
100
AcDbLine
370
9
 62
0
 48
0
  6
_SOLID
 10
1.4776620847
 20
2.004868385
 30
0
 11
1.4757755969
 21
2.0048666282
 31
0
  0
LINE
  5
C2
100
AcDbEntity
  8
SEMA2D
100
AcDbLine
370
9
 62
0
 48
0
  6
_SOLID
 10
1.4757755969
 20
2.0048666282
 30
0
 11
1.4757755969
 21
2.0008905148
 31
0
  0
LINE
  5
C3
100
AcDbEntity
  8
SEMA2D
100
AcDbLine
370
9
 62
0
 48
0
  6
_SOLID
 10
1.4757755969
 20
2.0008905148
 30
0
 11
1.4768537338
 21
2.0008879158
 31
0
  0
LINE
  5
C4
100
AcDbEntity
  8
SEMA2D
100
AcDbLine
370
9
 62
0
 48
0
  6
_SOLID
 10
1.4768537338
 20
2.0008879158
 30
0
 11
1.48226192943906
 21
1.97986117415781
 31
0
  0
LINE
  5
C5
100
AcDbEntity
  8
SEMA2D
100
AcDbLine
370
9
 62
0
 48
0
  6
_SOLID
 10
1.48226192943906
 20
1.97986117415781
 30
0
 11
1.4912355622375
 21
1.9602758912375
 31
0
  0
LINE
  5
C6
100
AcDbEntity
  8
SEMA2D
100
AcDbLine
370
9
 62
0
 48
0
  6
_SOLID
 10
1.4912355622375
 20
1.9602758912375
 30
0
 11
1.50352010811719
 21
1.94257845287344
 31
0
  0
LINE
  5
C7
100
AcDbEntity
  8
SEMA2D
100
AcDbLine
370
9
 62
0
 48
0
  6
_SOLID
 10
1.50352010811719
 20
1.94257845287344
 30
0
 11
1.518861043
 21
1.9272152449
 31
0
  0
LINE
  5
C8
100
AcDbEntity
  8
SEMA2D
100
AcDbLine
370
9
 62
0
 48
0
  6
_SOLID
 10
1.518861043
 20
1.9272152449
 30
0
 11
1.5353642237375
 21
1.915585609425
 31
0
  0
LINE
  5
C9
100
AcDbEntity
  8
SEMA2D
100
AcDbLine
370
9
 62
0
 48
0
  6
_SOLID
 10
1.5353642237375
 20
1.915585609425
 30
0
 11
1.5534165624
 21
1.9068993332
 31
0
  0
LINE
  5
CA
100
AcDbEntity
  8
SEMA2D
100
AcDbLine
370
9
 62
0
 48
0
  6
_SOLID
 10
1.5534165624
 20
1.9068993332
 30
0
 11
1.575626187925
 21
1.900721036625
 31
0
  0
LINE
  5
CB
100
AcDbEntity
  8
SEMA2D
100
AcDbLine
370
9
 62
0
 48
0
  6
_SOLID
 10
1.575626187925
 20
1.900721036625
 30
0
 11
1.5987814907
 21
1.8988427488
 31
0
  0
LINE
  5
CC
100
AcDbEntity
  8
SEMA2D
100
AcDbLine
370
9
 62
0
 48
0
  6
_SOLID
 10
1.5987814907
 20
1.8988427488
 30
0
 11
1.61508526074687
 21
1.89967870247031
 31
0
  0
LINE
  5
CD
100
AcDbEntity
  8
SEMA2D
100
AcDbLine
370
9
 62
0
 48
0
  6
_SOLID
 10
1.61508526074687
 20
1.89967870247031
 30
0
 11
1.63101338735
 21
1.9026618776875
 31
0
  0
LINE
  5
CE
100
AcDbEntity
  8
SEMA2D
100
AcDbLine
370
9
 62
0
 48
0
  6
_SOLID
 10
1.63101338735
 20
1.9026618776875
 30
0
 11
1.64636057235313
 21
1.90771955138594
 31
0
  0
LINE
  5
CF
100
AcDbEntity
  8
SEMA2D
100
AcDbLine
370
9
 62
0
 48
0
  6
_SOLID
 10
1.64636057235313
 20
1.90771955138594
 30
0
 11
1.6609215176
 21
1.9147790005
 31
0
  0
LINE
  5
D0
100
AcDbEntity
  8
SEMA2D
100
AcDbLine
370
9
 62
0
 48
0
  6
_SOLID
 10
1.6609215176
 20
1.9147790005
 30
0
 11
1.6787442584
 21
1.9271680791
 31
0
  0
LINE
  5
D1
100
AcDbEntity
  8
SEMA2D
100
AcDbLine
370
9
 62
0
 48
0
  6
_SOLID
 10
1.6787442584
 20
1.9271680791
 30
0
 11
1.6963817974
 21
1.9453740795
 31
0
  0
LINE
  5
D2
100
AcDbEntity
  8
SEMA2D
100
AcDbLine
370
9
 62
0
 48
0
  6
_SOLID
 10
1.6963817974
 20
1.9453740795
 30
0
 11
1.70502717333281
 21
1.9579495960875
 31
0
  0
LINE
  5
D3
100
AcDbEntity
  8
SEMA2D
100
AcDbLine
370
9
 62
0
 48
0
  6
_SOLID
 10
1.70502717333281
 20
1.9579495960875
 30
0
 11
1.7120252745125
 21
1.971499748025
 31
0
  0
LINE
  5
D4
100
AcDbEntity
  8
SEMA2D
100
AcDbLine
370
9
 62
0
 48
0
  6
_SOLID
 10
1.7120252745125
 20
1.971499748025
 30
0
 11
1.71728556638594
 21
1.985865524775
 31
0
  0
LINE
  5
D5
100
AcDbEntity
  8
SEMA2D
100
AcDbLine
370
9
 62
0
 48
0
  6
_SOLID
 10
1.71728556638594
 20
1.985865524775
 30
0
 11
1.7207175144
 21
2.0008879158
 31
0
  0
LINE
  5
D6
100
AcDbEntity
  8
SEMA2D
100
AcDbLine
370
9
 62
0
 48
0
  6
_SOLID
 10
1.7207175144
 20
2.0008879158
 30
0
 11
1.7217956514
 21
2.0008905148
 31
0
  0
LINE
  5
D7
100
AcDbEntity
  8
SEMA2D
100
AcDbLine
370
9
 62
0
 48
0
  6
_SOLID
 10
1.7217956514
 20
2.0008905148
 30
0
 11
1.7217956514
 21
2.0048666282
 31
0
  0
LINE
  5
D8
100
AcDbEntity
  8
SEMA2D
100
AcDbLine
370
9
 62
0
 48
0
  6
_SOLID
 10
1.7217956514
 20
2.0048666282
 30
0
 11
1.7199091636
 21
2.004868385
 31
0
  0
LINE
  5
D9
100
AcDbEntity
  8
SEMA2D
100
AcDbLine
370
9
 62
0
 48
0
  6
_SOLID
 10
1.7199091636
 20
2.004868385
 30
0
 11
1.7193398351
 21
2.0071804262
 31
0
  0
LINE
  5
DA
100
AcDbEntity
  8
SEMA2D
100
AcDbLine
370
9
 62
0
 48
0
  6
_SOLID
 10
1.7193398351
 20
2.0071804262
 30
0
 11
1.7185660462
 21
2.0083776588
 31
0
  0
LINE
  5
DB
100
AcDbEntity
  8
SEMA2D
100
AcDbLine
370
9
 62
0
 48
0
  6
_SOLID
 10
1.7185660462
 20
2.0083776588
 30
0
 11
1.7172185836
 21
2.0088426966
 31
0
  0
LINE
  5
DC
100
AcDbEntity
  8
SEMA2D
100
AcDbLine
370
9
 62
0
 48
0
  6
_SOLID
 10
1.7172185836
 20
2.0088426966
 30
0
 11
1.6938296912
 21
2.0088426899
 31
0
  0
LINE
  5
DD
100
AcDbEntity
  8
SEMA2D
100
AcDbLine
370
9
 62
0
 48
0
  6
_SOLID
 10
1.6938296912
 20
2.0088426899
 30
0
 11
1.6949220301
 21
2.0085499986
 31
0
  0
LINE
  5
DE
100
AcDbEntity
  8
SEMA2D
100
AcDbLine
370
9
 62
0
 48
0
  6
_SOLID
 10
1.6949220301
 20
2.0085499986
 30
0
 11
1.6957216776
 21
2.0077503511
 31
0
  0
LINE
  5
DF
100
AcDbEntity
  8
SEMA2D
100
AcDbLine
370
9
 62
0
 48
0
  6
_SOLID
 10
1.6957216776
 20
2.0077503511
 30
0
 11
1.6960143689
 21
2.0066580122
 31
0
  0
LINE
  5
E0
100
AcDbEntity
  8
SEMA2D
100
AcDbLine
370
9
 62
0
 48
0
  6
_SOLID
 10
1.6960143689
 20
2.0066580122
 30
0
 11
1.6960143689
 21
2.0048666282
 31
0
  0
LINE
  5
E1
100
AcDbEntity
  8
SEMA2D
100
AcDbLine
370
9
 62
0
 48
0
  6
_SOLID
 10
1.6960143689
 20
2.0048666282
 30
0
 11
1.6978027352
 21
2.0048666282
 31
0
  0
LINE
  5
E2
100
AcDbEntity
  8
SEMA2D
100
AcDbLine
370
9
 62
0
 48
0
  6
_SOLID
 10
1.6978027352
 20
2.0048666282
 30
0
 11
1.6978027352
 21
2.0008917156
 31
0
  0
LINE
  5
E3
100
AcDbEntity
  8
SEMA2D
100
AcDbLine
370
9
 62
0
 48
0
  6
_SOLID
 10
1.6978027352
 20
2.0008917156
 30
0
 11
1.69349395045625
 21
1.98430245021094
 31
0
  0
LINE
  5
E4
100
AcDbEntity
  8
SEMA2D
100
AcDbLine
370
9
 62
0
 48
0
  6
_SOLID
 10
1.69349395045625
 20
1.98430245021094
 30
0
 11
1.6864067978
 21
1.9688387278125
 31
0
  0
LINE
  5
E5
100
AcDbEntity
  8
SEMA2D
100
AcDbLine
370
9
 62
0
 48
0
  6
_SOLID
 10
1.6864067978
 20
1.9688387278125
 30
0
 11
1.67673679041875
 21
1.95484425033281
 31
0
  0
LINE
  5
E6
100
AcDbEntity
  8
SEMA2D
100
AcDbLine
370
9
 62
0
 48
0
  6
_SOLID
 10
1.67673679041875
 20
1.95484425033281
 30
0
 11
1.6646794415
 21
1.9426627197
 31
0
  0
LINE
  5
E7
100
AcDbEntity
  8
SEMA2D
100
AcDbLine
370
9
 62
0
 48
0
  6
_SOLID
 10
1.6646794415
 20
1.9426627197
 30
0
 11
1.65067305536094
 21
1.93278392936563
 31
0
  0
LINE
  5
E8
100
AcDbEntity
  8
SEMA2D
100
AcDbLine
370
9
 62
0
 48
0
  6
_SOLID
 10
1.65067305536094
 20
1.93278392936563
 30
0
 11
1.6352731162625
 21
1.9255592275
 31
0
  0
LINE
  5
E9
100
AcDbEntity
  8
SEMA2D
100
AcDbLine
370
9
 62
0
 48
0
  6
_SOLID
 10
1.6352731162625
 20
1.9255592275
 30
0
 11
1.61885090730781
 21
1.92112464810937
 31
0
  0
LINE
  5
EA
100
AcDbEntity
  8
SEMA2D
100
AcDbLine
370
9
 62
0
 48
0
  6
_SOLID
 10
1.61885090730781
 20
1.92112464810937
 30
0
 11
1.6017777116
 21
1.9196162252
 31
0
  0
LINE
  5
EB
100
AcDbEntity
  8
SEMA2D
100
AcDbLine
370
9
 62
0
 48
0
  6
_SOLID
 10
1.6017777116
 20
1.9196162252
 30
0
 11
1.5957935368
 21
1.9196162252
 31
0
  0
LINE
  5
EC
100
AcDbEntity
  8
SEMA2D
100
AcDbLine
370
9
 62
0
 48
0
  6
_SOLID
 10
1.5957935368
 20
1.9196162252
 30
0
 11
1.5328918069
 21
1.9426627197
 31
0
  0
LINE
  5
ED
100
AcDbEntity
  8
SEMA2D
100
AcDbLine
370
9
 62
0
 48
0
  6
_SOLID
 10
1.5328918069
 20
1.9426627197
 30
0
 11
1.4997728135
 21
2.0008660698
 31
0
  0
LINE
  5
EE
100
AcDbEntity
  8
SEMA2D
100
AcDbLine
370
9
 62
0
 48
0
  6
_SOLID
 10
1.4997728135
 20
2.0008660698
 30
0
 11
1.4997613457
 21
2.0008917156
 31
0
  0
LINE
  5
EF
100
AcDbEntity
  8
SEMA2D
100
AcDbLine
370
9
 62
0
 48
0
  6
_SOLID
 10
1.4997613457
 20
2.0008917156
 30
0
 11
1.4997613457
 21
2.0048666282
 31
0
  0
LINE
  5
F0
100
AcDbEntity
  8
SEMA2D
100
AcDbLine
370
9
 62
0
 48
0
  6
_SOLID
 10
1.4997613457
 20
2.0048666282
 30
0
 11
1.5015706615
 21
2.0048666282
 31
0
  0
LINE
  5
F1
100
AcDbEntity
  8
SEMA2D
100
AcDbLine
370
9
 62
0
 48
0
  6
_SOLID
 10
1.5015706615
 20
2.0048666282
 30
0
 11
1.5015706615
 21
2.0066580122
 31
0
  0
LINE
  5
F2
100
AcDbEntity
  8
SEMA2D
100
AcDbLine
370
9
 62
0
 48
0
  6
_SOLID
 10
1.5015706615
 20
2.0066580122
 30
0
 11
1.5018633529
 21
2.0077503511
 31
0
  0
LINE
  5
F3
100
AcDbEntity
  8
SEMA2D
100
AcDbLine
370
9
 62
0
 48
0
  6
_SOLID
 10
1.5018633529
 20
2.0077503511
 30
0
 11
1.5026630004
 21
2.0085499986
 31
0
  0
LINE
  5
F4
100
AcDbEntity
  8
SEMA2D
100
AcDbLine
370
9
 62
0
 48
0
  6
_SOLID
 10
1.5026630004
 20
2.0085499986
 30
0
 11
1.5037553392
 21
2.0088427488
 31
0
  0
LINE
  5
F5
100
AcDbEntity
  8
SEMA2D
100
AcDbLine
370
9
 62
0
 48
0
  6
_SOLID
 10
1.5037553392
 20
2.0088427488
 30
0
 11
1.480352723
 21
2.0088427421
 31
0
  0
LINE
  5
F6
100
AcDbEntity
  8
SEMA2D
100
AcDbLine
370
9
 62
0
 48
0
  6
_SOLID
 10
1.480352723
 20
2.0088427421
 30
0
 11
1.4790052022
 21
2.0083776588
 31
0
  0
LINE
  5
F7
100
AcDbEntity
  8
SEMA2D
100
AcDbLine
370
9
 62
0
 48
0
  6
_SOLID
 10
1.4790052022
 20
2.0083776588
 30
0
 11
1.4782314133
 21
2.0071804263
 31
0
  0
LINE
  5
F8
100
AcDbEntity
  8
SEMA2D
100
AcDbLine
370
9
 62
0
 48
0
  6
_SOLID
 10
1.4782314133
 20
2.0071804263
 30
0
 11
1.4776620847
 21
2.004868385
 31
0
  0
LINE
  5
F9
100
AcDbEntity
  8
SEMA2D
100
AcDbLine
370
9
 62
0
 48
0
  6
_SOLID
 10
1.4776620847
 20
2.004868385
 30
0
 11
1.4757755969
 21
2.0048666282
 31
0
  0
LINE
  5
FA
100
AcDbEntity
  8
SEMA2D
100
AcDbLine
370
9
 62
0
 48
0
  6
_SOLID
 10
1.4757755969
 20
2.0048666282
 30
0
 11
1.4757755969
 21
2.0008905148
 31
0
  0
LINE
  5
FB
100
AcDbEntity
  8
SEMA2D
100
AcDbLine
370
9
 62
0
 48
0
  6
_SOLID
 10
1.4757755969
 20
2.0008905148
 30
0
 11
1.4768537338
 21
2.0008879158
 31
0
  0
LINE
  5
FC
100
AcDbEntity
  8
SEMA2D
100
AcDbLine
370
9
 62
0
 48
0
  6
_SOLID
 10
1.4768537338
 20
2.0008879158
 30
0
 11
1.518861043
 21
1.9272152449
 31
0
  0
LINE
  5
FD
100
AcDbEntity
  8
SEMA2D
100
AcDbLine
370
9
 62
0
 48
0
  6
_SOLID
 10
1.518861043
 20
1.9272152449
 30
0
 11
1.5534165624
 21
1.9068993332
 31
0
  0
LINE
  5
FE
100
AcDbEntity
  8
SEMA2D
100
AcDbLine
370
9
 62
0
 48
0
  6
_SOLID
 10
1.5534165624
 20
1.9068993332
 30
0
 11
1.5987814907
 21
1.8988427488
 31
0
  0
LINE
  5
FF
100
AcDbEntity
  8
SEMA2D
100
AcDbLine
370
9
 62
0
 48
0
  6
_SOLID
 10
1.5987814907
 20
1.8988427488
 30
0
 11
1.6609215176
 21
1.9147790005
 31
0
  0
LINE
  5
100
100
AcDbEntity
  8
SEMA2D
100
AcDbLine
370
9
 62
0
 48
0
  6
_SOLID
 10
1.6609215176
 20
1.9147790005
 30
0
 11
1.6787442584
 21
1.9271680791
 31
0
  0
LINE
  5
101
100
AcDbEntity
  8
SEMA2D
100
AcDbLine
370
9
 62
0
 48
0
  6
_SOLID
 10
1.6787442584
 20
1.9271680791
 30
0
 11
1.6963817974
 21
1.9453740795
 31
0
  0
LINE
  5
102
100
AcDbEntity
  8
SEMA2D
100
AcDbLine
370
9
 62
0
 48
0
  6
_SOLID
 10
1.6963817974
 20
1.9453740795
 30
0
 11
1.7207175144
 21
2.0008879158
 31
0
  0
LINE
  5
103
100
AcDbEntity
  8
SEMA2D
100
AcDbLine
370
9
 62
0
 48
0
  6
_SOLID
 10
1.7207175144
 20
2.0008879158
 30
0
 11
1.7217956514
 21
2.0008905148
 31
0
  0
LINE
  5
104
100
AcDbEntity
  8
SEMA2D
100
AcDbLine
370
9
 62
0
 48
0
  6
_SOLID
 10
1.7217956514
 20
2.0008905148
 30
0
 11
1.7217956514
 21
2.0048666282
 31
0
  0
LINE
  5
105
100
AcDbEntity
  8
SEMA2D
100
AcDbLine
370
9
 62
0
 48
0
  6
_SOLID
 10
1.7217956514
 20
2.0048666282
 30
0
 11
1.7199091636
 21
2.004868385
 31
0
  0
LINE
  5
106
100
AcDbEntity
  8
SEMA2D
100
AcDbLine
370
9
 62
0
 48
0
  6
_SOLID
 10
1.7199091636
 20
2.004868385
 30
0
 11
1.7193398351
 21
2.0071804262
 31
0
  0
LINE
  5
107
100
AcDbEntity
  8
SEMA2D
100
AcDbLine
370
9
 62
0
 48
0
  6
_SOLID
 10
1.7193398351
 20
2.0071804262
 30
0
 11
1.7185660462
 21
2.0083776588
 31
0
  0
LINE
  5
108
100
AcDbEntity
  8
SEMA2D
100
AcDbLine
370
9
 62
0
 48
0
  6
_SOLID
 10
1.7185660462
 20
2.0083776588
 30
0
 11
1.7172185836
 21
2.0088426966
 31
0
  0
LINE
  5
109
100
AcDbEntity
  8
SEMA2D
100
AcDbLine
370
9
 62
0
 48
0
  6
_SOLID
 10
1.7172185836
 20
2.0088426966
 30
0
 11
1.6938296912
 21
2.0088426899
 31
0
  0
LINE
  5
10A
100
AcDbEntity
  8
SEMA2D
100
AcDbLine
370
9
 62
0
 48
0
  6
_SOLID
 10
1.6938296912
 20
2.0088426899
 30
0
 11
1.6949220301
 21
2.0085499986
 31
0
  0
LINE
  5
10B
100
AcDbEntity
  8
SEMA2D
100
AcDbLine
370
9
 62
0
 48
0
  6
_SOLID
 10
1.6949220301
 20
2.0085499986
 30
0
 11
1.6957216776
 21
2.0077503511
 31
0
  0
LINE
  5
10C
100
AcDbEntity
  8
SEMA2D
100
AcDbLine
370
9
 62
0
 48
0
  6
_SOLID
 10
1.6957216776
 20
2.0077503511
 30
0
 11
1.6960143689
 21
2.0066580122
 31
0
  0
LINE
  5
10D
100
AcDbEntity
  8
SEMA2D
100
AcDbLine
370
9
 62
0
 48
0
  6
_SOLID
 10
1.6960143689
 20
2.0066580122
 30
0
 11
1.6960143689
 21
2.0048666282
 31
0
  0
LINE
  5
10E
100
AcDbEntity
  8
SEMA2D
100
AcDbLine
370
9
 62
0
 48
0
  6
_SOLID
 10
1.6960143689
 20
2.0048666282
 30
0
 11
1.6978027352
 21
2.0048666282
 31
0
  0
LINE
  5
10F
100
AcDbEntity
  8
SEMA2D
100
AcDbLine
370
9
 62
0
 48
0
  6
_SOLID
 10
1.6978027352
 20
2.0048666282
 30
0
 11
1.6978027352
 21
2.0008917156
 31
0
  0
LINE
  5
110
100
AcDbEntity
  8
SEMA2D
100
AcDbLine
370
9
 62
0
 48
0
  6
_SOLID
 10
1.6978027352
 20
2.0008917156
 30
0
 11
1.6646794415
 21
1.9426627197
 31
0
  0
LINE
  5
111
100
AcDbEntity
  8
SEMA2D
100
AcDbLine
370
9
 62
0
 48
0
  6
_SOLID
 10
1.6646794415
 20
1.9426627197
 30
0
 11
1.6017777116
 21
1.9196162252
 31
0
  0
LINE
  5
112
100
AcDbEntity
  8
SEMA2D
100
AcDbLine
370
9
 62
0
 48
0
  6
_SOLID
 10
1.6017777116
 20
1.9196162252
 30
0
 11
1.5957935368
 21
1.9196162252
 31
0
  0
LINE
  5
113
100
AcDbEntity
  8
SEMA2D
100
AcDbLine
370
9
 62
0
 48
0
  6
_SOLID
 10
1.5957935368
 20
1.9196162252
 30
0
 11
1.5328918069
 21
1.9426627197
 31
0
  0
LINE
  5
114
100
AcDbEntity
  8
SEMA2D
100
AcDbLine
370
9
 62
0
 48
0
  6
_SOLID
 10
1.5328918069
 20
1.9426627197
 30
0
 11
1.4997728135
 21
2.0008660698
 31
0
  0
LINE
  5
115
100
AcDbEntity
  8
SEMA2D
100
AcDbLine
370
9
 62
0
 48
0
  6
_SOLID
 10
1.4997728135
 20
2.0008660698
 30
0
 11
1.4997613457
 21
2.0008917156
 31
0
  0
LINE
  5
116
100
AcDbEntity
  8
SEMA2D
100
AcDbLine
370
9
 62
0
 48
0
  6
_SOLID
 10
1.4997613457
 20
2.0008917156
 30
0
 11
1.4997613457
 21
2.0048666282
 31
0
  0
LINE
  5
117
100
AcDbEntity
  8
SEMA2D
100
AcDbLine
370
9
 62
0
 48
0
  6
_SOLID
 10
1.4997613457
 20
2.0048666282
 30
0
 11
1.5015706615
 21
2.0048666282
 31
0
  0
LINE
  5
118
100
AcDbEntity
  8
SEMA2D
100
AcDbLine
370
9
 62
0
 48
0
  6
_SOLID
 10
1.5015706615
 20
2.0048666282
 30
0
 11
1.5015706615
 21
2.0066580122
 31
0
  0
LINE
  5
119
100
AcDbEntity
  8
SEMA2D
100
AcDbLine
370
9
 62
0
 48
0
  6
_SOLID
 10
1.5015706615
 20
2.0066580122
 30
0
 11
1.5018633529
 21
2.0077503511
 31
0
  0
LINE
  5
11A
100
AcDbEntity
  8
SEMA2D
100
AcDbLine
370
9
 62
0
 48
0
  6
_SOLID
 10
1.5018633529
 20
2.0077503511
 30
0
 11
1.5026630004
 21
2.0085499986
 31
0
  0
LINE
  5
11B
100
AcDbEntity
  8
SEMA2D
100
AcDbLine
370
9
 62
0
 48
0
  6
_SOLID
 10
1.5026630004
 20
2.0085499986
 30
0
 11
1.5037553392
 21
2.0088427488
 31
0
  0
LINE
  5
11C
100
AcDbEntity
  8
SEMA2D
100
AcDbLine
370
9
 62
0
 48
0
  6
_SOLID
 10
1.5037553392
 20
2.0088427488
 30
0
 11
1.480352723
 21
2.0088427421
 31
0
  0
LINE
  5
11D
100
AcDbEntity
  8
SEMA2D
100
AcDbLine
370
9
 62
0
 48
0
  6
_SOLID
 10
1.480352723
 20
2.0088427421
 30
0
 11
1.4790052022
 21
2.0083776588
 31
0
  0
LINE
  5
11E
100
AcDbEntity
  8
SEMA2D
100
AcDbLine
370
9
 62
0
 48
0
  6
_SOLID
 10
1.4790052022
 20
2.0083776588
 30
0
 11
1.4782314133
 21
2.0071804263
 31
0
  0
LINE
  5
11F
100
AcDbEntity
  8
SEMA2D
100
AcDbLine
370
9
 62
0
 48
0
  6
_SOLID
 10
1.4782314133
 20
2.0071804263
 30
0
 11
1.4776620847
 21
2.004868385
 31
0
  0
LINE
  5
120
100
AcDbEntity
  8
SEMA2D
100
AcDbLine
370
9
 62
0
 48
0
  6
_SOLID
 10
1.4776620847
 20
2.004868385
 30
0
 11
1.4757755969
 21
2.0048666282
 31
0
  0
LINE
  5
121
100
AcDbEntity
  8
SEMA2D
100
AcDbLine
370
9
 62
0
 48
0
  6
_SOLID
 10
1.4757755969
 20
2.0048666282
 30
0
 11
1.4757755969
 21
2.0008905148
 31
0
  0
LINE
  5
122
100
AcDbEntity
  8
SEMA2D
100
AcDbLine
370
9
 62
0
 48
0
  6
_SOLID
 10
1.4757755969
 20
2.0008905148
 30
0
 11
1.4768537338
 21
2.0008879158
 31
0
  0
LINE
  5
123
100
AcDbEntity
  8
SEMA2D
100
AcDbLine
370
9
 62
0
 48
0
  6
_SOLID
 10
1.4768537338
 20
2.0008879158
 30
0
 11
1.518861043
 21
1.9272152449
 31
0
  0
LINE
  5
124
100
AcDbEntity
  8
SEMA2D
100
AcDbLine
370
9
 62
0
 48
0
  6
_SOLID
 10
1.518861043
 20
1.9272152449
 30
0
 11
1.5534165624
 21
1.9068993332
 31
0
  0
LINE
  5
125
100
AcDbEntity
  8
SEMA2D
100
AcDbLine
370
9
 62
0
 48
0
  6
_SOLID
 10
1.5534165624
 20
1.9068993332
 30
0
 11
1.5987814907
 21
1.8988427488
 31
0
  0
LINE
  5
126
100
AcDbEntity
  8
SEMA2D
100
AcDbLine
370
9
 62
0
 48
0
  6
_SOLID
 10
1.5987814907
 20
1.8988427488
 30
0
 11
1.6609215176
 21
1.9147790005
 31
0
  0
LINE
  5
127
100
AcDbEntity
  8
SEMA2D
100
AcDbLine
370
9
 62
0
 48
0
  6
_SOLID
 10
1.6609215176
 20
1.9147790005
 30
0
 11
1.6787442584
 21
1.9271680791
 31
0
  0
LINE
  5
128
100
AcDbEntity
  8
SEMA2D
100
AcDbLine
370
9
 62
0
 48
0
  6
_SOLID
 10
1.6787442584
 20
1.9271680791
 30
0
 11
1.6963817974
 21
1.9453740795
 31
0
  0
LINE
  5
129
100
AcDbEntity
  8
SEMA2D
100
AcDbLine
370
9
 62
0
 48
0
  6
_SOLID
 10
1.6963817974
 20
1.9453740795
 30
0
 11
1.7207175144
 21
2.0008879158
 31
0
  0
LINE
  5
12A
100
AcDbEntity
  8
SEMA2D
100
AcDbLine
370
9
 62
0
 48
0
  6
_SOLID
 10
1.7207175144
 20
2.0008879158
 30
0
 11
1.7217956514
 21
2.0008905148
 31
0
  0
LINE
  5
12B
100
AcDbEntity
  8
SEMA2D
100
AcDbLine
370
9
 62
0
 48
0
  6
_SOLID
 10
1.7217956514
 20
2.0008905148
 30
0
 11
1.7217956514
 21
2.0048666282
 31
0
  0
LINE
  5
12C
100
AcDbEntity
  8
SEMA2D
100
AcDbLine
370
9
 62
0
 48
0
  6
_SOLID
 10
1.7217956514
 20
2.0048666282
 30
0
 11
1.7199091636
 21
2.004868385
 31
0
  0
LINE
  5
12D
100
AcDbEntity
  8
SEMA2D
100
AcDbLine
370
9
 62
0
 48
0
  6
_SOLID
 10
1.7199091636
 20
2.004868385
 30
0
 11
1.7193398351
 21
2.0071804262
 31
0
  0
LINE
  5
12E
100
AcDbEntity
  8
SEMA2D
100
AcDbLine
370
9
 62
0
 48
0
  6
_SOLID
 10
1.7193398351
 20
2.0071804262
 30
0
 11
1.7185660462
 21
2.0083776588
 31
0
  0
LINE
  5
12F
100
AcDbEntity
  8
SEMA2D
100
AcDbLine
370
9
 62
0
 48
0
  6
_SOLID
 10
1.7185660462
 20
2.0083776588
 30
0
 11
1.7172185836
 21
2.0088426966
 31
0
  0
LINE
  5
130
100
AcDbEntity
  8
SEMA2D
100
AcDbLine
370
9
 62
0
 48
0
  6
_SOLID
 10
1.7172185836
 20
2.0088426966
 30
0
 11
1.6938296912
 21
2.0088426899
 31
0
  0
LINE
  5
131
100
AcDbEntity
  8
SEMA2D
100
AcDbLine
370
9
 62
0
 48
0
  6
_SOLID
 10
1.6938296912
 20
2.0088426899
 30
0
 11
1.6949220301
 21
2.0085499986
 31
0
  0
LINE
  5
132
100
AcDbEntity
  8
SEMA2D
100
AcDbLine
370
9
 62
0
 48
0
  6
_SOLID
 10
1.6949220301
 20
2.0085499986
 30
0
 11
1.6957216776
 21
2.0077503511
 31
0
  0
LINE
  5
133
100
AcDbEntity
  8
SEMA2D
100
AcDbLine
370
9
 62
0
 48
0
  6
_SOLID
 10
1.6957216776
 20
2.0077503511
 30
0
 11
1.6960143689
 21
2.0066580122
 31
0
  0
LINE
  5
134
100
AcDbEntity
  8
SEMA2D
100
AcDbLine
370
9
 62
0
 48
0
  6
_SOLID
 10
1.6960143689
 20
2.0066580122
 30
0
 11
1.6960143689
 21
2.0048666282
 31
0
  0
LINE
  5
135
100
AcDbEntity
  8
SEMA2D
100
AcDbLine
370
9
 62
0
 48
0
  6
_SOLID
 10
1.6960143689
 20
2.0048666282
 30
0
 11
1.6978027352
 21
2.0048666282
 31
0
  0
LINE
  5
136
100
AcDbEntity
  8
SEMA2D
100
AcDbLine
370
9
 62
0
 48
0
  6
_SOLID
 10
1.6978027352
 20
2.0048666282
 30
0
 11
1.6978027352
 21
2.0008917156
 31
0
  0
LINE
  5
137
100
AcDbEntity
  8
SEMA2D
100
AcDbLine
370
9
 62
0
 48
0
  6
_SOLID
 10
1.6978027352
 20
2.0008917156
 30
0
 11
1.6646794415
 21
1.9426627197
 31
0
  0
LINE
  5
138
100
AcDbEntity
  8
SEMA2D
100
AcDbLine
370
9
 62
0
 48
0
  6
_SOLID
 10
1.6646794415
 20
1.9426627197
 30
0
 11
1.6017777116
 21
1.9196162252
 31
0
  0
LINE
  5
139
100
AcDbEntity
  8
SEMA2D
100
AcDbLine
370
9
 62
0
 48
0
  6
_SOLID
 10
1.6017777116
 20
1.9196162252
 30
0
 11
1.5957935368
 21
1.9196162252
 31
0
  0
LINE
  5
13A
100
AcDbEntity
  8
SEMA2D
100
AcDbLine
370
9
 62
0
 48
0
  6
_SOLID
 10
1.1615170153
 20
2.1683072257
 30
0
 11
1.1706991992
 21
2.1691458743
 31
0
  0
LINE
  5
13B
100
AcDbEntity
  8
SEMA2D
100
AcDbLine
370
9
 62
0
 48
0
  6
_SOLID
 10
1.1706991992
 20
2.1691458743
 30
0
 11
1.1719944172
 21
2.1697892191
 31
0
  0
LINE
  5
13C
100
AcDbEntity
  8
SEMA2D
100
AcDbLine
370
9
 62
0
 48
0
  6
_SOLID
 10
1.1719944172
 20
2.1697892191
 30
0
 11
1.1725172877
 21
2.1711375842
 31
0
  0
LINE
  5
13D
100
AcDbEntity
  8
SEMA2D
100
AcDbLine
370
9
 62
0
 48
0
  6
_SOLID
 10
1.1725172877
 20
2.1711375842
 30
0
 11
1.1725172877
 21
2.1774612721
 31
0
  0
LINE
  5
13E
100
AcDbEntity
  8
SEMA2D
100
AcDbLine
370
9
 62
0
 48
0
  6
_SOLID
 10
1.1725172877
 20
2.1774612721
 30
0
 11
1.1719944172
 21
2.1788096372
 31
0
  0
LINE
  5
13F
100
AcDbEntity
  8
SEMA2D
100
AcDbLine
370
9
 62
0
 48
0
  6
_SOLID
 10
1.1719944172
 20
2.1788096372
 30
0
 11
1.1706991992
 21
2.179452982
 31
0
  0
LINE
  5
140
100
AcDbEntity
  8
SEMA2D
100
AcDbLine
370
9
 62
0
 48
0
  6
_SOLID
 10
1.1706991992
 20
2.179452982
 30
0
 11
1.1631869134
 21
2.1801391115
 31
0
  0
LINE
  5
141
100
AcDbEntity
  8
SEMA2D
100
AcDbLine
370
9
 62
0
 48
0
  6
_SOLID
 10
1.1631869134
 20
2.1801391115
 30
0
 11
1.1624789505
 21
2.1802037729
 31
0
  0
LINE
  5
142
100
AcDbEntity
  8
SEMA2D
100
AcDbLine
370
9
 62
0
 48
0
  6
_SOLID
 10
1.1624789505
 20
2.1802037729
 30
0
 11
1.1587205384
 21
2.1818685103
 31
0
  0
LINE
  5
143
100
AcDbEntity
  8
SEMA2D
100
AcDbLine
370
9
 62
0
 48
0
  6
_SOLID
 10
1.1587205384
 20
2.1818685103
 30
0
 11
1.1562186284
 21
2.1859525975
 31
0
  0
LINE
  5
144
100
AcDbEntity
  8
SEMA2D
100
AcDbLine
370
9
 62
0
 48
0
  6
_SOLID
 10
1.1562186284
 20
2.1859525975
 30
0
 11
1.1607319747
 21
2.2691294288
 31
0
  0
LINE
  5
145
100
AcDbEntity
  8
SEMA2D
100
AcDbLine
370
9
 62
0
 48
0
  6
_SOLID
 10
1.1607319747
 20
2.2691294288
 30
0
 11
1.1597626174
 21
2.2719594041
 31
0
  0
LINE
  5
146
100
AcDbEntity
  8
SEMA2D
100
AcDbLine
370
9
 62
0
 48
0
  6
_SOLID
 10
1.1597626174
 20
2.2719594041
 30
0
 11
1.1571014631
 21
2.2733256664
 31
0
  0
LINE
  5
147
100
AcDbEntity
  8
SEMA2D
100
AcDbLine
370
9
 62
0
 48
0
  6
_SOLID
 10
1.1571014631
 20
2.2733256664
 30
0
 11
1.1474543714
 21
2.2742067769
 31
0
  0
LINE
  5
148
100
AcDbEntity
  8
SEMA2D
100
AcDbLine
370
9
 62
0
 48
0
  6
_SOLID
 10
1.1474543714
 20
2.2742067769
 30
0
 11
1.1474543714
 21
2.2790326472
 31
0
  0
LINE
  5
149
100
AcDbEntity
  8
SEMA2D
100
AcDbLine
370
9
 62
0
 48
0
  6
_SOLID
 10
1.1474543714
 20
2.2790326472
 30
0
 11
1.1474543714
 21
2.2819585176
 31
0
  0
LINE
  5
14A
100
AcDbEntity
  8
SEMA2D
100
AcDbLine
370
9
 62
0
 48
0
  6
_SOLID
 10
1.1474543714
 20
2.2819585176
 30
0
 11
1.1593524892
 21
2.2830452241
 31
0
  0
LINE
  5
14B
100
AcDbEntity
  8
SEMA2D
100
AcDbLine
370
9
 62
0
 48
0
  6
_SOLID
 10
1.1593524892
 20
2.2830452241
 30
0
 11
1.1614309499
 21
2.2842617578
 31
0
  0
LINE
  5
14C
100
AcDbEntity
  8
SEMA2D
100
AcDbLine
370
9
 62
0
 48
0
  6
_SOLID
 10
1.1614309499
 20
2.2842617578
 30
0
 11
1.162278314
 21
2.2865160709
 31
0
  0
LINE
  5
14D
100
AcDbEntity
  8
SEMA2D
100
AcDbLine
370
9
 62
0
 48
0
  6
_SOLID
 10
1.162278314
 20
2.2865160709
 30
0
 11
1.1651562863
 21
2.3094720622
 31
0
  0
LINE
  5
14E
100
AcDbEntity
  8
SEMA2D
100
AcDbLine
370
9
 62
0
 48
0
  6
_SOLID
 10
1.1651562863
 20
2.3094720622
 30
0
 11
1.1676630194
 21
2.3103776844
 31
0
  0
LINE
  5
14F
100
AcDbEntity
  8
SEMA2D
100
AcDbLine
370
9
 62
0
 48
0
  6
_SOLID
 10
1.1676630194
 20
2.3103776844
 30
0
 11
1.1718797162
 21
2.3107628136
 31
0
  0
LINE
  5
150
100
AcDbEntity
  8
SEMA2D
100
AcDbLine
370
9
 62
0
 48
0
  6
_SOLID
 10
1.1718797162
 20
2.3107628136
 30
0
 11
1.1731749342
 21
2.3114061584
 31
0
  0
LINE
  5
151
100
AcDbEntity
  8
SEMA2D
100
AcDbLine
370
9
 62
0
 48
0
  6
_SOLID
 10
1.1731749342
 20
2.3114061584
 30
0
 11
1.1736978047
 21
2.3127545235
 31
0
  0
LINE
  5
152
100
AcDbEntity
  8
SEMA2D
100
AcDbLine
370
9
 62
0
 48
0
  6
_SOLID
 10
1.1736978047
 20
2.3127545235
 30
0
 11
1.1736978047
 21
2.3190782114
 31
0
  0
LINE
  5
153
100
AcDbEntity
  8
SEMA2D
100
AcDbLine
370
9
 62
0
 48
0
  6
_SOLID
 10
1.1736978047
 20
2.3190782114
 30
0
 11
1.1731749342
 21
2.3204265765
 31
0
  0
LINE
  5
154
100
AcDbEntity
  8
SEMA2D
100
AcDbLine
370
9
 62
0
 48
0
  6
_SOLID
 10
1.1731749342
 20
2.3204265765
 30
0
 11
1.172193957
 21
2.3210156986
 31
0
  0
LINE
  5
155
100
AcDbEntity
  8
SEMA2D
100
AcDbLine
370
9
 62
0
 48
0
  6
_SOLID
 10
1.172193957
 20
2.3210156986
 30
0
 11
1.1721726359
 21
2.3210431676
 31
0
  0
LINE
  5
156
100
AcDbEntity
  8
SEMA2D
100
AcDbLine
370
9
 62
0
 48
0
  6
_SOLID
 10
1.1721726359
 20
2.3210431676
 30
0
 11
1.1718797162
 21
2.3210699213
 31
0
  0
LINE
  5
157
100
AcDbEntity
  8
SEMA2D
100
AcDbLine
370
9
 62
0
 48
0
  6
_SOLID
 10
1.1718797162
 20
2.3210699213
 30
0
 11
1.1663986238
 21
2.3215705331
 31
0
  0
LINE
  5
158
100
AcDbEntity
  8
SEMA2D
100
AcDbLine
370
9
 62
0
 48
0
  6
_SOLID
 10
1.1663986238
 20
2.3215705331
 30
0
 11
1.1650691094
 21
2.3222524371
 31
0
  0
LINE
  5
159
100
AcDbEntity
  8
SEMA2D
100
AcDbLine
370
9
 62
0
 48
0
  6
_SOLID
 10
1.1650691094
 20
2.3222524371
 30
0
 11
1.1645831979
 21
2.3236654097
 31
0
  0
LINE
  5
15A
100
AcDbEntity
  8
SEMA2D
100
AcDbLine
370
9
 62
0
 48
0
  6
_SOLID
 10
1.1645831979
 20
2.3236654097
 30
0
 11
1.169568474
 21
2.420351674
 31
0
  0
LINE
  5
15B
100
AcDbEntity
  8
SEMA2D
100
AcDbLine
370
9
 62
0
 48
0
  6
_SOLID
 10
1.169568474
 20
2.420351674
 30
0
 11
1.1704527703
 21
2.4226604042
 31
0
  0
LINE
  5
15C
100
AcDbEntity
  8
SEMA2D
100
AcDbLine
370
9
 62
0
 48
0
  6
_SOLID
 10
1.1704527703
 20
2.4226604042
 30
0
 11
1.172525273
 21
2.4240083463
 31
0
  0
LINE
  5
15D
100
AcDbEntity
  8
SEMA2D
100
AcDbLine
370
9
 62
0
 48
0
  6
_SOLID
 10
1.172525273
 20
2.4240083463
 30
0
 11
1.1747059578
 21
2.424594232
 31
0
  0
LINE
  5
15E
100
AcDbEntity
  8
SEMA2D
100
AcDbLine
370
9
 62
0
 48
0
  6
_SOLID
 10
1.1747059578
 20
2.424594232
 30
0
 11
1.1747059578
 21
2.4329440994
 31
0
  0
LINE
  5
15F
100
AcDbEntity
  8
SEMA2D
100
AcDbLine
370
9
 62
0
 48
0
  6
_SOLID
 10
1.1747059578
 20
2.4329440994
 30
0
 11
1.1726577733
 21
2.4334943862
 31
0
  0
LINE
  5
160
100
AcDbEntity
  8
SEMA2D
100
AcDbLine
370
9
 62
0
 48
0
  6
_SOLID
 10
1.1726577733
 20
2.4334943862
 30
0
 11
1.1704585266
 21
2.4350077031
 31
0
  0
LINE
  5
161
100
AcDbEntity
  8
SEMA2D
100
AcDbLine
370
9
 62
0
 48
0
  6
_SOLID
 10
1.1704585266
 20
2.4350077031
 30
0
 11
1.169701178
 21
2.4375676323
 31
0
  0
LINE
  5
162
100
AcDbEntity
  8
SEMA2D
100
AcDbLine
370
9
 62
0
 48
0
  6
_SOLID
 10
1.169701178
 20
2.4375676323
 30
0
 11
1.171932017
 21
2.4808420474
 31
0
  0
LINE
  5
163
100
AcDbEntity
  8
SEMA2D
100
AcDbLine
370
9
 62
0
 48
0
  6
_SOLID
 10
1.171932017
 20
2.4808420474
 30
0
 11
1.1729104017
 21
2.4998203522
 31
0
  0
LINE
  5
164
100
AcDbEntity
  8
SEMA2D
100
AcDbLine
370
9
 62
0
 48
0
  6
_SOLID
 10
1.1729104017
 20
2.4998203522
 30
0
 11
1.1733812524
 21
2.50199533
 31
0
  0
LINE
  5
165
100
AcDbEntity
  8
SEMA2D
100
AcDbLine
370
9
 62
0
 48
0
  6
_SOLID
 10
1.1733812524
 20
2.50199533
 30
0
 11
1.1751269676
 21
2.5045427347
 31
0
  0
LINE
  5
166
100
AcDbEntity
  8
SEMA2D
100
AcDbLine
370
9
 62
0
 48
0
  6
_SOLID
 10
1.1751269676
 20
2.5045427347
 30
0
 11
1.1757095561
 21
2.5068658278
 31
0
  0
LINE
  5
167
100
AcDbEntity
  8
SEMA2D
100
AcDbLine
370
9
 62
0
 48
0
  6
_SOLID
 10
1.1757095561
 20
2.5068658278
 30
0
 11
1.1757095561
 21
2.522648604
 31
0
  0
LINE
  5
168
100
AcDbEntity
  8
SEMA2D
100
AcDbLine
370
9
 62
0
 48
0
  6
_SOLID
 10
1.1757095561
 20
2.522648604
 30
0
 11
1.1755573152
 21
2.5234139709
 31
0
  0
LINE
  5
169
100
AcDbEntity
  8
SEMA2D
100
AcDbLine
370
9
 62
0
 48
0
  6
_SOLID
 10
1.1755573152
 20
2.5234139709
 30
0
 11
1.1751237697
 21
2.5240628176
 31
0
  0
LINE
  5
16A
100
AcDbEntity
  8
SEMA2D
100
AcDbLine
370
9
 62
0
 48
0
  6
_SOLID
 10
1.1751237697
 20
2.5240628176
 30
0
 11
1.1740233646
 21
2.5251632226
 31
0
  0
LINE
  5
16B
100
AcDbEntity
  8
SEMA2D
100
AcDbLine
370
9
 62
0
 48
0
  6
_SOLID
 10
1.1740233646
 20
2.5251632226
 30
0
 11
1.1698184681
 21
2.5263394464
 31
0
  0
LINE
  5
16C
100
AcDbEntity
  8
SEMA2D
100
AcDbLine
370
9
 62
0
 48
0
  6
_SOLID
 10
1.1698184681
 20
2.5263394464
 30
0
 11
1.1698184681
 21
2.5280019464
 31
0
  0
LINE
  5
16D
100
AcDbEntity
  8
SEMA2D
100
AcDbLine
370
9
 62
0
 48
0
  6
_SOLID
 10
1.1698184681
 20
2.5280019464
 30
0
 11
1.1661784681
 21
2.5280019464
 31
0
  0
LINE
  5
16E
100
AcDbEntity
  8
SEMA2D
100
AcDbLine
370
9
 62
0
 48
0
  6
_SOLID
 10
1.1661784681
 20
2.5280019464
 30
0
 11
1.1661784681
 21
2.5270519464
 31
0
  0
LINE
  5
16F
100
AcDbEntity
  8
SEMA2D
100
AcDbLine
370
9
 62
0
 48
0
  6
_SOLID
 10
1.1661784681
 20
2.5270519464
 30
0
 11
1.1603258929
 21
2.5254148221
 31
0
  0
LINE
  5
170
100
AcDbEntity
  8
SEMA2D
100
AcDbLine
370
9
 62
0
 48
0
  6
_SOLID
 10
1.1603258929
 20
2.5254148221
 30
0
 11
1.1593046494
 21
2.5247402967
 31
0
  0
LINE
  5
171
100
AcDbEntity
  8
SEMA2D
100
AcDbLine
370
9
 62
0
 48
0
  6
_SOLID
 10
1.1593046494
 20
2.5247402967
 30
0
 11
1.1588676018
 21
2.5235970941
 31
0
  0
LINE
  5
172
100
AcDbEntity
  8
SEMA2D
100
AcDbLine
370
9
 62
0
 48
0
  6
_SOLID
 10
1.1588676018
 20
2.5235970941
 30
0
 11
1.1461728396
 21
2.2870080373
 31
0
  0
LINE
  5
173
100
AcDbEntity
  8
SEMA2D
100
AcDbLine
370
9
 62
0
 48
0
  6
_SOLID
 10
1.1461728396
 20
2.2870080373
 30
0
 11
1.1451621491
 21
2.2848106199
 31
0
  0
LINE
  5
174
100
AcDbEntity
  8
SEMA2D
100
AcDbLine
370
9
 62
0
 48
0
  6
_SOLID
 10
1.1451621491
 20
2.2848106199
 30
0
 11
1.1445372754
 21
2.273082496
 31
0
  0
LINE
  5
175
100
AcDbEntity
  8
SEMA2D
100
AcDbLine
370
9
 62
0
 48
0
  6
_SOLID
 10
1.1445372754
 20
2.273082496
 30
0
 11
1.1453301048
 21
2.2708546004
 31
0
  0
LINE
  5
176
100
AcDbEntity
  8
SEMA2D
100
AcDbLine
370
9
 62
0
 48
0
  6
_SOLID
 10
1.1453301048
 20
2.2708546004
 30
0
 11
1.1356994013
 21
2.0930040917
 31
0
  0
LINE
  5
177
100
AcDbEntity
  8
SEMA2D
100
AcDbLine
370
9
 62
0
 48
0
  6
_SOLID
 10
1.1356994013
 20
2.0930040917
 30
0
 11
1.1366657545
 21
2.0896315437
 31
0
  0
LINE
  5
178
100
AcDbEntity
  8
SEMA2D
100
AcDbLine
370
9
 62
0
 48
0
  6
_SOLID
 10
1.1366657545
 20
2.0896315437
 30
0
 11
1.1390042356
 21
2.0870163144
 31
0
  0
LINE
  5
179
100
AcDbEntity
  8
SEMA2D
100
AcDbLine
370
9
 62
0
 48
0
  6
_SOLID
 10
1.1390042356
 20
2.0870163144
 30
0
 11
1.1428235852
 21
2.0859479385
 31
0
  0
LINE
  5
17A
100
AcDbEntity
  8
SEMA2D
100
AcDbLine
370
9
 62
0
 48
0
  6
_SOLID
 10
1.1428235852
 20
2.0859479385
 30
0
 11
1.1428235852
 21
2.0849979385
 31
0
  0
LINE
  5
17B
100
AcDbEntity
  8
SEMA2D
100
AcDbLine
370
9
 62
0
 48
0
  6
_SOLID
 10
1.1428235852
 20
2.0849979385
 30
0
 11
1.1464524467
 21
2.0849979385
 31
0
  0
LINE
  5
17C
100
AcDbEntity
  8
SEMA2D
100
AcDbLine
370
9
 62
0
 48
0
  6
_SOLID
 10
1.1464524467
 20
2.0849979385
 30
0
 11
1.1464524467
 21
2.0866604385
 31
0
  0
LINE
  5
17D
100
AcDbEntity
  8
SEMA2D
100
AcDbLine
370
9
 62
0
 48
0
  6
_SOLID
 10
1.1464524467
 20
2.0866604385
 30
0
 11
1.1494481172
 21
2.087498409
 31
0
  0
LINE
  5
17E
100
AcDbEntity
  8
SEMA2D
100
AcDbLine
370
9
 62
0
 48
0
  6
_SOLID
 10
1.1494481172
 20
2.087498409
 30
0
 11
1.1504692566
 21
2.0881728047
 31
0
  0
LINE
  5
17F
100
AcDbEntity
  8
SEMA2D
100
AcDbLine
370
9
 62
0
 48
0
  6
_SOLID
 10
1.1504692566
 20
2.0881728047
 30
0
 11
1.1509063902
 21
2.089315805
 31
0
  0
LINE
  5
180
100
AcDbEntity
  8
SEMA2D
100
AcDbLine
370
9
 62
0
 48
0
  6
_SOLID
 10
1.1509063902
 20
2.089315805
 30
0
 11
1.1548807044
 21
2.1611216812
 31
0
  0
LINE
  5
181
100
AcDbEntity
  8
SEMA2D
100
AcDbLine
370
9
 62
0
 48
0
  6
_SOLID
 10
1.1548807044
 20
2.1611216812
 30
0
 11
1.1568543879
 21
2.1659561594
 31
0
  0
LINE
  5
182
100
AcDbEntity
  8
SEMA2D
100
AcDbLine
370
9
 62
0
 48
0
  6
_SOLID
 10
1.1568543879
 20
2.1659561594
 30
0
 11
1.1615170153
 21
2.1683072257
 31
0
  0
LINE
  5
183
100
AcDbEntity
  8
SEMA2D
100
AcDbLine
370
9
 62
0
 48
0
  6
_SOLID
 10
1.1615170153
 20
2.1683072257
 30
0
 11
1.1706991992
 21
2.1691458743
 31
0
  0
LINE
  5
184
100
AcDbEntity
  8
SEMA2D
100
AcDbLine
370
9
 62
0
 48
0
  6
_SOLID
 10
1.1706991992
 20
2.1691458743
 30
0
 11
1.1719944172
 21
2.1697892191
 31
0
  0
LINE
  5
185
100
AcDbEntity
  8
SEMA2D
100
AcDbLine
370
9
 62
0
 48
0
  6
_SOLID
 10
1.1719944172
 20
2.1697892191
 30
0
 11
1.1725172877
 21
2.1711375842
 31
0
  0
LINE
  5
186
100
AcDbEntity
  8
SEMA2D
100
AcDbLine
370
9
 62
0
 48
0
  6
_SOLID
 10
1.1725172877
 20
2.1711375842
 30
0
 11
1.1725172877
 21
2.1774612721
 31
0
  0
LINE
  5
187
100
AcDbEntity
  8
SEMA2D
100
AcDbLine
370
9
 62
0
 48
0
  6
_SOLID
 10
1.1725172877
 20
2.1774612721
 30
0
 11
1.1719944172
 21
2.1788096372
 31
0
  0
LINE
  5
188
100
AcDbEntity
  8
SEMA2D
100
AcDbLine
370
9
 62
0
 48
0
  6
_SOLID
 10
1.1719944172
 20
2.1788096372
 30
0
 11
1.1706991992
 21
2.179452982
 31
0
  0
LINE
  5
189
100
AcDbEntity
  8
SEMA2D
100
AcDbLine
370
9
 62
0
 48
0
  6
_SOLID
 10
1.1706991992
 20
2.179452982
 30
0
 11
1.1631869134
 21
2.1801391115
 31
0
  0
LINE
  5
18A
100
AcDbEntity
  8
SEMA2D
100
AcDbLine
370
9
 62
0
 48
0
  6
_SOLID
 10
1.1631869134
 20
2.1801391115
 30
0
 11
1.1624789505
 21
2.1802037729
 31
0
  0
LINE
  5
18B
100
AcDbEntity
  8
SEMA2D
100
AcDbLine
370
9
 62
0
 48
0
  6
_SOLID
 10
1.1624789505
 20
2.1802037729
 30
0
 11
1.1587205384
 21
2.1818685103
 31
0
  0
LINE
  5
18C
100
AcDbEntity
  8
SEMA2D
100
AcDbLine
370
9
 62
0
 48
0
  6
_SOLID
 10
1.1587205384
 20
2.1818685103
 30
0
 11
1.1562186284
 21
2.1859525975
 31
0
  0
LINE
  5
18D
100
AcDbEntity
  8
SEMA2D
100
AcDbLine
370
9
 62
0
 48
0
  6
_SOLID
 10
1.1562186284
 20
2.1859525975
 30
0
 11
1.1607319747
 21
2.2691294288
 31
0
  0
LINE
  5
18E
100
AcDbEntity
  8
SEMA2D
100
AcDbLine
370
9
 62
0
 48
0
  6
_SOLID
 10
1.1607319747
 20
2.2691294288
 30
0
 11
1.1597626174
 21
2.2719594041
 31
0
  0
LINE
  5
18F
100
AcDbEntity
  8
SEMA2D
100
AcDbLine
370
9
 62
0
 48
0
  6
_SOLID
 10
1.1597626174
 20
2.2719594041
 30
0
 11
1.1571014631
 21
2.2733256664
 31
0
  0
LINE
  5
190
100
AcDbEntity
  8
SEMA2D
100
AcDbLine
370
9
 62
0
 48
0
  6
_SOLID
 10
1.1571014631
 20
2.2733256664
 30
0
 11
1.1474543714
 21
2.2742067769
 31
0
  0
LINE
  5
191
100
AcDbEntity
  8
SEMA2D
100
AcDbLine
370
9
 62
0
 48
0
  6
_SOLID
 10
1.1474543714
 20
2.2742067769
 30
0
 11
1.1474543714
 21
2.2790326472
 31
0
  0
LINE
  5
192
100
AcDbEntity
  8
SEMA2D
100
AcDbLine
370
9
 62
0
 48
0
  6
_SOLID
 10
1.1474543714
 20
2.2790326472
 30
0
 11
1.1474543714
 21
2.2819585176
 31
0
  0
LINE
  5
193
100
AcDbEntity
  8
SEMA2D
100
AcDbLine
370
9
 62
0
 48
0
  6
_SOLID
 10
1.1474543714
 20
2.2819585176
 30
0
 11
1.1593524892
 21
2.2830452241
 31
0
  0
LINE
  5
194
100
AcDbEntity
  8
SEMA2D
100
AcDbLine
370
9
 62
0
 48
0
  6
_SOLID
 10
1.1593524892
 20
2.2830452241
 30
0
 11
1.1614309499
 21
2.2842617578
 31
0
  0
LINE
  5
195
100
AcDbEntity
  8
SEMA2D
100
AcDbLine
370
9
 62
0
 48
0
  6
_SOLID
 10
1.1614309499
 20
2.2842617578
 30
0
 11
1.162278314
 21
2.2865160709
 31
0
  0
LINE
  5
196
100
AcDbEntity
  8
SEMA2D
100
AcDbLine
370
9
 62
0
 48
0
  6
_SOLID
 10
1.162278314
 20
2.2865160709
 30
0
 11
1.1651562863
 21
2.3094720622
 31
0
  0
LINE
  5
197
100
AcDbEntity
  8
SEMA2D
100
AcDbLine
370
9
 62
0
 48
0
  6
_SOLID
 10
1.1651562863
 20
2.3094720622
 30
0
 11
1.1676630194
 21
2.3103776844
 31
0
  0
LINE
  5
198
100
AcDbEntity
  8
SEMA2D
100
AcDbLine
370
9
 62
0
 48
0
  6
_SOLID
 10
1.1676630194
 20
2.3103776844
 30
0
 11
1.1718797162
 21
2.3107628136
 31
0
  0
LINE
  5
199
100
AcDbEntity
  8
SEMA2D
100
AcDbLine
370
9
 62
0
 48
0
  6
_SOLID
 10
1.1718797162
 20
2.3107628136
 30
0
 11
1.1731749342
 21
2.3114061584
 31
0
  0
LINE
  5
19A
100
AcDbEntity
  8
SEMA2D
100
AcDbLine
370
9
 62
0
 48
0
  6
_SOLID
 10
1.1731749342
 20
2.3114061584
 30
0
 11
1.1736978047
 21
2.3127545235
 31
0
  0
LINE
  5
19B
100
AcDbEntity
  8
SEMA2D
100
AcDbLine
370
9
 62
0
 48
0
  6
_SOLID
 10
1.1736978047
 20
2.3127545235
 30
0
 11
1.1736978047
 21
2.3190782114
 31
0
  0
LINE
  5
19C
100
AcDbEntity
  8
SEMA2D
100
AcDbLine
370
9
 62
0
 48
0
  6
_SOLID
 10
1.1736978047
 20
2.3190782114
 30
0
 11
1.1731749342
 21
2.3204265765
 31
0
  0
LINE
  5
19D
100
AcDbEntity
  8
SEMA2D
100
AcDbLine
370
9
 62
0
 48
0
  6
_SOLID
 10
1.1731749342
 20
2.3204265765
 30
0
 11
1.172193957
 21
2.3210156986
 31
0
  0
LINE
  5
19E
100
AcDbEntity
  8
SEMA2D
100
AcDbLine
370
9
 62
0
 48
0
  6
_SOLID
 10
1.172193957
 20
2.3210156986
 30
0
 11
1.1721726359
 21
2.3210431676
 31
0
  0
LINE
  5
19F
100
AcDbEntity
  8
SEMA2D
100
AcDbLine
370
9
 62
0
 48
0
  6
_SOLID
 10
1.1721726359
 20
2.3210431676
 30
0
 11
1.1718797162
 21
2.3210699213
 31
0
  0
LINE
  5
1A0
100
AcDbEntity
  8
SEMA2D
100
AcDbLine
370
9
 62
0
 48
0
  6
_SOLID
 10
1.1718797162
 20
2.3210699213
 30
0
 11
1.1663986238
 21
2.3215705331
 31
0
  0
LINE
  5
1A1
100
AcDbEntity
  8
SEMA2D
100
AcDbLine
370
9
 62
0
 48
0
  6
_SOLID
 10
1.1663986238
 20
2.3215705331
 30
0
 11
1.1650691094
 21
2.3222524371
 31
0
  0
LINE
  5
1A2
100
AcDbEntity
  8
SEMA2D
100
AcDbLine
370
9
 62
0
 48
0
  6
_SOLID
 10
1.1650691094
 20
2.3222524371
 30
0
 11
1.1645831979
 21
2.3236654097
 31
0
  0
LINE
  5
1A3
100
AcDbEntity
  8
SEMA2D
100
AcDbLine
370
9
 62
0
 48
0
  6
_SOLID
 10
1.1645831979
 20
2.3236654097
 30
0
 11
1.169568474
 21
2.420351674
 31
0
  0
LINE
  5
1A4
100
AcDbEntity
  8
SEMA2D
100
AcDbLine
370
9
 62
0
 48
0
  6
_SOLID
 10
1.169568474
 20
2.420351674
 30
0
 11
1.1704527703
 21
2.4226604042
 31
0
  0
LINE
  5
1A5
100
AcDbEntity
  8
SEMA2D
100
AcDbLine
370
9
 62
0
 48
0
  6
_SOLID
 10
1.1704527703
 20
2.4226604042
 30
0
 11
1.172525273
 21
2.4240083463
 31
0
  0
LINE
  5
1A6
100
AcDbEntity
  8
SEMA2D
100
AcDbLine
370
9
 62
0
 48
0
  6
_SOLID
 10
1.172525273
 20
2.4240083463
 30
0
 11
1.1747059578
 21
2.424594232
 31
0
  0
LINE
  5
1A7
100
AcDbEntity
  8
SEMA2D
100
AcDbLine
370
9
 62
0
 48
0
  6
_SOLID
 10
1.1747059578
 20
2.424594232
 30
0
 11
1.1747059578
 21
2.4329440994
 31
0
  0
LINE
  5
1A8
100
AcDbEntity
  8
SEMA2D
100
AcDbLine
370
9
 62
0
 48
0
  6
_SOLID
 10
1.1747059578
 20
2.4329440994
 30
0
 11
1.1726577733
 21
2.4334943862
 31
0
  0
LINE
  5
1A9
100
AcDbEntity
  8
SEMA2D
100
AcDbLine
370
9
 62
0
 48
0
  6
_SOLID
 10
1.1726577733
 20
2.4334943862
 30
0
 11
1.1704585266
 21
2.4350077031
 31
0
  0
LINE
  5
1AA
100
AcDbEntity
  8
SEMA2D
100
AcDbLine
370
9
 62
0
 48
0
  6
_SOLID
 10
1.1704585266
 20
2.4350077031
 30
0
 11
1.169701178
 21
2.4375676323
 31
0
  0
LINE
  5
1AB
100
AcDbEntity
  8
SEMA2D
100
AcDbLine
370
9
 62
0
 48
0
  6
_SOLID
 10
1.169701178
 20
2.4375676323
 30
0
 11
1.171932017
 21
2.4808420474
 31
0
  0
LINE
  5
1AC
100
AcDbEntity
  8
SEMA2D
100
AcDbLine
370
9
 62
0
 48
0
  6
_SOLID
 10
1.171932017
 20
2.4808420474
 30
0
 11
1.1729104017
 21
2.4998203522
 31
0
  0
LINE
  5
1AD
100
AcDbEntity
  8
SEMA2D
100
AcDbLine
370
9
 62
0
 48
0
  6
_SOLID
 10
1.1729104017
 20
2.4998203522
 30
0
 11
1.1733812524
 21
2.50199533
 31
0
  0
LINE
  5
1AE
100
AcDbEntity
  8
SEMA2D
100
AcDbLine
370
9
 62
0
 48
0
  6
_SOLID
 10
1.1733812524
 20
2.50199533
 30
0
 11
1.1751269676
 21
2.5045427347
 31
0
  0
LINE
  5
1AF
100
AcDbEntity
  8
SEMA2D
100
AcDbLine
370
9
 62
0
 48
0
  6
_SOLID
 10
1.1751269676
 20
2.5045427347
 30
0
 11
1.1757095561
 21
2.5068658278
 31
0
  0
LINE
  5
1B0
100
AcDbEntity
  8
SEMA2D
100
AcDbLine
370
9
 62
0
 48
0
  6
_SOLID
 10
1.1757095561
 20
2.5068658278
 30
0
 11
1.1757095561
 21
2.522648604
 31
0
  0
LINE
  5
1B1
100
AcDbEntity
  8
SEMA2D
100
AcDbLine
370
9
 62
0
 48
0
  6
_SOLID
 10
1.1757095561
 20
2.522648604
 30
0
 11
1.1755573152
 21
2.5234139709
 31
0
  0
LINE
  5
1B2
100
AcDbEntity
  8
SEMA2D
100
AcDbLine
370
9
 62
0
 48
0
  6
_SOLID
 10
1.1755573152
 20
2.5234139709
 30
0
 11
1.1751237697
 21
2.5240628176
 31
0
  0
LINE
  5
1B3
100
AcDbEntity
  8
SEMA2D
100
AcDbLine
370
9
 62
0
 48
0
  6
_SOLID
 10
1.1751237697
 20
2.5240628176
 30
0
 11
1.1740233646
 21
2.5251632226
 31
0
  0
LINE
  5
1B4
100
AcDbEntity
  8
SEMA2D
100
AcDbLine
370
9
 62
0
 48
0
  6
_SOLID
 10
1.1740233646
 20
2.5251632226
 30
0
 11
1.1698184681
 21
2.5263394464
 31
0
  0
LINE
  5
1B5
100
AcDbEntity
  8
SEMA2D
100
AcDbLine
370
9
 62
0
 48
0
  6
_SOLID
 10
1.1698184681
 20
2.5263394464
 30
0
 11
1.1698184681
 21
2.5280019464
 31
0
  0
LINE
  5
1B6
100
AcDbEntity
  8
SEMA2D
100
AcDbLine
370
9
 62
0
 48
0
  6
_SOLID
 10
1.1698184681
 20
2.5280019464
 30
0
 11
1.1661784681
 21
2.5280019464
 31
0
  0
LINE
  5
1B7
100
AcDbEntity
  8
SEMA2D
100
AcDbLine
370
9
 62
0
 48
0
  6
_SOLID
 10
1.1661784681
 20
2.5280019464
 30
0
 11
1.1661784681
 21
2.5270519464
 31
0
  0
LINE
  5
1B8
100
AcDbEntity
  8
SEMA2D
100
AcDbLine
370
9
 62
0
 48
0
  6
_SOLID
 10
1.1661784681
 20
2.5270519464
 30
0
 11
1.1603258929
 21
2.5254148221
 31
0
  0
LINE
  5
1B9
100
AcDbEntity
  8
SEMA2D
100
AcDbLine
370
9
 62
0
 48
0
  6
_SOLID
 10
1.1603258929
 20
2.5254148221
 30
0
 11
1.1593046494
 21
2.5247402967
 31
0
  0
LINE
  5
1BA
100
AcDbEntity
  8
SEMA2D
100
AcDbLine
370
9
 62
0
 48
0
  6
_SOLID
 10
1.1593046494
 20
2.5247402967
 30
0
 11
1.1588676018
 21
2.5235970941
 31
0
  0
LINE
  5
1BB
100
AcDbEntity
  8
SEMA2D
100
AcDbLine
370
9
 62
0
 48
0
  6
_SOLID
 10
1.1588676018
 20
2.5235970941
 30
0
 11
1.1461728396
 21
2.2870080373
 31
0
  0
LINE
  5
1BC
100
AcDbEntity
  8
SEMA2D
100
AcDbLine
370
9
 62
0
 48
0
  6
_SOLID
 10
1.1461728396
 20
2.2870080373
 30
0
 11
1.1451621491
 21
2.2848106199
 31
0
  0
LINE
  5
1BD
100
AcDbEntity
  8
SEMA2D
100
AcDbLine
370
9
 62
0
 48
0
  6
_SOLID
 10
1.1451621491
 20
2.2848106199
 30
0
 11
1.1445372754
 21
2.273082496
 31
0
  0
LINE
  5
1BE
100
AcDbEntity
  8
SEMA2D
100
AcDbLine
370
9
 62
0
 48
0
  6
_SOLID
 10
1.1445372754
 20
2.273082496
 30
0
 11
1.1453301048
 21
2.2708546004
 31
0
  0
LINE
  5
1BF
100
AcDbEntity
  8
SEMA2D
100
AcDbLine
370
9
 62
0
 48
0
  6
_SOLID
 10
1.1453301048
 20
2.2708546004
 30
0
 11
1.1356994013
 21
2.0930040917
 31
0
  0
LINE
  5
1C0
100
AcDbEntity
  8
SEMA2D
100
AcDbLine
370
9
 62
0
 48
0
  6
_SOLID
 10
1.1356994013
 20
2.0930040917
 30
0
 11
1.1366657545
 21
2.0896315437
 31
0
  0
LINE
  5
1C1
100
AcDbEntity
  8
SEMA2D
100
AcDbLine
370
9
 62
0
 48
0
  6
_SOLID
 10
1.1366657545
 20
2.0896315437
 30
0
 11
1.1390042356
 21
2.0870163144
 31
0
  0
LINE
  5
1C2
100
AcDbEntity
  8
SEMA2D
100
AcDbLine
370
9
 62
0
 48
0
  6
_SOLID
 10
1.1390042356
 20
2.0870163144
 30
0
 11
1.1428235852
 21
2.0859479385
 31
0
  0
LINE
  5
1C3
100
AcDbEntity
  8
SEMA2D
100
AcDbLine
370
9
 62
0
 48
0
  6
_SOLID
 10
1.1428235852
 20
2.0859479385
 30
0
 11
1.1428235852
 21
2.0849979385
 31
0
  0
LINE
  5
1C4
100
AcDbEntity
  8
SEMA2D
100
AcDbLine
370
9
 62
0
 48
0
  6
_SOLID
 10
1.1428235852
 20
2.0849979385
 30
0
 11
1.1464524467
 21
2.0849979385
 31
0
  0
LINE
  5
1C5
100
AcDbEntity
  8
SEMA2D
100
AcDbLine
370
9
 62
0
 48
0
  6
_SOLID
 10
1.1464524467
 20
2.0849979385
 30
0
 11
1.1464524467
 21
2.0866604385
 31
0
  0
LINE
  5
1C6
100
AcDbEntity
  8
SEMA2D
100
AcDbLine
370
9
 62
0
 48
0
  6
_SOLID
 10
1.1464524467
 20
2.0866604385
 30
0
 11
1.1494481172
 21
2.087498409
 31
0
  0
LINE
  5
1C7
100
AcDbEntity
  8
SEMA2D
100
AcDbLine
370
9
 62
0
 48
0
  6
_SOLID
 10
1.1494481172
 20
2.087498409
 30
0
 11
1.1504692566
 21
2.0881728047
 31
0
  0
LINE
  5
1C8
100
AcDbEntity
  8
SEMA2D
100
AcDbLine
370
9
 62
0
 48
0
  6
_SOLID
 10
1.1504692566
 20
2.0881728047
 30
0
 11
1.1509063902
 21
2.089315805
 31
0
  0
LINE
  5
1C9
100
AcDbEntity
  8
SEMA2D
100
AcDbLine
370
9
 62
0
 48
0
  6
_SOLID
 10
1.1509063902
 20
2.089315805
 30
0
 11
1.1548807044
 21
2.1611216812
 31
0
  0
LINE
  5
1CA
100
AcDbEntity
  8
SEMA2D
100
AcDbLine
370
9
 62
0
 48
0
  6
_SOLID
 10
1.1548807044
 20
2.1611216812
 30
0
 11
1.1568543879
 21
2.1659561594
 31
0
  0
LINE
  5
1CB
100
AcDbEntity
  8
SEMA2D
100
AcDbLine
370
9
 62
0
 48
0
  6
_SOLID
 10
1.1568543879
 20
2.1659561594
 30
0
 11
1.1615170153
 21
2.1683072257
 31
0
  0
LINE
  5
1CC
100
AcDbEntity
  8
SEMA2D
100
AcDbLine
370
9
 62
0
 48
0
  6
_SOLID
 10
1.1615170153
 20
2.1683072257
 30
0
 11
1.1706991992
 21
2.1691458743
 31
0
  0
LINE
  5
1CD
100
AcDbEntity
  8
SEMA2D
100
AcDbLine
370
9
 62
0
 48
0
  6
_SOLID
 10
1.1706991992
 20
2.1691458743
 30
0
 11
1.1719944172
 21
2.1697892191
 31
0
  0
LINE
  5
1CE
100
AcDbEntity
  8
SEMA2D
100
AcDbLine
370
9
 62
0
 48
0
  6
_SOLID
 10
1.1719944172
 20
2.1697892191
 30
0
 11
1.1725172877
 21
2.1711375842
 31
0
  0
LINE
  5
1CF
100
AcDbEntity
  8
SEMA2D
100
AcDbLine
370
9
 62
0
 48
0
  6
_SOLID
 10
1.1725172877
 20
2.1711375842
 30
0
 11
1.1725172877
 21
2.1774612721
 31
0
  0
LINE
  5
1D0
100
AcDbEntity
  8
SEMA2D
100
AcDbLine
370
9
 62
0
 48
0
  6
_SOLID
 10
1.1725172877
 20
2.1774612721
 30
0
 11
1.1719944172
 21
2.1788096372
 31
0
  0
LINE
  5
1D1
100
AcDbEntity
  8
SEMA2D
100
AcDbLine
370
9
 62
0
 48
0
  6
_SOLID
 10
1.1719944172
 20
2.1788096372
 30
0
 11
1.1706991992
 21
2.179452982
 31
0
  0
LINE
  5
1D2
100
AcDbEntity
  8
SEMA2D
100
AcDbLine
370
9
 62
0
 48
0
  6
_SOLID
 10
1.1706991992
 20
2.179452982
 30
0
 11
1.1631869134
 21
2.1801391115
 31
0
  0
LINE
  5
1D3
100
AcDbEntity
  8
SEMA2D
100
AcDbLine
370
9
 62
0
 48
0
  6
_SOLID
 10
1.1631869134
 20
2.1801391115
 30
0
 11
1.1624789505
 21
2.1802037729
 31
0
  0
LINE
  5
1D4
100
AcDbEntity
  8
SEMA2D
100
AcDbLine
370
9
 62
0
 48
0
  6
_SOLID
 10
1.1624789505
 20
2.1802037729
 30
0
 11
1.1587205384
 21
2.1818685103
 31
0
  0
LINE
  5
1D5
100
AcDbEntity
  8
SEMA2D
100
AcDbLine
370
9
 62
0
 48
0
  6
_SOLID
 10
1.1587205384
 20
2.1818685103
 30
0
 11
1.1562186284
 21
2.1859525975
 31
0
  0
LINE
  5
1D6
100
AcDbEntity
  8
SEMA2D
100
AcDbLine
370
9
 62
0
 48
0
  6
_SOLID
 10
1.1562186284
 20
2.1859525975
 30
0
 11
1.1607319747
 21
2.2691294288
 31
0
  0
LINE
  5
1D7
100
AcDbEntity
  8
SEMA2D
100
AcDbLine
370
9
 62
0
 48
0
  6
_SOLID
 10
1.1607319747
 20
2.2691294288
 30
0
 11
1.1597626174
 21
2.2719594041
 31
0
  0
LINE
  5
1D8
100
AcDbEntity
  8
SEMA2D
100
AcDbLine
370
9
 62
0
 48
0
  6
_SOLID
 10
1.1597626174
 20
2.2719594041
 30
0
 11
1.1571014631
 21
2.2733256664
 31
0
  0
LINE
  5
1D9
100
AcDbEntity
  8
SEMA2D
100
AcDbLine
370
9
 62
0
 48
0
  6
_SOLID
 10
1.1571014631
 20
2.2733256664
 30
0
 11
1.1474543714
 21
2.2742067769
 31
0
  0
LINE
  5
1DA
100
AcDbEntity
  8
SEMA2D
100
AcDbLine
370
9
 62
0
 48
0
  6
_SOLID
 10
1.1474543714
 20
2.2742067769
 30
0
 11
1.1474543714
 21
2.2790326472
 31
0
  0
LINE
  5
1DB
100
AcDbEntity
  8
SEMA2D
100
AcDbLine
370
9
 62
0
 48
0
  6
_SOLID
 10
1.1474543714
 20
2.2790326472
 30
0
 11
1.1474543714
 21
2.2819585176
 31
0
  0
LINE
  5
1DC
100
AcDbEntity
  8
SEMA2D
100
AcDbLine
370
9
 62
0
 48
0
  6
_SOLID
 10
1.1474543714
 20
2.2819585176
 30
0
 11
1.1593524892
 21
2.2830452241
 31
0
  0
LINE
  5
1DD
100
AcDbEntity
  8
SEMA2D
100
AcDbLine
370
9
 62
0
 48
0
  6
_SOLID
 10
1.1593524892
 20
2.2830452241
 30
0
 11
1.1614309499
 21
2.2842617578
 31
0
  0
LINE
  5
1DE
100
AcDbEntity
  8
SEMA2D
100
AcDbLine
370
9
 62
0
 48
0
  6
_SOLID
 10
1.1614309499
 20
2.2842617578
 30
0
 11
1.162278314
 21
2.2865160709
 31
0
  0
LINE
  5
1DF
100
AcDbEntity
  8
SEMA2D
100
AcDbLine
370
9
 62
0
 48
0
  6
_SOLID
 10
1.162278314
 20
2.2865160709
 30
0
 11
1.1651562863
 21
2.3094720622
 31
0
  0
LINE
  5
1E0
100
AcDbEntity
  8
SEMA2D
100
AcDbLine
370
9
 62
0
 48
0
  6
_SOLID
 10
1.1651562863
 20
2.3094720622
 30
0
 11
1.1676630194
 21
2.3103776844
 31
0
  0
LINE
  5
1E1
100
AcDbEntity
  8
SEMA2D
100
AcDbLine
370
9
 62
0
 48
0
  6
_SOLID
 10
1.1676630194
 20
2.3103776844
 30
0
 11
1.1718797162
 21
2.3107628136
 31
0
  0
LINE
  5
1E2
100
AcDbEntity
  8
SEMA2D
100
AcDbLine
370
9
 62
0
 48
0
  6
_SOLID
 10
1.1718797162
 20
2.3107628136
 30
0
 11
1.1731749342
 21
2.3114061584
 31
0
  0
LINE
  5
1E3
100
AcDbEntity
  8
SEMA2D
100
AcDbLine
370
9
 62
0
 48
0
  6
_SOLID
 10
1.1731749342
 20
2.3114061584
 30
0
 11
1.1736978047
 21
2.3127545235
 31
0
  0
LINE
  5
1E4
100
AcDbEntity
  8
SEMA2D
100
AcDbLine
370
9
 62
0
 48
0
  6
_SOLID
 10
1.1736978047
 20
2.3127545235
 30
0
 11
1.1736978047
 21
2.3190782114
 31
0
  0
LINE
  5
1E5
100
AcDbEntity
  8
SEMA2D
100
AcDbLine
370
9
 62
0
 48
0
  6
_SOLID
 10
1.1736978047
 20
2.3190782114
 30
0
 11
1.1731749342
 21
2.3204265765
 31
0
  0
LINE
  5
1E6
100
AcDbEntity
  8
SEMA2D
100
AcDbLine
370
9
 62
0
 48
0
  6
_SOLID
 10
1.1731749342
 20
2.3204265765
 30
0
 11
1.172193957
 21
2.3210156986
 31
0
  0
LINE
  5
1E7
100
AcDbEntity
  8
SEMA2D
100
AcDbLine
370
9
 62
0
 48
0
  6
_SOLID
 10
1.172193957
 20
2.3210156986
 30
0
 11
1.1721726359
 21
2.3210431676
 31
0
  0
LINE
  5
1E8
100
AcDbEntity
  8
SEMA2D
100
AcDbLine
370
9
 62
0
 48
0
  6
_SOLID
 10
1.1721726359
 20
2.3210431676
 30
0
 11
1.1718797162
 21
2.3210699213
 31
0
  0
LINE
  5
1E9
100
AcDbEntity
  8
SEMA2D
100
AcDbLine
370
9
 62
0
 48
0
  6
_SOLID
 10
1.1718797162
 20
2.3210699213
 30
0
 11
1.1663986238
 21
2.3215705331
 31
0
  0
LINE
  5
1EA
100
AcDbEntity
  8
SEMA2D
100
AcDbLine
370
9
 62
0
 48
0
  6
_SOLID
 10
1.1663986238
 20
2.3215705331
 30
0
 11
1.1650691094
 21
2.3222524371
 31
0
  0
LINE
  5
1EB
100
AcDbEntity
  8
SEMA2D
100
AcDbLine
370
9
 62
0
 48
0
  6
_SOLID
 10
1.1650691094
 20
2.3222524371
 30
0
 11
1.1645831979
 21
2.3236654097
 31
0
  0
LINE
  5
1EC
100
AcDbEntity
  8
SEMA2D
100
AcDbLine
370
9
 62
0
 48
0
  6
_SOLID
 10
1.1645831979
 20
2.3236654097
 30
0
 11
1.169568474
 21
2.420351674
 31
0
  0
LINE
  5
1ED
100
AcDbEntity
  8
SEMA2D
100
AcDbLine
370
9
 62
0
 48
0
  6
_SOLID
 10
1.169568474
 20
2.420351674
 30
0
 11
1.1704527703
 21
2.4226604042
 31
0
  0
LINE
  5
1EE
100
AcDbEntity
  8
SEMA2D
100
AcDbLine
370
9
 62
0
 48
0
  6
_SOLID
 10
1.1704527703
 20
2.4226604042
 30
0
 11
1.172525273
 21
2.4240083463
 31
0
  0
LINE
  5
1EF
100
AcDbEntity
  8
SEMA2D
100
AcDbLine
370
9
 62
0
 48
0
  6
_SOLID
 10
1.172525273
 20
2.4240083463
 30
0
 11
1.1747059578
 21
2.424594232
 31
0
  0
LINE
  5
1F0
100
AcDbEntity
  8
SEMA2D
100
AcDbLine
370
9
 62
0
 48
0
  6
_SOLID
 10
1.1747059578
 20
2.424594232
 30
0
 11
1.1747059578
 21
2.4329440994
 31
0
  0
LINE
  5
1F1
100
AcDbEntity
  8
SEMA2D
100
AcDbLine
370
9
 62
0
 48
0
  6
_SOLID
 10
1.1747059578
 20
2.4329440994
 30
0
 11
1.1726577733
 21
2.4334943862
 31
0
  0
LINE
  5
1F2
100
AcDbEntity
  8
SEMA2D
100
AcDbLine
370
9
 62
0
 48
0
  6
_SOLID
 10
1.1726577733
 20
2.4334943862
 30
0
 11
1.1704585266
 21
2.4350077031
 31
0
  0
LINE
  5
1F3
100
AcDbEntity
  8
SEMA2D
100
AcDbLine
370
9
 62
0
 48
0
  6
_SOLID
 10
1.1704585266
 20
2.4350077031
 30
0
 11
1.169701178
 21
2.4375676323
 31
0
  0
LINE
  5
1F4
100
AcDbEntity
  8
SEMA2D
100
AcDbLine
370
9
 62
0
 48
0
  6
_SOLID
 10
1.169701178
 20
2.4375676323
 30
0
 11
1.171932017
 21
2.4808420474
 31
0
  0
LINE
  5
1F5
100
AcDbEntity
  8
SEMA2D
100
AcDbLine
370
9
 62
0
 48
0
  6
_SOLID
 10
1.171932017
 20
2.4808420474
 30
0
 11
1.1729104017
 21
2.4998203522
 31
0
  0
LINE
  5
1F6
100
AcDbEntity
  8
SEMA2D
100
AcDbLine
370
9
 62
0
 48
0
  6
_SOLID
 10
1.1729104017
 20
2.4998203522
 30
0
 11
1.1733812524
 21
2.50199533
 31
0
  0
LINE
  5
1F7
100
AcDbEntity
  8
SEMA2D
100
AcDbLine
370
9
 62
0
 48
0
  6
_SOLID
 10
1.1733812524
 20
2.50199533
 30
0
 11
1.1751269676
 21
2.5045427347
 31
0
  0
LINE
  5
1F8
100
AcDbEntity
  8
SEMA2D
100
AcDbLine
370
9
 62
0
 48
0
  6
_SOLID
 10
1.1751269676
 20
2.5045427347
 30
0
 11
1.1757095561
 21
2.5068658278
 31
0
  0
LINE
  5
1F9
100
AcDbEntity
  8
SEMA2D
100
AcDbLine
370
9
 62
0
 48
0
  6
_SOLID
 10
1.1757095561
 20
2.5068658278
 30
0
 11
1.1757095561
 21
2.522648604
 31
0
  0
LINE
  5
1FA
100
AcDbEntity
  8
SEMA2D
100
AcDbLine
370
9
 62
0
 48
0
  6
_SOLID
 10
1.1757095561
 20
2.522648604
 30
0
 11
1.1755573152
 21
2.5234139709
 31
0
  0
LINE
  5
1FB
100
AcDbEntity
  8
SEMA2D
100
AcDbLine
370
9
 62
0
 48
0
  6
_SOLID
 10
1.1755573152
 20
2.5234139709
 30
0
 11
1.1751237697
 21
2.5240628176
 31
0
  0
LINE
  5
1FC
100
AcDbEntity
  8
SEMA2D
100
AcDbLine
370
9
 62
0
 48
0
  6
_SOLID
 10
1.1751237697
 20
2.5240628176
 30
0
 11
1.1740233646
 21
2.5251632226
 31
0
  0
LINE
  5
1FD
100
AcDbEntity
  8
SEMA2D
100
AcDbLine
370
9
 62
0
 48
0
  6
_SOLID
 10
1.1740233646
 20
2.5251632226
 30
0
 11
1.1698184681
 21
2.5263394464
 31
0
  0
LINE
  5
1FE
100
AcDbEntity
  8
SEMA2D
100
AcDbLine
370
9
 62
0
 48
0
  6
_SOLID
 10
1.1698184681
 20
2.5263394464
 30
0
 11
1.1698184681
 21
2.5280019464
 31
0
  0
LINE
  5
1FF
100
AcDbEntity
  8
SEMA2D
100
AcDbLine
370
9
 62
0
 48
0
  6
_SOLID
 10
1.1698184681
 20
2.5280019464
 30
0
 11
1.1661784681
 21
2.5280019464
 31
0
  0
LINE
  5
200
100
AcDbEntity
  8
SEMA2D
100
AcDbLine
370
9
 62
0
 48
0
  6
_SOLID
 10
1.1661784681
 20
2.5280019464
 30
0
 11
1.1661784681
 21
2.5270519464
 31
0
  0
LINE
  5
201
100
AcDbEntity
  8
SEMA2D
100
AcDbLine
370
9
 62
0
 48
0
  6
_SOLID
 10
1.1661784681
 20
2.5270519464
 30
0
 11
1.1603258929
 21
2.5254148221
 31
0
  0
LINE
  5
202
100
AcDbEntity
  8
SEMA2D
100
AcDbLine
370
9
 62
0
 48
0
  6
_SOLID
 10
1.1603258929
 20
2.5254148221
 30
0
 11
1.1593046494
 21
2.5247402967
 31
0
  0
LINE
  5
203
100
AcDbEntity
  8
SEMA2D
100
AcDbLine
370
9
 62
0
 48
0
  6
_SOLID
 10
1.1593046494
 20
2.5247402967
 30
0
 11
1.1588676018
 21
2.5235970941
 31
0
  0
LINE
  5
204
100
AcDbEntity
  8
SEMA2D
100
AcDbLine
370
9
 62
0
 48
0
  6
_SOLID
 10
1.1588676018
 20
2.5235970941
 30
0
 11
1.1461728396
 21
2.2870080373
 31
0
  0
LINE
  5
205
100
AcDbEntity
  8
SEMA2D
100
AcDbLine
370
9
 62
0
 48
0
  6
_SOLID
 10
1.1461728396
 20
2.2870080373
 30
0
 11
1.1451621491
 21
2.2848106199
 31
0
  0
LINE
  5
206
100
AcDbEntity
  8
SEMA2D
100
AcDbLine
370
9
 62
0
 48
0
  6
_SOLID
 10
1.1451621491
 20
2.2848106199
 30
0
 11
1.1445372754
 21
2.273082496
 31
0
  0
LINE
  5
207
100
AcDbEntity
  8
SEMA2D
100
AcDbLine
370
9
 62
0
 48
0
  6
_SOLID
 10
1.1445372754
 20
2.273082496
 30
0
 11
1.1453301048
 21
2.2708546004
 31
0
  0
LINE
  5
208
100
AcDbEntity
  8
SEMA2D
100
AcDbLine
370
9
 62
0
 48
0
  6
_SOLID
 10
1.1453301048
 20
2.2708546004
 30
0
 11
1.1356994013
 21
2.0930040917
 31
0
  0
LINE
  5
209
100
AcDbEntity
  8
SEMA2D
100
AcDbLine
370
9
 62
0
 48
0
  6
_SOLID
 10
1.1356994013
 20
2.0930040917
 30
0
 11
1.1366657545
 21
2.0896315437
 31
0
  0
LINE
  5
20A
100
AcDbEntity
  8
SEMA2D
100
AcDbLine
370
9
 62
0
 48
0
  6
_SOLID
 10
1.1366657545
 20
2.0896315437
 30
0
 11
1.1390042356
 21
2.0870163144
 31
0
  0
LINE
  5
20B
100
AcDbEntity
  8
SEMA2D
100
AcDbLine
370
9
 62
0
 48
0
  6
_SOLID
 10
1.1390042356
 20
2.0870163144
 30
0
 11
1.1428235852
 21
2.0859479385
 31
0
  0
LINE
  5
20C
100
AcDbEntity
  8
SEMA2D
100
AcDbLine
370
9
 62
0
 48
0
  6
_SOLID
 10
1.1428235852
 20
2.0859479385
 30
0
 11
1.1428235852
 21
2.0849979385
 31
0
  0
LINE
  5
20D
100
AcDbEntity
  8
SEMA2D
100
AcDbLine
370
9
 62
0
 48
0
  6
_SOLID
 10
1.1428235852
 20
2.0849979385
 30
0
 11
1.1464524467
 21
2.0849979385
 31
0
  0
LINE
  5
20E
100
AcDbEntity
  8
SEMA2D
100
AcDbLine
370
9
 62
0
 48
0
  6
_SOLID
 10
1.1464524467
 20
2.0849979385
 30
0
 11
1.1464524467
 21
2.0866604385
 31
0
  0
LINE
  5
20F
100
AcDbEntity
  8
SEMA2D
100
AcDbLine
370
9
 62
0
 48
0
  6
_SOLID
 10
1.1464524467
 20
2.0866604385
 30
0
 11
1.1494481172
 21
2.087498409
 31
0
  0
LINE
  5
210
100
AcDbEntity
  8
SEMA2D
100
AcDbLine
370
9
 62
0
 48
0
  6
_SOLID
 10
1.1494481172
 20
2.087498409
 30
0
 11
1.1504692566
 21
2.0881728047
 31
0
  0
LINE
  5
211
100
AcDbEntity
  8
SEMA2D
100
AcDbLine
370
9
 62
0
 48
0
  6
_SOLID
 10
1.1504692566
 20
2.0881728047
 30
0
 11
1.1509063902
 21
2.089315805
 31
0
  0
LINE
  5
212
100
AcDbEntity
  8
SEMA2D
100
AcDbLine
370
9
 62
0
 48
0
  6
_SOLID
 10
1.1509063902
 20
2.089315805
 30
0
 11
1.1548807044
 21
2.1611216812
 31
0
  0
LINE
  5
213
100
AcDbEntity
  8
SEMA2D
100
AcDbLine
370
9
 62
0
 48
0
  6
_SOLID
 10
1.1548807044
 20
2.1611216812
 30
0
 11
1.1568543879
 21
2.1659561594
 31
0
  0
LINE
  5
214
100
AcDbEntity
  8
SEMA2D
100
AcDbLine
370
9
 62
0
 48
0
  6
_SOLID
 10
1.1568543879
 20
2.1659561594
 30
0
 11
1.1615170153
 21
2.1683072257
 31
0
  0
LINE
  5
215
100
AcDbEntity
  8
SEMA2D
100
AcDbLine
370
9
 62
0
 48
0
  6
_SOLID
 10
1.5177317821
 20
2.6105534856
 30
0
 11
1.5221944097125
 21
2.6267703684625
 31
0
  0
LINE
  5
216
100
AcDbEntity
  8
SEMA2D
100
AcDbLine
370
9
 62
0
 48
0
  6
_SOLID
 10
1.5221944097125
 20
2.6267703684625
 30
0
 11
1.5299103577
 21
2.6416200734
 31
0
  0
LINE
  5
217
100
AcDbEntity
  8
SEMA2D
100
AcDbLine
370
9
 62
0
 48
0
  6
_SOLID
 10
1.5299103577
 20
2.6416200734
 30
0
 11
1.5397723997
 21
2.6537551938
 31
0
  0
LINE
  5
218
100
AcDbEntity
  8
SEMA2D
100
AcDbLine
370
9
 62
0
 48
0
  6
_SOLID
 10
1.5397723997
 20
2.6537551938
 30
0
 11
1.55076345175
 21
2.6630136227375
 31
0
  0
LINE
  5
219
100
AcDbEntity
  8
SEMA2D
100
AcDbLine
370
9
 62
0
 48
0
  6
_SOLID
 10
1.55076345175
 20
2.6630136227375
 30
0
 11
1.5631625733
 21
2.6701159444
 31
0
  0
LINE
  5
21A
100
AcDbEntity
  8
SEMA2D
100
AcDbLine
370
9
 62
0
 48
0
  6
_SOLID
 10
1.5631625733
 20
2.6701159444
 30
0
 11
1.5633761631
 21
2.6702136575
 31
0
  0
LINE
  5
21B
100
AcDbEntity
  8
SEMA2D
100
AcDbLine
370
9
 62
0
 48
0
  6
_SOLID
 10
1.5633761631
 20
2.6702136575
 30
0
 11
1.5641069002
 21
2.6708284402
 31
0
  0
LINE
  5
21C
100
AcDbEntity
  8
SEMA2D
100
AcDbLine
370
9
 62
0
 48
0
  6
_SOLID
 10
1.5641069002
 20
2.6708284402
 30
0
 11
1.5661768151
 21
2.6714257856
 31
0
  0
LINE
  5
21D
100
AcDbEntity
  8
SEMA2D
100
AcDbLine
370
9
 62
0
 48
0
  6
_SOLID
 10
1.5661768151
 20
2.6714257856
 30
0
 11
1.5827595945
 21
2.6762113178
 31
0
  0
LINE
  5
21E
100
AcDbEntity
  8
SEMA2D
100
AcDbLine
370
9
 62
0
 48
0
  6
_SOLID
 10
1.5827595945
 20
2.6762113178
 30
0
 11
1.6102123454
 21
2.6762552547
 31
0
  0
LINE
  5
21F
100
AcDbEntity
  8
SEMA2D
100
AcDbLine
370
9
 62
0
 48
0
  6
_SOLID
 10
1.6102123454
 20
2.6762552547
 30
0
 11
1.6103734109
 21
2.6762113178
 31
0
  0
LINE
  5
220
100
AcDbEntity
  8
SEMA2D
100
AcDbLine
370
9
 62
0
 48
0
  6
_SOLID
 10
1.6103734109
 20
2.6762113178
 30
0
 11
1.6151135237
 21
2.6762113178
 31
0
  0
LINE
  5
221
100
AcDbEntity
  8
SEMA2D
100
AcDbLine
370
9
 62
0
 48
0
  6
_SOLID
 10
1.6151135237
 20
2.6762113178
 30
0
 11
1.6347105448
 21
2.6701159444
 31
0
  0
LINE
  5
222
100
AcDbEntity
  8
SEMA2D
100
AcDbLine
370
9
 62
0
 48
0
  6
_SOLID
 10
1.6347105448
 20
2.6701159444
 30
0
 11
1.64710966635
 21
2.6630136227375
 31
0
  0
LINE
  5
223
100
AcDbEntity
  8
SEMA2D
100
AcDbLine
370
9
 62
0
 48
0
  6
_SOLID
 10
1.64710966635
 20
2.6630136227375
 30
0
 11
1.6581007184
 21
2.6537551938
 31
0
  0
LINE
  5
224
100
AcDbEntity
  8
SEMA2D
100
AcDbLine
370
9
 62
0
 48
0
  6
_SOLID
 10
1.6581007184
 20
2.6537551938
 30
0
 11
1.6679627604
 21
2.6416200735
 31
0
  0
LINE
  5
225
100
AcDbEntity
  8
SEMA2D
100
AcDbLine
370
9
 62
0
 48
0
  6
_SOLID
 10
1.6679627604
 20
2.6416200735
 30
0
 11
1.6765290668
 21
2.6245041932
 31
0
  0
LINE
  5
226
100
AcDbEntity
  8
SEMA2D
100
AcDbLine
370
9
 62
0
 48
0
  6
_SOLID
 10
1.6765290668
 20
2.6245041932
 30
0
 11
1.6801413361
 21
2.6105534856
 31
0
  0
LINE
  5
227
100
AcDbEntity
  8
SEMA2D
100
AcDbLine
370
9
 62
0
 48
0
  6
_SOLID
 10
1.6801413361
 20
2.6105534856
 30
0
 11
1.6820369018
 21
2.607409912
 31
0
  0
LINE
  5
228
100
AcDbEntity
  8
SEMA2D
100
AcDbLine
370
9
 62
0
 48
0
  6
_SOLID
 10
1.6820369018
 20
2.607409912
 30
0
 11
1.6854942744
 21
2.6061763
 31
0
  0
LINE
  5
229
100
AcDbEntity
  8
SEMA2D
100
AcDbLine
370
9
 62
0
 48
0
  6
_SOLID
 10
1.6854942744
 20
2.6061763
 30
0
 11
1.7095623321
 21
2.6061763068
 31
0
  0
LINE
  5
22A
100
AcDbEntity
  8
SEMA2D
100
AcDbLine
370
9
 62
0
 48
0
  6
_SOLID
 10
1.7095623321
 20
2.6061763068
 30
0
 11
1.7061049595
 21
2.6074099188
 31
0
  0
LINE
  5
22B
100
AcDbEntity
  8
SEMA2D
100
AcDbLine
370
9
 62
0
 48
0
  6
_SOLID
 10
1.7061049595
 20
2.6074099188
 30
0
 11
1.7042093939
 21
2.6105534925
 31
0
  0
LINE
  5
22C
100
AcDbEntity
  8
SEMA2D
100
AcDbLine
370
9
 62
0
 48
0
  6
_SOLID
 10
1.7042093939
 20
2.6105534925
 30
0
 11
1.7042064065
 21
2.6105606615
 31
0
  0
LINE
  5
22D
100
AcDbEntity
  8
SEMA2D
100
AcDbLine
370
9
 62
0
 48
0
  6
_SOLID
 10
1.7042064065
 20
2.6105606615
 30
0
 11
1.7042139485
 21
2.6105541983
 31
0
  0
LINE
  5
22E
100
AcDbEntity
  8
SEMA2D
100
AcDbLine
370
9
 62
0
 48
0
  6
_SOLID
 10
1.7042139485
 20
2.6105541983
 30
0
 11
1.701511866725
 21
2.62296121003906
 31
0
  0
LINE
  5
22F
100
AcDbEntity
  8
SEMA2D
100
AcDbLine
370
9
 62
0
 48
0
  6
_SOLID
 10
1.701511866725
 20
2.62296121003906
 30
0
 11
1.697361124625
 21
2.6348674527875
 31
0
  0
LINE
  5
230
100
AcDbEntity
  8
SEMA2D
100
AcDbLine
370
9
 62
0
 48
0
  6
_SOLID
 10
1.697361124625
 20
2.6348674527875
 30
0
 11
1.6918289007875
 21
2.64615226531719
 31
0
  0
LINE
  5
231
100
AcDbEntity
  8
SEMA2D
100
AcDbLine
370
9
 62
0
 48
0
  6
_SOLID
 10
1.6918289007875
 20
2.64615226531719
 30
0
 11
1.6849823738
 21
2.6566949864
 31
0
  0
LINE
  5
232
100
AcDbEntity
  8
SEMA2D
100
AcDbLine
370
9
 62
0
 48
0
  6
_SOLID
 10
1.6849823738
 20
2.6566949864
 30
0
 11
1.6849816192
 21
2.6566960083
 31
0
  0
LINE
  5
233
100
AcDbEntity
  8
SEMA2D
100
AcDbLine
370
9
 62
0
 48
0
  6
_SOLID
 10
1.6849816192
 20
2.6566960083
 30
0
 11
1.6688941297
 21
2.673993043
 31
0
  0
LINE
  5
234
100
AcDbEntity
  8
SEMA2D
100
AcDbLine
370
9
 62
0
 48
0
  6
_SOLID
 10
1.6688941297
 20
2.673993043
 30
0
 11
1.6569663951375
 21
2.682828606625
 31
0
  0
LINE
  5
235
100
AcDbEntity
  8
SEMA2D
100
AcDbLine
370
9
 62
0
 48
0
  6
_SOLID
 10
1.6569663951375
 20
2.682828606625
 30
0
 11
1.6440089606
 21
2.6898418684
 31
0
  0
LINE
  5
236
100
AcDbEntity
  8
SEMA2D
100
AcDbLine
370
9
 62
0
 48
0
  6
_SOLID
 10
1.6440089606
 20
2.6898418684
 30
0
 11
1.6229808411625
 21
2.6968021220125
 31
0
  0
LINE
  5
237
100
AcDbEntity
  8
SEMA2D
100
AcDbLine
370
9
 62
0
 48
0
  6
_SOLID
 10
1.6229808411625
 20
2.6968021220125
 30
0
 11
1.6007945034
 21
2.6991806887
 31
0
  0
LINE
  5
238
100
AcDbEntity
  8
SEMA2D
100
AcDbLine
370
9
 62
0
 48
0
  6
_SOLID
 10
1.6007945034
 20
2.6991806887
 30
0
 11
1.5970786148
 21
2.6991806887
 31
0
  0
LINE
  5
239
100
AcDbEntity
  8
SEMA2D
100
AcDbLine
370
9
 62
0
 48
0
  6
_SOLID
 10
1.5970786148
 20
2.6991806887
 30
0
 11
1.57675274585
 21
2.6971880856625
 31
0
  0
LINE
  5
23A
100
AcDbEntity
  8
SEMA2D
100
AcDbLine
370
9
 62
0
 48
0
  6
_SOLID
 10
1.57675274585
 20
2.6971880856625
 30
0
 11
1.5573447779
 21
2.6913444841
 31
0
  0
LINE
  5
23B
100
AcDbEntity
  8
SEMA2D
100
AcDbLine
370
9
 62
0
 48
0
  6
_SOLID
 10
1.5573447779
 20
2.6913444841
 30
0
 11
1.5425228455375
 21
2.6838361399
 31
0
  0
LINE
  5
23C
100
AcDbEntity
  8
SEMA2D
100
AcDbLine
370
9
 62
0
 48
0
  6
_SOLID
 10
1.5425228455375
 20
2.6838361399
 30
0
 11
1.5289789884
 21
2.673993043
 31
0
  0
LINE
  5
23D
100
AcDbEntity
  8
SEMA2D
100
AcDbLine
370
9
 62
0
 48
0
  6
_SOLID
 10
1.5289789884
 20
2.673993043
 30
0
 11
1.5188431474
 21
2.6640372771
 31
0
  0
LINE
  5
23E
100
AcDbEntity
  8
SEMA2D
100
AcDbLine
370
9
 62
0
 48
0
  6
_SOLID
 10
1.5188431474
 20
2.6640372771
 30
0
 11
1.5074072856875
 21
2.6484851654375
 31
0
  0
LINE
  5
23F
100
AcDbEntity
  8
SEMA2D
100
AcDbLine
370
9
 62
0
 48
0
  6
_SOLID
 10
1.5074072856875
 20
2.6484851654375
 30
0
 11
1.4990322093
 21
2.6311245805
 31
0
  0
LINE
  5
240
100
AcDbEntity
  8
SEMA2D
100
AcDbLine
370
9
 62
0
 48
0
  6
_SOLID
 10
1.4990322093
 20
2.6311245805
 30
0
 11
1.4936591696
 21
2.6105541983
 31
0
  0
LINE
  5
241
100
AcDbEntity
  8
SEMA2D
100
AcDbLine
370
9
 62
0
 48
0
  6
_SOLID
 10
1.4936591696
 20
2.6105541983
 30
0
 11
1.4936652737
 21
2.6105594293
 31
0
  0
LINE
  5
242
100
AcDbEntity
  8
SEMA2D
100
AcDbLine
370
9
 62
0
 48
0
  6
_SOLID
 10
1.4936652737
 20
2.6105594293
 30
0
 11
1.4936637241
 21
2.6105534919
 31
0
  0
LINE
  5
243
100
AcDbEntity
  8
SEMA2D
100
AcDbLine
370
9
 62
0
 48
0
  6
_SOLID
 10
1.4936637241
 20
2.6105534919
 30
0
 11
1.4935109467
 21
2.6099681099
 31
0
  0
LINE
  5
244
100
AcDbEntity
  8
SEMA2D
100
AcDbLine
370
9
 62
0
 48
0
  6
_SOLID
 10
1.4935109467
 20
2.6099681099
 30
0
 11
1.4917681586
 21
2.6074099188
 31
0
  0
LINE
  5
245
100
AcDbEntity
  8
SEMA2D
100
AcDbLine
370
9
 62
0
 48
0
  6
_SOLID
 10
1.4917681586
 20
2.6074099188
 30
0
 11
1.488310786
 21
2.6061763068
 31
0
  0
LINE
  5
246
100
AcDbEntity
  8
SEMA2D
100
AcDbLine
370
9
 62
0
 48
0
  6
_SOLID
 10
1.488310786
 20
2.6061763068
 30
0
 11
1.5123792801
 21
2.6061762495
 31
0
  0
LINE
  5
247
100
AcDbEntity
  8
SEMA2D
100
AcDbLine
370
9
 62
0
 48
0
  6
_SOLID
 10
1.5123792801
 20
2.6061762495
 30
0
 11
1.5158368909
 21
2.6074100561
 31
0
  0
LINE
  5
248
100
AcDbEntity
  8
SEMA2D
100
AcDbLine
370
9
 62
0
 48
0
  6
_SOLID
 10
1.5158368909
 20
2.6074100561
 30
0
 11
1.5177317821
 21
2.6105534856
 31
0
  0
LINE
  5
249
100
AcDbEntity
  8
SEMA2D
100
AcDbLine
370
9
 62
0
 48
0
  6
_SOLID
 10
1.5177317821
 20
2.6105534856
 30
0
 11
1.5299103577
 21
2.6416200734
 31
0
  0
LINE
  5
24A
100
AcDbEntity
  8
SEMA2D
100
AcDbLine
370
9
 62
0
 48
0
  6
_SOLID
 10
1.5299103577
 20
2.6416200734
 30
0
 11
1.5397723997
 21
2.6537551938
 31
0
  0
LINE
  5
24B
100
AcDbEntity
  8
SEMA2D
100
AcDbLine
370
9
 62
0
 48
0
  6
_SOLID
 10
1.5397723997
 20
2.6537551938
 30
0
 11
1.5631625733
 21
2.6701159444
 31
0
  0
LINE
  5
24C
100
AcDbEntity
  8
SEMA2D
100
AcDbLine
370
9
 62
0
 48
0
  6
_SOLID
 10
1.5631625733
 20
2.6701159444
 30
0
 11
1.5633761631
 21
2.6702136575
 31
0
  0
LINE
  5
24D
100
AcDbEntity
  8
SEMA2D
100
AcDbLine
370
9
 62
0
 48
0
  6
_SOLID
 10
1.5633761631
 20
2.6702136575
 30
0
 11
1.5641069002
 21
2.6708284402
 31
0
  0
LINE
  5
24E
100
AcDbEntity
  8
SEMA2D
100
AcDbLine
370
9
 62
0
 48
0
  6
_SOLID
 10
1.5641069002
 20
2.6708284402
 30
0
 11
1.5661768151
 21
2.6714257856
 31
0
  0
LINE
  5
24F
100
AcDbEntity
  8
SEMA2D
100
AcDbLine
370
9
 62
0
 48
0
  6
_SOLID
 10
1.5661768151
 20
2.6714257856
 30
0
 11
1.5827595945
 21
2.6762113178
 31
0
  0
LINE
  5
250
100
AcDbEntity
  8
SEMA2D
100
AcDbLine
370
9
 62
0
 48
0
  6
_SOLID
 10
1.5827595945
 20
2.6762113178
 30
0
 11
1.6102123454
 21
2.6762552547
 31
0
  0
LINE
  5
251
100
AcDbEntity
  8
SEMA2D
100
AcDbLine
370
9
 62
0
 48
0
  6
_SOLID
 10
1.6102123454
 20
2.6762552547
 30
0
 11
1.6103734109
 21
2.6762113178
 31
0
  0
LINE
  5
252
100
AcDbEntity
  8
SEMA2D
100
AcDbLine
370
9
 62
0
 48
0
  6
_SOLID
 10
1.6103734109
 20
2.6762113178
 30
0
 11
1.6151135237
 21
2.6762113178
 31
0
  0
LINE
  5
253
100
AcDbEntity
  8
SEMA2D
100
AcDbLine
370
9
 62
0
 48
0
  6
_SOLID
 10
1.6151135237
 20
2.6762113178
 30
0
 11
1.6347105448
 21
2.6701159444
 31
0
  0
LINE
  5
254
100
AcDbEntity
  8
SEMA2D
100
AcDbLine
370
9
 62
0
 48
0
  6
_SOLID
 10
1.6347105448
 20
2.6701159444
 30
0
 11
1.6581007184
 21
2.6537551938
 31
0
  0
LINE
  5
255
100
AcDbEntity
  8
SEMA2D
100
AcDbLine
370
9
 62
0
 48
0
  6
_SOLID
 10
1.6581007184
 20
2.6537551938
 30
0
 11
1.6679627604
 21
2.6416200735
 31
0
  0
LINE
  5
256
100
AcDbEntity
  8
SEMA2D
100
AcDbLine
370
9
 62
0
 48
0
  6
_SOLID
 10
1.6679627604
 20
2.6416200735
 30
0
 11
1.6765290668
 21
2.6245041932
 31
0
  0
LINE
  5
257
100
AcDbEntity
  8
SEMA2D
100
AcDbLine
370
9
 62
0
 48
0
  6
_SOLID
 10
1.6765290668
 20
2.6245041932
 30
0
 11
1.6801413361
 21
2.6105534856
 31
0
  0
LINE
  5
258
100
AcDbEntity
  8
SEMA2D
100
AcDbLine
370
9
 62
0
 48
0
  6
_SOLID
 10
1.6801413361
 20
2.6105534856
 30
0
 11
1.6820369018
 21
2.607409912
 31
0
  0
LINE
  5
259
100
AcDbEntity
  8
SEMA2D
100
AcDbLine
370
9
 62
0
 48
0
  6
_SOLID
 10
1.6820369018
 20
2.607409912
 30
0
 11
1.6854942744
 21
2.6061763
 31
0
  0
LINE
  5
25A
100
AcDbEntity
  8
SEMA2D
100
AcDbLine
370
9
 62
0
 48
0
  6
_SOLID
 10
1.6854942744
 20
2.6061763
 30
0
 11
1.7095623321
 21
2.6061763068
 31
0
  0
LINE
  5
25B
100
AcDbEntity
  8
SEMA2D
100
AcDbLine
370
9
 62
0
 48
0
  6
_SOLID
 10
1.7095623321
 20
2.6061763068
 30
0
 11
1.7061049595
 21
2.6074099188
 31
0
  0
LINE
  5
25C
100
AcDbEntity
  8
SEMA2D
100
AcDbLine
370
9
 62
0
 48
0
  6
_SOLID
 10
1.7061049595
 20
2.6074099188
 30
0
 11
1.7042093939
 21
2.6105534925
 31
0
  0
LINE
  5
25D
100
AcDbEntity
  8
SEMA2D
100
AcDbLine
370
9
 62
0
 48
0
  6
_SOLID
 10
1.7042093939
 20
2.6105534925
 30
0
 11
1.7042064065
 21
2.6105606615
 31
0
  0
LINE
  5
25E
100
AcDbEntity
  8
SEMA2D
100
AcDbLine
370
9
 62
0
 48
0
  6
_SOLID
 10
1.7042064065
 20
2.6105606615
 30
0
 11
1.7042139485
 21
2.6105541983
 31
0
  0
LINE
  5
25F
100
AcDbEntity
  8
SEMA2D
100
AcDbLine
370
9
 62
0
 48
0
  6
_SOLID
 10
1.7042139485
 20
2.6105541983
 30
0
 11
1.6849823738
 21
2.6566949864
 31
0
  0
LINE
  5
260
100
AcDbEntity
  8
SEMA2D
100
AcDbLine
370
9
 62
0
 48
0
  6
_SOLID
 10
1.6849823738
 20
2.6566949864
 30
0
 11
1.6849816192
 21
2.6566960083
 31
0
  0
LINE
  5
261
100
AcDbEntity
  8
SEMA2D
100
AcDbLine
370
9
 62
0
 48
0
  6
_SOLID
 10
1.6849816192
 20
2.6566960083
 30
0
 11
1.6688941297
 21
2.673993043
 31
0
  0
LINE
  5
262
100
AcDbEntity
  8
SEMA2D
100
AcDbLine
370
9
 62
0
 48
0
  6
_SOLID
 10
1.6688941297
 20
2.673993043
 30
0
 11
1.6440089606
 21
2.6898418684
 31
0
  0
LINE
  5
263
100
AcDbEntity
  8
SEMA2D
100
AcDbLine
370
9
 62
0
 48
0
  6
_SOLID
 10
1.6440089606
 20
2.6898418684
 30
0
 11
1.6007945034
 21
2.6991806887
 31
0
  0
LINE
  5
264
100
AcDbEntity
  8
SEMA2D
100
AcDbLine
370
9
 62
0
 48
0
  6
_SOLID
 10
1.6007945034
 20
2.6991806887
 30
0
 11
1.5970786148
 21
2.6991806887
 31
0
  0
LINE
  5
265
100
AcDbEntity
  8
SEMA2D
100
AcDbLine
370
9
 62
0
 48
0
  6
_SOLID
 10
1.5970786148
 20
2.6991806887
 30
0
 11
1.5573447779
 21
2.6913444841
 31
0
  0
LINE
  5
266
100
AcDbEntity
  8
SEMA2D
100
AcDbLine
370
9
 62
0
 48
0
  6
_SOLID
 10
1.5573447779
 20
2.6913444841
 30
0
 11
1.5289789884
 21
2.673993043
 31
0
  0
LINE
  5
267
100
AcDbEntity
  8
SEMA2D
100
AcDbLine
370
9
 62
0
 48
0
  6
_SOLID
 10
1.5289789884
 20
2.673993043
 30
0
 11
1.5188431474
 21
2.6640372771
 31
0
  0
LINE
  5
268
100
AcDbEntity
  8
SEMA2D
100
AcDbLine
370
9
 62
0
 48
0
  6
_SOLID
 10
1.5188431474
 20
2.6640372771
 30
0
 11
1.4990322093
 21
2.6311245805
 31
0
  0
LINE
  5
269
100
AcDbEntity
  8
SEMA2D
100
AcDbLine
370
9
 62
0
 48
0
  6
_SOLID
 10
1.4990322093
 20
2.6311245805
 30
0
 11
1.4936591696
 21
2.6105541983
 31
0
  0
LINE
  5
26A
100
AcDbEntity
  8
SEMA2D
100
AcDbLine
370
9
 62
0
 48
0
  6
_SOLID
 10
1.4936591696
 20
2.6105541983
 30
0
 11
1.4936652737
 21
2.6105594293
 31
0
  0
LINE
  5
26B
100
AcDbEntity
  8
SEMA2D
100
AcDbLine
370
9
 62
0
 48
0
  6
_SOLID
 10
1.4936652737
 20
2.6105594293
 30
0
 11
1.4936637241
 21
2.6105534919
 31
0
  0
LINE
  5
26C
100
AcDbEntity
  8
SEMA2D
100
AcDbLine
370
9
 62
0
 48
0
  6
_SOLID
 10
1.4936637241
 20
2.6105534919
 30
0
 11
1.4935109467
 21
2.6099681099
 31
0
  0
LINE
  5
26D
100
AcDbEntity
  8
SEMA2D
100
AcDbLine
370
9
 62
0
 48
0
  6
_SOLID
 10
1.4935109467
 20
2.6099681099
 30
0
 11
1.4917681586
 21
2.6074099188
 31
0
  0
LINE
  5
26E
100
AcDbEntity
  8
SEMA2D
100
AcDbLine
370
9
 62
0
 48
0
  6
_SOLID
 10
1.4917681586
 20
2.6074099188
 30
0
 11
1.488310786
 21
2.6061763068
 31
0
  0
LINE
  5
26F
100
AcDbEntity
  8
SEMA2D
100
AcDbLine
370
9
 62
0
 48
0
  6
_SOLID
 10
1.488310786
 20
2.6061763068
 30
0
 11
1.5123792801
 21
2.6061762495
 31
0
  0
LINE
  5
270
100
AcDbEntity
  8
SEMA2D
100
AcDbLine
370
9
 62
0
 48
0
  6
_SOLID
 10
1.5123792801
 20
2.6061762495
 30
0
 11
1.5158368909
 21
2.6074100561
 31
0
  0
LINE
  5
271
100
AcDbEntity
  8
SEMA2D
100
AcDbLine
370
9
 62
0
 48
0
  6
_SOLID
 10
1.5158368909
 20
2.6074100561
 30
0
 11
1.5177317821
 21
2.6105534856
 31
0
  0
LINE
  5
272
100
AcDbEntity
  8
SEMA2D
100
AcDbLine
370
9
 62
0
 48
0
  6
_SOLID
 10
1.5177317821
 20
2.6105534856
 30
0
 11
1.5299103577
 21
2.6416200734
 31
0
  0
LINE
  5
273
100
AcDbEntity
  8
SEMA2D
100
AcDbLine
370
9
 62
0
 48
0
  6
_SOLID
 10
1.5299103577
 20
2.6416200734
 30
0
 11
1.5397723997
 21
2.6537551938
 31
0
  0
LINE
  5
274
100
AcDbEntity
  8
SEMA2D
100
AcDbLine
370
9
 62
0
 48
0
  6
_SOLID
 10
1.5397723997
 20
2.6537551938
 30
0
 11
1.5631625733
 21
2.6701159444
 31
0
  0
LINE
  5
275
100
AcDbEntity
  8
SEMA2D
100
AcDbLine
370
9
 62
0
 48
0
  6
_SOLID
 10
1.5631625733
 20
2.6701159444
 30
0
 11
1.5633761631
 21
2.6702136575
 31
0
  0
LINE
  5
276
100
AcDbEntity
  8
SEMA2D
100
AcDbLine
370
9
 62
0
 48
0
  6
_SOLID
 10
1.5633761631
 20
2.6702136575
 30
0
 11
1.5641069002
 21
2.6708284402
 31
0
  0
LINE
  5
277
100
AcDbEntity
  8
SEMA2D
100
AcDbLine
370
9
 62
0
 48
0
  6
_SOLID
 10
1.5641069002
 20
2.6708284402
 30
0
 11
1.5661768151
 21
2.6714257856
 31
0
  0
LINE
  5
278
100
AcDbEntity
  8
SEMA2D
100
AcDbLine
370
9
 62
0
 48
0
  6
_SOLID
 10
1.5661768151
 20
2.6714257856
 30
0
 11
1.5827595945
 21
2.6762113178
 31
0
  0
LINE
  5
279
100
AcDbEntity
  8
SEMA2D
100
AcDbLine
370
9
 62
0
 48
0
  6
_SOLID
 10
1.5827595945
 20
2.6762113178
 30
0
 11
1.6102123454
 21
2.6762552547
 31
0
  0
LINE
  5
27A
100
AcDbEntity
  8
SEMA2D
100
AcDbLine
370
9
 62
0
 48
0
  6
_SOLID
 10
1.6102123454
 20
2.6762552547
 30
0
 11
1.6103734109
 21
2.6762113178
 31
0
  0
LINE
  5
27B
100
AcDbEntity
  8
SEMA2D
100
AcDbLine
370
9
 62
0
 48
0
  6
_SOLID
 10
1.6103734109
 20
2.6762113178
 30
0
 11
1.6151135237
 21
2.6762113178
 31
0
  0
LINE
  5
27C
100
AcDbEntity
  8
SEMA2D
100
AcDbLine
370
9
 62
0
 48
0
  6
_SOLID
 10
1.6151135237
 20
2.6762113178
 30
0
 11
1.6347105448
 21
2.6701159444
 31
0
  0
LINE
  5
27D
100
AcDbEntity
  8
SEMA2D
100
AcDbLine
370
9
 62
0
 48
0
  6
_SOLID
 10
1.6347105448
 20
2.6701159444
 30
0
 11
1.6581007184
 21
2.6537551938
 31
0
  0
LINE
  5
27E
100
AcDbEntity
  8
SEMA2D
100
AcDbLine
370
9
 62
0
 48
0
  6
_SOLID
 10
1.6581007184
 20
2.6537551938
 30
0
 11
1.6679627604
 21
2.6416200735
 31
0
  0
LINE
  5
27F
100
AcDbEntity
  8
SEMA2D
100
AcDbLine
370
9
 62
0
 48
0
  6
_SOLID
 10
1.6679627604
 20
2.6416200735
 30
0
 11
1.6765290668
 21
2.6245041932
 31
0
  0
LINE
  5
280
100
AcDbEntity
  8
SEMA2D
100
AcDbLine
370
9
 62
0
 48
0
  6
_SOLID
 10
1.6765290668
 20
2.6245041932
 30
0
 11
1.6801413361
 21
2.6105534856
 31
0
  0
LINE
  5
281
100
AcDbEntity
  8
SEMA2D
100
AcDbLine
370
9
 62
0
 48
0
  6
_SOLID
 10
1.6801413361
 20
2.6105534856
 30
0
 11
1.6820369018
 21
2.607409912
 31
0
  0
LINE
  5
282
100
AcDbEntity
  8
SEMA2D
100
AcDbLine
370
9
 62
0
 48
0
  6
_SOLID
 10
1.6820369018
 20
2.607409912
 30
0
 11
1.6854942744
 21
2.6061763
 31
0
  0
LINE
  5
283
100
AcDbEntity
  8
SEMA2D
100
AcDbLine
370
9
 62
0
 48
0
  6
_SOLID
 10
1.6854942744
 20
2.6061763
 30
0
 11
1.7095623321
 21
2.6061763068
 31
0
  0
LINE
  5
284
100
AcDbEntity
  8
SEMA2D
100
AcDbLine
370
9
 62
0
 48
0
  6
_SOLID
 10
1.7095623321
 20
2.6061763068
 30
0
 11
1.7061049595
 21
2.6074099188
 31
0
  0
LINE
  5
285
100
AcDbEntity
  8
SEMA2D
100
AcDbLine
370
9
 62
0
 48
0
  6
_SOLID
 10
1.7061049595
 20
2.6074099188
 30
0
 11
1.7042093939
 21
2.6105534925
 31
0
  0
LINE
  5
286
100
AcDbEntity
  8
SEMA2D
100
AcDbLine
370
9
 62
0
 48
0
  6
_SOLID
 10
1.7042093939
 20
2.6105534925
 30
0
 11
1.7042064065
 21
2.6105606615
 31
0
  0
LINE
  5
287
100
AcDbEntity
  8
SEMA2D
100
AcDbLine
370
9
 62
0
 48
0
  6
_SOLID
 10
1.7042064065
 20
2.6105606615
 30
0
 11
1.7042139485
 21
2.6105541983
 31
0
  0
LINE
  5
288
100
AcDbEntity
  8
SEMA2D
100
AcDbLine
370
9
 62
0
 48
0
  6
_SOLID
 10
1.7042139485
 20
2.6105541983
 30
0
 11
1.6849823738
 21
2.6566949864
 31
0
  0
LINE
  5
289
100
AcDbEntity
  8
SEMA2D
100
AcDbLine
370
9
 62
0
 48
0
  6
_SOLID
 10
1.6849823738
 20
2.6566949864
 30
0
 11
1.6849816192
 21
2.6566960083
 31
0
  0
LINE
  5
28A
100
AcDbEntity
  8
SEMA2D
100
AcDbLine
370
9
 62
0
 48
0
  6
_SOLID
 10
1.6849816192
 20
2.6566960083
 30
0
 11
1.6688941297
 21
2.673993043
 31
0
  0
LINE
  5
28B
100
AcDbEntity
  8
SEMA2D
100
AcDbLine
370
9
 62
0
 48
0
  6
_SOLID
 10
1.6688941297
 20
2.673993043
 30
0
 11
1.6440089606
 21
2.6898418684
 31
0
  0
LINE
  5
28C
100
AcDbEntity
  8
SEMA2D
100
AcDbLine
370
9
 62
0
 48
0
  6
_SOLID
 10
1.6440089606
 20
2.6898418684
 30
0
 11
1.6007945034
 21
2.6991806887
 31
0
  0
LINE
  5
28D
100
AcDbEntity
  8
SEMA2D
100
AcDbLine
370
9
 62
0
 48
0
  6
_SOLID
 10
1.6007945034
 20
2.6991806887
 30
0
 11
1.5970786148
 21
2.6991806887
 31
0
  0
LINE
  5
28E
100
AcDbEntity
  8
SEMA2D
100
AcDbLine
370
9
 62
0
 48
0
  6
_SOLID
 10
1.5970786148
 20
2.6991806887
 30
0
 11
1.5573447779
 21
2.6913444841
 31
0
  0
LINE
  5
28F
100
AcDbEntity
  8
SEMA2D
100
AcDbLine
370
9
 62
0
 48
0
  6
_SOLID
 10
1.5573447779
 20
2.6913444841
 30
0
 11
1.5289789884
 21
2.673993043
 31
0
  0
LINE
  5
290
100
AcDbEntity
  8
SEMA2D
100
AcDbLine
370
9
 62
0
 48
0
  6
_SOLID
 10
1.5289789884
 20
2.673993043
 30
0
 11
1.5188431474
 21
2.6640372771
 31
0
  0
LINE
  5
291
100
AcDbEntity
  8
SEMA2D
100
AcDbLine
370
9
 62
0
 48
0
  6
_SOLID
 10
1.5188431474
 20
2.6640372771
 30
0
 11
1.4990322093
 21
2.6311245805
 31
0
  0
LINE
  5
292
100
AcDbEntity
  8
SEMA2D
100
AcDbLine
370
9
 62
0
 48
0
  6
_SOLID
 10
1.4990322093
 20
2.6311245805
 30
0
 11
1.4936591696
 21
2.6105541983
 31
0
  0
LINE
  5
293
100
AcDbEntity
  8
SEMA2D
100
AcDbLine
370
9
 62
0
 48
0
  6
_SOLID
 10
1.4936591696
 20
2.6105541983
 30
0
 11
1.4936652737
 21
2.6105594293
 31
0
  0
LINE
  5
294
100
AcDbEntity
  8
SEMA2D
100
AcDbLine
370
9
 62
0
 48
0
  6
_SOLID
 10
1.4936652737
 20
2.6105594293
 30
0
 11
1.4936637241
 21
2.6105534919
 31
0
  0
LINE
  5
295
100
AcDbEntity
  8
SEMA2D
100
AcDbLine
370
9
 62
0
 48
0
  6
_SOLID
 10
1.4936637241
 20
2.6105534919
 30
0
 11
1.4935109467
 21
2.6099681099
 31
0
  0
LINE
  5
296
100
AcDbEntity
  8
SEMA2D
100
AcDbLine
370
9
 62
0
 48
0
  6
_SOLID
 10
1.4935109467
 20
2.6099681099
 30
0
 11
1.4917681586
 21
2.6074099188
 31
0
  0
LINE
  5
297
100
AcDbEntity
  8
SEMA2D
100
AcDbLine
370
9
 62
0
 48
0
  6
_SOLID
 10
1.4917681586
 20
2.6074099188
 30
0
 11
1.488310786
 21
2.6061763068
 31
0
  0
LINE
  5
298
100
AcDbEntity
  8
SEMA2D
100
AcDbLine
370
9
 62
0
 48
0
  6
_SOLID
 10
1.488310786
 20
2.6061763068
 30
0
 11
1.5123792801
 21
2.6061762495
 31
0
  0
LINE
  5
299
100
AcDbEntity
  8
SEMA2D
100
AcDbLine
370
9
 62
0
 48
0
  6
_SOLID
 10
1.5123792801
 20
2.6061762495
 30
0
 11
1.5158368909
 21
2.6074100561
 31
0
  0
LINE
  5
29A
100
AcDbEntity
  8
SEMA2D
100
AcDbLine
370
9
 62
0
 48
0
  6
_SOLID
 10
1.5158368909
 20
2.6074100561
 30
0
 11
1.5177317821
 21
2.6105534856
 31
0
  0
LINE
  5
29B
100
AcDbEntity
  8
SEMA2D
100
AcDbLine
370
9
 62
0
 48
0
  6
_SOLID
 10
1.1362306553
 20
1.9849019464
 30
0
 11
1.2458645561
 21
1.9849019464
 31
0
  0
MTEXT
  5
29D
100
AcDbEntity
  8
SEMATEXT
100
AcDbMText
370
9
 62
0
 10
1.18510468004774
 20
1.99013172097399
 30
0
 40
0.00813617953440476
  1
{\fArial Narrow;110}
 50
0
 41
0
  7
STANDARD
 71
7
  0
LINE
  5
2A2
100
AcDbEntity
  8
SEMA2D
100
AcDbLine
370
9
 62
0
 48
0
  6
_SOLID
 10
1.1362306553
 20
1.9849019464
 30
0
 11
1.1362306553
 21
1.9920211034926
 31
0
  0
LINE
  5
2A3
100
AcDbEntity
  8
SEMA2D
100
AcDbLine
370
9
 62
0
 48
0
  6
_SOLID
 10
1.1362306553
 20
1.9849019464
 30
0
 11
1.1362306553
 21
1.9777827893074
 31
0
  0
LINE
  5
2A4
100
AcDbEntity
  8
SEMA2D
100
AcDbLine
370
9
 62
0
 48
0
  6
_SOLID
 10
1.1362306553
 20
1.9849019464
 30
0
 11
1.14239602619573
 21
1.9884615249463
 31
0
  0
LINE
  5
2A5
100
AcDbEntity
  8
SEMA2D
100
AcDbLine
370
9
 62
0
 48
0
  6
_SOLID
 10
1.1362306553
 20
1.9849019464
 30
0
 11
1.13006528440427
 21
1.9813423678537
 31
0
  0
LINE
  5
2A6
100
AcDbEntity
  8
SEMA2D
100
AcDbLine
370
9
 62
0
 48
0
  6
_DOT
 10
1.1362306553
 20
2.0849019464
 30
0
 11
1.1362306553
 21
1.9849019464
 31
0
  0
LINE
  5
2A7
100
AcDbEntity
  8
SEMA2D
100
AcDbLine
370
9
 62
0
 48
0
  6
_SOLID
 10
1.2458645561
 20
1.9849019464
 30
0
 11
1.2458645561
 21
1.9920211034926
 31
0
  0
LINE
  5
2A8
100
AcDbEntity
  8
SEMA2D
100
AcDbLine
370
9
 62
0
 48
0
  6
_SOLID
 10
1.2458645561
 20
1.9849019464
 30
0
 11
1.2458645561
 21
1.9777827893074
 31
0
  0
LINE
  5
2A9
100
AcDbEntity
  8
SEMA2D
100
AcDbLine
370
9
 62
0
 48
0
  6
_SOLID
 10
1.2458645561
 20
1.9849019464
 30
0
 11
1.25202992699573
 21
1.9884615249463
 31
0
  0
LINE
  5
2AA
100
AcDbEntity
  8
SEMA2D
100
AcDbLine
370
9
 62
0
 48
0
  6
_SOLID
 10
1.2458645561
 20
1.9849019464
 30
0
 11
1.23969918520427
 21
1.9813423678537
 31
0
  0
LINE
  5
2AB
100
AcDbEntity
  8
SEMA2D
100
AcDbLine
370
9
 62
0
 48
0
  6
_DOT
 10
1.2458645561
 20
2.0849019464
 30
0
 11
1.2458645561
 21
1.9849019464
 31
0
  0
LINE
  5
2AC
100
AcDbEntity
  8
SEMA2D
100
AcDbLine
370
9
 62
0
 48
0
  6
_SOLID
 10
1.500936559
 20
2.7568775356
 30
0
 11
1.695936559
 21
2.7568775356
 31
0
  0
MTEXT
  5
2AD
100
AcDbEntity
  8
SEMATEXT
100
AcDbMText
370
9
 62
0
 10
1.59249363334774
 20
2.76210731017399
 30
0
 40
0.00813617953440476
  1
{\fArial Narrow;195}
 50
0
 41
0
  7
STANDARD
 71
7
  0
LINE
  5
2B1
100
AcDbEntity
  8
SEMA2D
100
AcDbLine
370
9
 62
0
 48
0
  6
_SOLID
 10
1.500936559
 20
2.7568775356
 30
0
 11
1.500936559
 21
2.7639966926926
 31
0
  0
LINE
  5
2B2
100
AcDbEntity
  8
SEMA2D
100
AcDbLine
370
9
 62
0
 48
0
  6
_SOLID
 10
1.500936559
 20
2.7568775356
 30
0
 11
1.500936559
 21
2.7497583785074
 31
0
  0
LINE
  5
2B3
100
AcDbEntity
  8
SEMA2D
100
AcDbLine
370
9
 62
0
 48
0
  6
_SOLID
 10
1.500936559
 20
2.7568775356
 30
0
 11
1.50710192989573
 21
2.7604371141463
 31
0
  0
LINE
  5
2B4
100
AcDbEntity
  8
SEMA2D
100
AcDbLine
370
9
 62
0
 48
0
  6
_SOLID
 10
1.500936559
 20
2.7568775356
 30
0
 11
1.49477118810427
 21
2.7533179570537
 31
0
  0
LINE
  5
2B5
100
AcDbEntity
  8
SEMA2D
100
AcDbLine
370
9
 62
0
 48
0
  6
_DOT
 10
1.500936559
 20
2.7068775356
 30
0
 11
1.500936559
 21
2.7568775356
 31
0
  0
LINE
  5
2B6
100
AcDbEntity
  8
SEMA2D
100
AcDbLine
370
9
 62
0
 48
0
  6
_SOLID
 10
1.695936559
 20
2.7568775356
 30
0
 11
1.695936559
 21
2.7639966926926
 31
0
  0
LINE
  5
2B7
100
AcDbEntity
  8
SEMA2D
100
AcDbLine
370
9
 62
0
 48
0
  6
_SOLID
 10
1.695936559
 20
2.7568775356
 30
0
 11
1.695936559
 21
2.7497583785074
 31
0
  0
LINE
  5
2B8
100
AcDbEntity
  8
SEMA2D
100
AcDbLine
370
9
 62
0
 48
0
  6
_SOLID
 10
1.695936559
 20
2.7568775356
 30
0
 11
1.70210192989573
 21
2.7604371141463
 31
0
  0
LINE
  5
2B9
100
AcDbEntity
  8
SEMA2D
100
AcDbLine
370
9
 62
0
 48
0
  6
_SOLID
 10
1.695936559
 20
2.7568775356
 30
0
 11
1.68977118810427
 21
2.7533179570537
 31
0
  0
LINE
  5
2BA
100
AcDbEntity
  8
SEMA2D
100
AcDbLine
370
9
 62
0
 48
0
  6
_DOT
 10
1.695936559
 20
2.7068775356
 30
0
 11
1.695936559
 21
2.7568775356
 31
0
  0
LINE
  5
2BB
100
AcDbEntity
  8
SEMA2D
100
AcDbLine
370
9
 62
0
 48
0
  6
_SOLID
 10
1.1362306553
 20
2.0349019464
 30
0
 11
1.2458645561
 21
2.0349019464
 31
0
  0
MTEXT
  5
2BC
100
AcDbEntity
  8
SEMATEXT
100
AcDbMText
370
9
 62
0
 10
1.13976870486516
 20
2.04013172097399
 30
0
 40
0.00813617953440476
  1
{\fArial Narrow;15}
 50
0
 41
0
  7
STANDARD
 71
7
  0
MTEXT
  5
2C0
100
AcDbEntity
  8
SEMATEXT
100
AcDbMText
370
9
 62
0
 10
1.19458565526516
 20
2.04013172097399
 30
0
 40
0.00813617953440476
  1
{\fArial Narrow;95}
 50
0
 41
0
  7
STANDARD
 71
7
  0
LINE
  5
2C4
100
AcDbEntity
  8
SEMA2D
100
AcDbLine
370
9
 62
0
 48
0
  6
_SOLID
 10
1.1362306553
 20
2.0349019464
 30
0
 11
1.1362306553
 21
2.0420211034926
 31
0
  0
LINE
  5
2C5
100
AcDbEntity
  8
SEMA2D
100
AcDbLine
370
9
 62
0
 48
0
  6
_SOLID
 10
1.1362306553
 20
2.0349019464
 30
0
 11
1.1362306553
 21
2.0277827893074
 31
0
  0
LINE
  5
2C6
100
AcDbEntity
  8
SEMA2D
100
AcDbLine
370
9
 62
0
 48
0
  6
_SOLID
 10
1.1362306553
 20
2.0349019464
 30
0
 11
1.14239602619573
 21
2.0384615249463
 31
0
  0
LINE
  5
2C7
100
AcDbEntity
  8
SEMA2D
100
AcDbLine
370
9
 62
0
 48
0
  6
_SOLID
 10
1.1362306553
 20
2.0349019464
 30
0
 11
1.13006528440427
 21
2.0313423678537
 31
0
  0
LINE
  5
2C8
100
AcDbEntity
  8
SEMA2D
100
AcDbLine
370
9
 62
0
 48
0
  6
_DOT
 10
1.1362306553
 20
2.0849019464
 30
0
 11
1.1362306553
 21
2.0349019464
 31
0
  0
LINE
  5
2C9
100
AcDbEntity
  8
SEMA2D
100
AcDbLine
370
9
 62
0
 48
0
  6
_SOLID
 10
1.1512306553
 20
2.0349019464
 30
0
 11
1.1512306553
 21
2.0420211034926
 31
0
  0
LINE
  5
2CA
100
AcDbEntity
  8
SEMA2D
100
AcDbLine
370
9
 62
0
 48
0
  6
_SOLID
 10
1.1512306553
 20
2.0349019464
 30
0
 11
1.1512306553
 21
2.0277827893074
 31
0
  0
LINE
  5
2CB
100
AcDbEntity
  8
SEMA2D
100
AcDbLine
370
9
 62
0
 48
0
  6
_SOLID
 10
1.1512306553
 20
2.0349019464
 30
0
 11
1.15739602619573
 21
2.0384615249463
 31
0
  0
LINE
  5
2CC
100
AcDbEntity
  8
SEMA2D
100
AcDbLine
370
9
 62
0
 48
0
  6
_SOLID
 10
1.1512306553
 20
2.0349019464
 30
0
 11
1.14506528440427
 21
2.0313423678537
 31
0
  0
LINE
  5
2CD
100
AcDbEntity
  8
SEMA2D
100
AcDbLine
370
9
 62
0
 48
0
  6
_DOT
 10
1.1512306553
 20
2.0849019464
 30
0
 11
1.1512306553
 21
2.0349019464
 31
0
  0
LINE
  5
2CE
100
AcDbEntity
  8
SEMA2D
100
AcDbLine
370
9
 62
0
 48
0
  6
_SOLID
 10
1.2458645561
 20
2.0349019464
 30
0
 11
1.2458645561
 21
2.0420211034926
 31
0
  0
LINE
  5
2CF
100
AcDbEntity
  8
SEMA2D
100
AcDbLine
370
9
 62
0
 48
0
  6
_SOLID
 10
1.2458645561
 20
2.0349019464
 30
0
 11
1.2458645561
 21
2.0277827893074
 31
0
  0
LINE
  5
2D0
100
AcDbEntity
  8
SEMA2D
100
AcDbLine
370
9
 62
0
 48
0
  6
_SOLID
 10
1.2458645561
 20
2.0349019464
 30
0
 11
1.25202992699573
 21
2.0384615249463
 31
0
  0
LINE
  5
2D1
100
AcDbEntity
  8
SEMA2D
100
AcDbLine
370
9
 62
0
 48
0
  6
_SOLID
 10
1.2458645561
 20
2.0349019464
 30
0
 11
1.23969918520427
 21
2.0313423678537
 31
0
  0
LINE
  5
2D2
100
AcDbEntity
  8
SEMA2D
100
AcDbLine
370
9
 62
0
 48
0
  6
_DOT
 10
1.2458645561
 20
2.0849019464
 30
0
 11
1.2458645561
 21
2.0349019464
 31
0
  0
LINE
  5
2D3
100
AcDbEntity
  8
SEMA2D
100
AcDbLine
370
9
 62
0
 48
0
  6
_SOLID
 10
1.1757095561
 20
2.5780019464
 30
0
 11
1.2458645561
 21
2.5780019464
 31
0
  0
MTEXT
  5
2D4
100
AcDbEntity
  8
SEMATEXT
100
AcDbMText
370
9
 62
0
 10
1.20682510566516
 20
2.58323172097399
 30
0
 40
0.00813617953440476
  1
{\fArial Narrow;70}
 50
0
 41
0
  7
STANDARD
 71
7
  0
LINE
  5
2D8
100
AcDbEntity
  8
SEMA2D
100
AcDbLine
370
9
 62
0
 48
0
  6
_SOLID
 10
1.1757095561
 20
2.5780019464
 30
0
 11
1.1757095561
 21
2.5851211034926
 31
0
  0
LINE
  5
2D9
100
AcDbEntity
  8
SEMA2D
100
AcDbLine
370
9
 62
0
 48
0
  6
_SOLID
 10
1.1757095561
 20
2.5780019464
 30
0
 11
1.1757095561
 21
2.5708827893074
 31
0
  0
LINE
  5
2DA
100
AcDbEntity
  8
SEMA2D
100
AcDbLine
370
9
 62
0
 48
0
  6
_SOLID
 10
1.1757095561
 20
2.5780019464
 30
0
 11
1.18187492699573
 21
2.5815615249463
 31
0
  0
LINE
  5
2DB
100
AcDbEntity
  8
SEMA2D
100
AcDbLine
370
9
 62
0
 48
0
  6
_SOLID
 10
1.1757095561
 20
2.5780019464
 30
0
 11
1.16954418520427
 21
2.5744423678537
 31
0
  0
LINE
  5
2DC
100
AcDbEntity
  8
SEMA2D
100
AcDbLine
370
9
 62
0
 48
0
  6
_DOT
 10
1.1757095561
 20
2.5280019464
 30
0
 11
1.1757095561
 21
2.5780019464
 31
0
  0
LINE
  5
2DD
100
AcDbEntity
  8
SEMA2D
100
AcDbLine
370
9
 62
0
 48
0
  6
_SOLID
 10
1.2458645561
 20
2.5780019464
 30
0
 11
1.2458645561
 21
2.5851211034926
 31
0
  0
LINE
  5
2DE
100
AcDbEntity
  8
SEMA2D
100
AcDbLine
370
9
 62
0
 48
0
  6
_SOLID
 10
1.2458645561
 20
2.5780019464
 30
0
 11
1.2458645561
 21
2.5708827893074
 31
0
  0
LINE
  5
2DF
100
AcDbEntity
  8
SEMA2D
100
AcDbLine
370
9
 62
0
 48
0
  6
_SOLID
 10
1.2458645561
 20
2.5780019464
 30
0
 11
1.25202992699573
 21
2.5815615249463
 31
0
  0
LINE
  5
2E0
100
AcDbEntity
  8
SEMA2D
100
AcDbLine
370
9
 62
0
 48
0
  6
_SOLID
 10
1.2458645561
 20
2.5780019464
 30
0
 11
1.23969918520427
 21
2.5744423678537
 31
0
  0
LINE
  5
2E1
100
AcDbEntity
  8
SEMA2D
100
AcDbLine
370
9
 62
0
 48
0
  6
_DOT
 10
1.2458645561
 20
2.5280019464
 30
0
 11
1.2458645561
 21
2.5780019464
 31
0
  0
LINE
  5
2E2
100
AcDbEntity
  8
SEMA2D
100
AcDbLine
370
9
 62
0
 48
0
  6
_SOLID
 10
1.1588676018
 20
2.6280019464
 30
0
 11
1.2458645561
 21
2.6280019464
 31
0
  0
MTEXT
  5
2E3
100
AcDbEntity
  8
SEMATEXT
100
AcDbMText
370
9
 62
0
 10
1.19840412851516
 20
2.63323172097399
 30
0
 40
0.00813617953440476
  1
{\fArial Narrow;87}
 50
0
 41
0
  7
STANDARD
 71
7
  0
LINE
  5
2E7
100
AcDbEntity
  8
SEMA2D
100
AcDbLine
370
9
 62
0
 48
0
  6
_SOLID
 10
1.1588676018
 20
2.6280019464
 30
0
 11
1.1588676018
 21
2.6351211034926
 31
0
  0
LINE
  5
2E8
100
AcDbEntity
  8
SEMA2D
100
AcDbLine
370
9
 62
0
 48
0
  6
_SOLID
 10
1.1588676018
 20
2.6280019464
 30
0
 11
1.1588676018
 21
2.6208827893074
 31
0
  0
LINE
  5
2E9
100
AcDbEntity
  8
SEMA2D
100
AcDbLine
370
9
 62
0
 48
0
  6
_SOLID
 10
1.1588676018
 20
2.6280019464
 30
0
 11
1.16503297269573
 21
2.6315615249463
 31
0
  0
LINE
  5
2EA
100
AcDbEntity
  8
SEMA2D
100
AcDbLine
370
9
 62
0
 48
0
  6
_SOLID
 10
1.1588676018
 20
2.6280019464
 30
0
 11
1.15270223090427
 21
2.6244423678537
 31
0
  0
LINE
  5
2EB
100
AcDbEntity
  8
SEMA2D
100
AcDbLine
370
9
 62
0
 48
0
  6
_DOT
 10
1.1588676018
 20
2.5780019464
 30
0
 11
1.1588676018
 21
2.6280019464
 31
0
  0
LINE
  5
2EC
100
AcDbEntity
  8
SEMA2D
100
AcDbLine
370
9
 62
0
 48
0
  6
_SOLID
 10
1.2458645561
 20
2.6280019464
 30
0
 11
1.2458645561
 21
2.6351211034926
 31
0
  0
LINE
  5
2ED
100
AcDbEntity
  8
SEMA2D
100
AcDbLine
370
9
 62
0
 48
0
  6
_SOLID
 10
1.2458645561
 20
2.6280019464
 30
0
 11
1.2458645561
 21
2.6208827893074
 31
0
  0
LINE
  5
2EE
100
AcDbEntity
  8
SEMA2D
100
AcDbLine
370
9
 62
0
 48
0
  6
_SOLID
 10
1.2458645561
 20
2.6280019464
 30
0
 11
1.25202992699573
 21
2.6315615249463
 31
0
  0
LINE
  5
2EF
100
AcDbEntity
  8
SEMA2D
100
AcDbLine
370
9
 62
0
 48
0
  6
_SOLID
 10
1.2458645561
 20
2.6280019464
 30
0
 11
1.23969918520427
 21
2.6244423678537
 31
0
  0
LINE
  5
2F0
100
AcDbEntity
  8
SEMA2D
100
AcDbLine
370
9
 62
0
 48
0
  6
_DOT
 10
1.2458645561
 20
2.5780019464
 30
0
 11
1.2458645561
 21
2.6280019464
 31
0
  0
LINE
  5
2F1
100
AcDbEntity
  8
SEMA2D
100
AcDbLine
370
9
 62
0
 48
0
  6
_SOLID
 10
1.7765481607
 20
2.0839019464
 30
0
 11
1.7765481607
 21
2.5290019464
 31
0
  0
MTEXT
  5
2F2
100
AcDbEntity
  8
SEMATEXT
100
AcDbMText
370
9
 62
0
 10
1.77131838612601
 20
2.29852804553032
 30
0
 40
0.00813617953440476
  1
{\fArial Narrow;445}
 50
90
 41
0
  7
STANDARD
 71
7
  0
LINE
  5
2F6
100
AcDbEntity
  8
SEMA2D
100
AcDbLine
370
9
 62
0
 48
0
  6
_SOLID
 10
1.7765481607
 20
2.0839019464
 30
0
 11
1.7694290036074
 21
2.0839019464
 31
0
  0
LINE
  5
2F7
100
AcDbEntity
  8
SEMA2D
100
AcDbLine
370
9
 62
0
 48
0
  6
_SOLID
 10
1.7765481607
 20
2.0839019464
 30
0
 11
1.7836673177926
 21
2.0839019464
 31
0
  0
LINE
  5
2F8
100
AcDbEntity
  8
SEMA2D
100
AcDbLine
370
9
 62
0
 48
0
  6
_SOLID
 10
1.7765481607
 20
2.0839019464
 30
0
 11
1.7729885821537
 21
2.09006731729573
 31
0
  0
LINE
  5
2F9
100
AcDbEntity
  8
SEMA2D
100
AcDbLine
370
9
 62
0
 48
0
  6
_SOLID
 10
1.7765481607
 20
2.0839019464
 30
0
 11
1.7801077392463
 21
2.07773657550427
 31
0
  0
LINE
  5
2FA
100
AcDbEntity
  8
SEMA2D
100
AcDbLine
370
9
 62
0
 48
0
  6
_DOT
 10
1.7265481607
 20
2.0839019464
 30
0
 11
1.7765481607
 21
2.0839019464
 31
0
  0
LINE
  5
2FB
100
AcDbEntity
  8
SEMA2D
100
AcDbLine
370
9
 62
0
 48
0
  6
_SOLID
 10
1.7765481607
 20
2.5290019464
 30
0
 11
1.7694290036074
 21
2.5290019464
 31
0
  0
LINE
  5
2FC
100
AcDbEntity
  8
SEMA2D
100
AcDbLine
370
9
 62
0
 48
0
  6
_SOLID
 10
1.7765481607
 20
2.5290019464
 30
0
 11
1.7836673177926
 21
2.5290019464
 31
0
  0
LINE
  5
2FD
100
AcDbEntity
  8
SEMA2D
100
AcDbLine
370
9
 62
0
 48
0
  6
_SOLID
 10
1.7765481607
 20
2.5290019464
 30
0
 11
1.7729885821537
 21
2.53516731729573
 31
0
  0
LINE
  5
2FE
100
AcDbEntity
  8
SEMA2D
100
AcDbLine
370
9
 62
0
 48
0
  6
_SOLID
 10
1.7765481607
 20
2.5290019464
 30
0
 11
1.7801077392463
 21
2.52283657550427
 31
0
  0
LINE
  5
2FF
100
AcDbEntity
  8
SEMA2D
100
AcDbLine
370
9
 62
0
 48
0
  6
_DOT
 10
1.7265481607
 20
2.5290019464
 30
0
 11
1.7765481607
 21
2.5290019464
 31
0
  0
LINE
  5
300
100
AcDbEntity
  8
SEMA2D
100
AcDbLine
370
9
 62
0
 48
0
  6
_SOLID
 10
1.4714985521
 20
1.8491413454
 30
0
 11
1.7263782013
 21
1.8491413454
 31
0
  0
MTEXT
  5
301
100
AcDbEntity
  8
SEMATEXT
100
AcDbMText
370
9
 62
0
 10
1.59299545104774
 20
1.85437111997399
 30
0
 40
0.00813617953440476
  1
{\fArial Narrow;255}
 50
0
 41
0
  7
STANDARD
 71
7
  0
LINE
  5
305
100
AcDbEntity
  8
SEMA2D
100
AcDbLine
370
9
 62
0
 48
0
  6
_SOLID
 10
1.4714985521
 20
1.8491413454
 30
0
 11
1.4714985521
 21
1.8562605024926
 31
0
  0
LINE
  5
306
100
AcDbEntity
  8
SEMA2D
100
AcDbLine
370
9
 62
0
 48
0
  6
_SOLID
 10
1.4714985521
 20
1.8491413454
 30
0
 11
1.4714985521
 21
1.8420221883074
 31
0
  0
LINE
  5
307
100
AcDbEntity
  8
SEMA2D
100
AcDbLine
370
9
 62
0
 48
0
  6
_SOLID
 10
1.4714985521
 20
1.8491413454
 30
0
 11
1.47766392299573
 21
1.8527009239463
 31
0
  0
LINE
  5
308
100
AcDbEntity
  8
SEMA2D
100
AcDbLine
370
9
 62
0
 48
0
  6
_SOLID
 10
1.4714985521
 20
1.8491413454
 30
0
 11
1.46533318120427
 21
1.8455817668537
 31
0
  0
LINE
  5
309
100
AcDbEntity
  8
SEMA2D
100
AcDbLine
370
9
 62
0
 48
0
  6
_DOT
 10
1.4714985521
 20
1.8991413454
 30
0
 11
1.4714985521
 21
1.8491413454
 31
0
  0
LINE
  5
30A
100
AcDbEntity
  8
SEMA2D
100
AcDbLine
370
9
 62
0
 48
0
  6
_SOLID
 10
1.7263782013
 20
1.8491413454
 30
0
 11
1.7263782013
 21
1.8562605024926
 31
0
  0
LINE
  5
30B
100
AcDbEntity
  8
SEMA2D
100
AcDbLine
370
9
 62
0
 48
0
  6
_SOLID
 10
1.7263782013
 20
1.8491413454
 30
0
 11
1.7263782013
 21
1.8420221883074
 31
0
  0
LINE
  5
30C
100
AcDbEntity
  8
SEMA2D
100
AcDbLine
370
9
 62
0
 48
0
  6
_SOLID
 10
1.7263782013
 20
1.8491413454
 30
0
 11
1.73254357219573
 21
1.8527009239463
 31
0
  0
LINE
  5
30D
100
AcDbEntity
  8
SEMA2D
100
AcDbLine
370
9
 62
0
 48
0
  6
_SOLID
 10
1.7263782013
 20
1.8491413454
 30
0
 11
1.72021283040427
 21
1.8455817668537
 31
0
  0
LINE
  5
30E
100
AcDbEntity
  8
SEMA2D
100
AcDbLine
370
9
 62
0
 48
0
  6
_DOT
 10
1.7263782013
 20
1.8991413454
 30
0
 11
1.7263782013
 21
1.8491413454
 31
0
  0
LINE
  5
30F
100
AcDbEntity
  8
SEMA2D
100
AcDbLine
370
9
 62
0
 48
0
  6
_SOLID
 10
1.7395900029
 20
2.4940019464
 30
0
 11
1.7395900029
 21
2.5290019464
 31
0
  0
MTEXT
  5
310
100
AcDbEntity
  8
SEMATEXT
100
AcDbMText
370
9
 62
0
 10
1.73436022832601
 20
2.50621934582022
 30
0
 40
0.00813617953440476
  1
{\fArial Narrow;35}
 50
90
 41
0
  7
STANDARD
 71
7
  0
LINE
  5
314
100
AcDbEntity
  8
SEMA2D
100
AcDbLine
370
9
 62
0
 48
0
  6
_SOLID
 10
1.7395900029
 20
2.4940019464
 30
0
 11
1.7324708458074
 21
2.4940019464
 31
0
  0
LINE
  5
315
100
AcDbEntity
  8
SEMA2D
100
AcDbLine
370
9
 62
0
 48
0
  6
_SOLID
 10
1.7395900029
 20
2.4940019464
 30
0
 11
1.7467091599926
 21
2.4940019464
 31
0
  0
LINE
  5
316
100
AcDbEntity
  8
SEMA2D
100
AcDbLine
370
9
 62
0
 48
0
  6
_SOLID
 10
1.7395900029
 20
2.4940019464
 30
0
 11
1.7360304243537
 21
2.50016731729573
 31
0
  0
LINE
  5
317
100
AcDbEntity
  8
SEMA2D
100
AcDbLine
370
9
 62
0
 48
0
  6
_SOLID
 10
1.7395900029
 20
2.4940019464
 30
0
 11
1.7431495814463
 21
2.48783657550427
 31
0
  0
LINE
  5
318
100
AcDbEntity
  8
SEMA2D
100
AcDbLine
370
9
 62
0
 48
0
  6
_DOT
 10
1.6895900029
 20
2.4940019464
 30
0
 11
1.7395900029
 21
2.4940019464
 31
0
  0
LINE
  5
319
100
AcDbEntity
  8
SEMA2D
100
AcDbLine
370
9
 62
0
 48
0
  6
_SOLID
 10
1.7395900029
 20
2.5290019464
 30
0
 11
1.7324708458074
 21
2.5290019464
 31
0
  0
LINE
  5
31A
100
AcDbEntity
  8
SEMA2D
100
AcDbLine
370
9
 62
0
 48
0
  6
_SOLID
 10
1.7395900029
 20
2.5290019464
 30
0
 11
1.7467091599926
 21
2.5290019464
 31
0
  0
LINE
  5
31B
100
AcDbEntity
  8
SEMA2D
100
AcDbLine
370
9
 62
0
 48
0
  6
_SOLID
 10
1.7395900029
 20
2.5290019464
 30
0
 11
1.7360304243537
 21
2.53516731729573
 31
0
  0
LINE
  5
31C
100
AcDbEntity
  8
SEMA2D
100
AcDbLine
370
9
 62
0
 48
0
  6
_SOLID
 10
1.7395900029
 20
2.5290019464
 30
0
 11
1.7431495814463
 21
2.52283657550427
 31
0
  0
LINE
  5
31D
100
AcDbEntity
  8
SEMA2D
100
AcDbLine
370
9
 62
0
 48
0
  6
_DOT
 10
1.6895900029
 20
2.5290019464
 30
0
 11
1.7395900029
 21
2.5290019464
 31
0
  0
LINE
  5
31E
100
AcDbEntity
  8
SEMA2D
100
AcDbLine
370
9
 62
0
 48
0
  6
_SOLID
 10
1.4473040361
 20
2.2789519464
 30
0
 11
1.4473040361
 21
2.5290019464
 31
0
  0
MTEXT
  5
31F
100
AcDbEntity
  8
SEMATEXT
100
AcDbMText
370
9
 62
0
 10
1.44207426152601
 20
2.39605304553032
 30
0
 40
0.00813617953440476
  1
{\fArial Narrow;250}
 50
90
 41
0
  7
STANDARD
 71
7
  0
LINE
  5
323
100
AcDbEntity
  8
SEMA2D
100
AcDbLine
370
9
 62
0
 48
0
  6
_SOLID
 10
1.4473040361
 20
2.2789519464
 30
0
 11
1.4401848790074
 21
2.2789519464
 31
0
  0
LINE
  5
324
100
AcDbEntity
  8
SEMA2D
100
AcDbLine
370
9
 62
0
 48
0
  6
_SOLID
 10
1.4473040361
 20
2.2789519464
 30
0
 11
1.4544231931926
 21
2.2789519464
 31
0
  0
LINE
  5
325
100
AcDbEntity
  8
SEMA2D
100
AcDbLine
370
9
 62
0
 48
0
  6
_SOLID
 10
1.4473040361
 20
2.2789519464
 30
0
 11
1.4437444575537
 21
2.28511731729573
 31
0
  0
LINE
  5
326
100
AcDbEntity
  8
SEMA2D
100
AcDbLine
370
9
 62
0
 48
0
  6
_SOLID
 10
1.4473040361
 20
2.2789519464
 30
0
 11
1.4508636146463
 21
2.27278657550427
 31
0
  0
LINE
  5
327
100
AcDbEntity
  8
SEMA2D
100
AcDbLine
370
9
 62
0
 48
0
  6
_DOT
 10
1.4973040361
 20
2.2789519464
 30
0
 11
1.4473040361
 21
2.2789519464
 31
0
  0
LINE
  5
328
100
AcDbEntity
  8
SEMA2D
100
AcDbLine
370
9
 62
0
 48
0
  6
_SOLID
 10
1.4473040361
 20
2.5290019464
 30
0
 11
1.4401848790074
 21
2.5290019464
 31
0
  0
LINE
  5
329
100
AcDbEntity
  8
SEMA2D
100
AcDbLine
370
9
 62
0
 48
0
  6
_SOLID
 10
1.4473040361
 20
2.5290019464
 30
0
 11
1.4544231931926
 21
2.5290019464
 31
0
  0
LINE
  5
32A
100
AcDbEntity
  8
SEMA2D
100
AcDbLine
370
9
 62
0
 48
0
  6
_SOLID
 10
1.4473040361
 20
2.5290019464
 30
0
 11
1.4437444575537
 21
2.53516731729573
 31
0
  0
LINE
  5
32B
100
AcDbEntity
  8
SEMA2D
100
AcDbLine
370
9
 62
0
 48
0
  6
_SOLID
 10
1.4473040361
 20
2.5290019464
 30
0
 11
1.4508636146463
 21
2.52283657550427
 31
0
  0
LINE
  5
32C
100
AcDbEntity
  8
SEMA2D
100
AcDbLine
370
9
 62
0
 48
0
  6
_DOT
 10
1.4973040361
 20
2.5290019464
 30
0
 11
1.4473040361
 21
2.5290019464
 31
0
  0
LINE
  5
32D
100
AcDbEntity
  8
SEMA2D
100
AcDbLine
370
9
 62
0
 48
0
  6
_SOLID
 10
1.2958645561
 20
2.4297299845
 30
0
 11
1.2958645561
 21
2.5280019464
 31
0
  0
MTEXT
  5
32E
100
AcDbEntity
  8
SEMATEXT
100
AcDbMText
370
9
 62
0
 10
1.29063478152601
 20
2.47358336487022
 30
0
 40
0.00813617953440476
  1
{\fArial Narrow;98}
 50
90
 41
0
  7
STANDARD
 71
7
  0
LINE
  5
332
100
AcDbEntity
  8
SEMA2D
100
AcDbLine
370
9
 62
0
 48
0
  6
_SOLID
 10
1.2958645561
 20
2.4297299845
 30
0
 11
1.2887453990074
 21
2.4297299845
 31
0
  0
LINE
  5
333
100
AcDbEntity
  8
SEMA2D
100
AcDbLine
370
9
 62
0
 48
0
  6
_SOLID
 10
1.2958645561
 20
2.4297299845
 30
0
 11
1.3029837131926
 21
2.4297299845
 31
0
  0
LINE
  5
334
100
AcDbEntity
  8
SEMA2D
100
AcDbLine
370
9
 62
0
 48
0
  6
_SOLID
 10
1.2958645561
 20
2.4297299845
 30
0
 11
1.2923049775537
 21
2.43589535539573
 31
0
  0
LINE
  5
335
100
AcDbEntity
  8
SEMA2D
100
AcDbLine
370
9
 62
0
 48
0
  6
_SOLID
 10
1.2958645561
 20
2.4297299845
 30
0
 11
1.2994241346463
 21
2.42356461360427
 31
0
  0
LINE
  5
336
100
AcDbEntity
  8
SEMA2D
100
AcDbLine
370
9
 62
0
 48
0
  6
_DOT
 10
1.2458645561
 20
2.4297299845
 30
0
 11
1.2958645561
 21
2.4297299845
 31
0
  0
LINE
  5
337
100
AcDbEntity
  8
SEMA2D
100
AcDbLine
370
9
 62
0
 48
0
  6
_SOLID
 10
1.2958645561
 20
2.5280019464
 30
0
 11
1.2887453990074
 21
2.5280019464
 31
0
  0
LINE
  5
338
100
AcDbEntity
  8
SEMA2D
100
AcDbLine
370
9
 62
0
 48
0
  6
_SOLID
 10
1.2958645561
 20
2.5280019464
 30
0
 11
1.3029837131926
 21
2.5280019464
 31
0
  0
LINE
  5
339
100
AcDbEntity
  8
SEMA2D
100
AcDbLine
370
9
 62
0
 48
0
  6
_SOLID
 10
1.2958645561
 20
2.5280019464
 30
0
 11
1.2923049775537
 21
2.53416731729573
 31
0
  0
LINE
  5
33A
100
AcDbEntity
  8
SEMA2D
100
AcDbLine
370
9
 62
0
 48
0
  6
_SOLID
 10
1.2958645561
 20
2.5280019464
 30
0
 11
1.2994241346463
 21
2.52183657550427
 31
0
  0
LINE
  5
33B
100
AcDbEntity
  8
SEMA2D
100
AcDbLine
370
9
 62
0
 48
0
  6
_DOT
 10
1.2458645561
 20
2.5280019464
 30
0
 11
1.2958645561
 21
2.5280019464
 31
0
  0
LINE
  5
33C
100
AcDbEntity
  8
SEMA2D
100
AcDbLine
370
9
 62
0
 48
0
  6
_SOLID
 10
1.3258645561
 20
2.3170019464
 30
0
 11
1.3258645561
 21
2.5280019464
 31
0
  0
MTEXT
  5
33D
100
AcDbEntity
  8
SEMATEXT
100
AcDbMText
370
9
 62
0
 10
1.32063478152601
 20
2.41457804553032
 30
0
 40
0.00813617953440476
  1
{\fArial Narrow;211}
 50
90
 41
0
  7
STANDARD
 71
7
  0
LINE
  5
341
100
AcDbEntity
  8
SEMA2D
100
AcDbLine
370
9
 62
0
 48
0
  6
_SOLID
 10
1.3258645561
 20
2.3170019464
 30
0
 11
1.3187453990074
 21
2.3170019464
 31
0
  0
LINE
  5
342
100
AcDbEntity
  8
SEMA2D
100
AcDbLine
370
9
 62
0
 48
0
  6
_SOLID
 10
1.3258645561
 20
2.3170019464
 30
0
 11
1.3329837131926
 21
2.3170019464
 31
0
  0
LINE
  5
343
100
AcDbEntity
  8
SEMA2D
100
AcDbLine
370
9
 62
0
 48
0
  6
_SOLID
 10
1.3258645561
 20
2.3170019464
 30
0
 11
1.3223049775537
 21
2.32316731729573
 31
0
  0
LINE
  5
344
100
AcDbEntity
  8
SEMA2D
100
AcDbLine
370
9
 62
0
 48
0
  6
_SOLID
 10
1.3258645561
 20
2.3170019464
 30
0
 11
1.3294241346463
 21
2.31083657550427
 31
0
  0
LINE
  5
345
100
AcDbEntity
  8
SEMA2D
100
AcDbLine
370
9
 62
0
 48
0
  6
_DOT
 10
1.2708645561
 20
2.3170019464
 30
0
 11
1.3258645561
 21
2.3170019464
 31
0
  0
LINE
  5
346
100
AcDbEntity
  8
SEMA2D
100
AcDbLine
370
9
 62
0
 48
0
  6
_SOLID
 10
1.3258645561
 20
2.5280019464
 30
0
 11
1.3187453990074
 21
2.5280019464
 31
0
  0
LINE
  5
347
100
AcDbEntity
  8
SEMA2D
100
AcDbLine
370
9
 62
0
 48
0
  6
_SOLID
 10
1.3258645561
 20
2.5280019464
 30
0
 11
1.3329837131926
 21
2.5280019464
 31
0
  0
LINE
  5
348
100
AcDbEntity
  8
SEMA2D
100
AcDbLine
370
9
 62
0
 48
0
  6
_SOLID
 10
1.3258645561
 20
2.5280019464
 30
0
 11
1.3223049775537
 21
2.53416731729573
 31
0
  0
LINE
  5
349
100
AcDbEntity
  8
SEMA2D
100
AcDbLine
370
9
 62
0
 48
0
  6
_SOLID
 10
1.3258645561
 20
2.5280019464
 30
0
 11
1.3294241346463
 21
2.52183657550427
 31
0
  0
LINE
  5
34A
100
AcDbEntity
  8
SEMA2D
100
AcDbLine
370
9
 62
0
 48
0
  6
_DOT
 10
1.2708645561
 20
2.5280019464
 30
0
 11
1.3258645561
 21
2.5280019464
 31
0
  0
LINE
  5
34B
100
AcDbEntity
  8
SEMA2D
100
AcDbLine
370
9
 62
0
 48
0
  6
_SOLID
 10
1.3558645561
 20
2.1760019464
 30
0
 11
1.3558645561
 21
2.5280019464
 31
0
  0
MTEXT
  5
34C
100
AcDbEntity
  8
SEMATEXT
100
AcDbMText
370
9
 62
0
 10
1.35063478152601
 20
2.34407804553032
 30
0
 40
0.00813617953440476
  1
{\fArial Narrow;352}
 50
90
 41
0
  7
STANDARD
 71
7
  0
LINE
  5
350
100
AcDbEntity
  8
SEMA2D
100
AcDbLine
370
9
 62
0
 48
0
  6
_SOLID
 10
1.3558645561
 20
2.1760019464
 30
0
 11
1.3487453990074
 21
2.1760019464
 31
0
  0
LINE
  5
351
100
AcDbEntity
  8
SEMA2D
100
AcDbLine
370
9
 62
0
 48
0
  6
_SOLID
 10
1.3558645561
 20
2.1760019464
 30
0
 11
1.3629837131926
 21
2.1760019464
 31
0
  0
LINE
  5
352
100
AcDbEntity
  8
SEMA2D
100
AcDbLine
370
9
 62
0
 48
0
  6
_SOLID
 10
1.3558645561
 20
2.1760019464
 30
0
 11
1.3523049775537
 21
2.18216731729573
 31
0
  0
LINE
  5
353
100
AcDbEntity
  8
SEMA2D
100
AcDbLine
370
9
 62
0
 48
0
  6
_SOLID
 10
1.3558645561
 20
2.1760019464
 30
0
 11
1.3594241346463
 21
2.16983657550427
 31
0
  0
LINE
  5
354
100
AcDbEntity
  8
SEMA2D
100
AcDbLine
370
9
 62
0
 48
0
  6
_DOT
 10
1.2708645561
 20
2.1760019464
 30
0
 11
1.3558645561
 21
2.1760019464
 31
0
  0
LINE
  5
355
100
AcDbEntity
  8
SEMA2D
100
AcDbLine
370
9
 62
0
 48
0
  6
_SOLID
 10
1.3558645561
 20
2.5280019464
 30
0
 11
1.3487453990074
 21
2.5280019464
 31
0
  0
LINE
  5
356
100
AcDbEntity
  8
SEMA2D
100
AcDbLine
370
9
 62
0
 48
0
  6
_SOLID
 10
1.3558645561
 20
2.5280019464
 30
0
 11
1.3629837131926
 21
2.5280019464
 31
0
  0
LINE
  5
357
100
AcDbEntity
  8
SEMA2D
100
AcDbLine
370
9
 62
0
 48
0
  6
_SOLID
 10
1.3558645561
 20
2.5280019464
 30
0
 11
1.3523049775537
 21
2.53416731729573
 31
0
  0
LINE
  5
358
100
AcDbEntity
  8
SEMA2D
100
AcDbLine
370
9
 62
0
 48
0
  6
_SOLID
 10
1.3558645561
 20
2.5280019464
 30
0
 11
1.3594241346463
 21
2.52183657550427
 31
0
  0
LINE
  5
359
100
AcDbEntity
  8
SEMA2D
100
AcDbLine
370
9
 62
0
 48
0
  6
_DOT
 10
1.2708645561
 20
2.5280019464
 30
0
 11
1.3558645561
 21
2.5280019464
 31
0
  0
LINE
  5
35A
100
AcDbEntity
  8
SEMA2D
100
AcDbLine
370
9
 62
0
 48
0
  6
_SOLID
 10
1.4473040361
 20
2.6061761798
 30
0
 11
1.4473040361
 21
2.6763311908
 31
0
  0
MTEXT
  5
35B
100
AcDbEntity
  8
SEMATEXT
100
AcDbMText
370
9
 62
0
 10
1.44207426152601
 20
2.63597108472021
 30
0
 40
0.00813617953440476
  1
{\fArial Narrow;70}
 50
90
 41
0
  7
STANDARD
 71
7
  0
LINE
  5
35F
100
AcDbEntity
  8
SEMA2D
100
AcDbLine
370
9
 62
0
 48
0
  6
_SOLID
 10
1.4473040361
 20
2.6061761798
 30
0
 11
1.4401848790074
 21
2.6061761798
 31
0
  0
LINE
  5
360
100
AcDbEntity
  8
SEMA2D
100
AcDbLine
370
9
 62
0
 48
0
  6
_SOLID
 10
1.4473040361
 20
2.6061761798
 30
0
 11
1.4544231931926
 21
2.6061761798
 31
0
  0
LINE
  5
361
100
AcDbEntity
  8
SEMA2D
100
AcDbLine
370
9
 62
0
 48
0
  6
_SOLID
 10
1.4473040361
 20
2.6061761798
 30
0
 11
1.4437444575537
 21
2.61234155069573
 31
0
  0
LINE
  5
362
100
AcDbEntity
  8
SEMA2D
100
AcDbLine
370
9
 62
0
 48
0
  6
_SOLID
 10
1.4473040361
 20
2.6061761798
 30
0
 11
1.4508636146463
 21
2.60001080890427
 31
0
  0
LINE
  5
363
100
AcDbEntity
  8
SEMA2D
100
AcDbLine
370
9
 62
0
 48
0
  6
_DOT
 10
1.4863249572
 20
2.6061761798
 30
0
 11
1.4473040361
 21
2.6061761798
 31
0
  0
LINE
  5
364
100
AcDbEntity
  8
SEMA2D
100
AcDbLine
370
9
 62
0
 48
0
  6
_SOLID
 10
1.4473040361
 20
2.6763311908
 30
0
 11
1.4401848790074
 21
2.6763311908
 31
0
  0
LINE
  5
365
100
AcDbEntity
  8
SEMA2D
100
AcDbLine
370
9
 62
0
 48
0
  6
_SOLID
 10
1.4473040361
 20
2.6763311908
 30
0
 11
1.4544231931926
 21
2.6763311908
 31
0
  0
LINE
  5
366
100
AcDbEntity
  8
SEMA2D
100
AcDbLine
370
9
 62
0
 48
0
  6
_SOLID
 10
1.4473040361
 20
2.6763311908
 30
0
 11
1.4437444575537
 21
2.68249656169573
 31
0
  0
LINE
  5
367
100
AcDbEntity
  8
SEMA2D
100
AcDbLine
370
9
 62
0
 48
0
  6
_SOLID
 10
1.4473040361
 20
2.6763311908
 30
0
 11
1.4508636146463
 21
2.67016581990427
 31
0
  0
LINE
  5
368
100
AcDbEntity
  8
SEMA2D
100
AcDbLine
370
9
 62
0
 48
0
  6
_DOT
 10
1.4863249572
 20
2.6763311908
 30
0
 11
1.4473040361
 21
2.6763311908
 31
0
  0
LINE
  5
369
100
AcDbEntity
  8
SEMA2D
100
AcDbLine
370
9
 62
0
 48
0
  6
_SOLID
 10
1.4333040361
 20
1.8988427489
 30
0
 11
1.4333040361
 21
2.0088426374
 31
0
  0
MTEXT
  5
36A
100
AcDbEntity
  8
SEMATEXT
100
AcDbMText
370
9
 62
0
 10
1.42807426152601
 20
1.94591879228032
 30
0
 40
0.00813617953440476
  1
{\fArial Narrow;110}
 50
90
 41
0
  7
STANDARD
 71
7
  0
LINE
  5
36E
100
AcDbEntity
  8
SEMA2D
100
AcDbLine
370
9
 62
0
 48
0
  6
_SOLID
 10
1.4333040361
 20
1.8988427489
 30
0
 11
1.4261848790074
 21
1.8988427489
 31
0
  0
LINE
  5
36F
100
AcDbEntity
  8
SEMA2D
100
AcDbLine
370
9
 62
0
 48
0
  6
_SOLID
 10
1.4333040361
 20
1.8988427489
 30
0
 11
1.4404231931926
 21
1.8988427489
 31
0
  0
LINE
  5
370
100
AcDbEntity
  8
SEMA2D
100
AcDbLine
370
9
 62
0
 48
0
  6
_SOLID
 10
1.4333040361
 20
1.8988427489
 30
0
 11
1.4297444575537
 21
1.90500811979573
 31
0
  0
LINE
  5
371
100
AcDbEntity
  8
SEMA2D
100
AcDbLine
370
9
 62
0
 48
0
  6
_SOLID
 10
1.4333040361
 20
1.8988427489
 30
0
 11
1.4368636146463
 21
1.89267737800427
 31
0
  0
LINE
  5
372
100
AcDbEntity
  8
SEMA2D
100
AcDbLine
370
9
 62
0
 48
0
  6
_DOT
 10
1.4723249572
 20
1.8988427489
 30
0
 11
1.4333040361
 21
1.8988427489
 31
0
  0
LINE
  5
373
100
AcDbEntity
  8
SEMA2D
100
AcDbLine
370
9
 62
0
 48
0
  6
_SOLID
 10
1.4333040361
 20
2.0088426374
 30
0
 11
1.4261848790074
 21
2.0088426374
 31
0
  0
LINE
  5
374
100
AcDbEntity
  8
SEMA2D
100
AcDbLine
370
9
 62
0
 48
0
  6
_SOLID
 10
1.4333040361
 20
2.0088426374
 30
0
 11
1.4404231931926
 21
2.0088426374
 31
0
  0
LINE
  5
375
100
AcDbEntity
  8
SEMA2D
100
AcDbLine
370
9
 62
0
 48
0
  6
_SOLID
 10
1.4333040361
 20
2.0088426374
 30
0
 11
1.4297444575537
 21
2.01500800829573
 31
0
  0
LINE
  5
376
100
AcDbEntity
  8
SEMA2D
100
AcDbLine
370
9
 62
0
 48
0
  6
_SOLID
 10
1.4333040361
 20
2.0088426374
 30
0
 11
1.4368636146463
 21
2.00267726650427
 31
0
  0
LINE
  5
377
100
AcDbEntity
  8
SEMA2D
100
AcDbLine
370
9
 62
0
 48
0
  6
_DOT
 10
1.4723249572
 20
2.0088426374
 30
0
 11
1.4333040361
 21
2.0088426374
 31
0
  0
LINE
  5
378
100
AcDbEntity
  8
SEMA2D
100
AcDbLine
370
9
 62
1
 48
0
  6
_SOLID
 10
1.7645900029
 20
2.4690019464
 30
0
 11
1.7645900029
 21
2.5290019464
 31
0
  0
MTEXT
  5
379
100
AcDbEntity
  8
SEMATEXT
100
AcDbMText
370
9
 62
1
 10
1.75936022832601
 20
2.49371934582022
 30
0
 40
0.00813617953440476
  1
{\fArial Narrow;60}
 50
90
 41
0
  7
STANDARD
 71
7
  0
LINE
  5
37D
100
AcDbEntity
  8
SEMA2D
100
AcDbLine
370
9
 62
1
 48
0
  6
_SOLID
 10
1.7645900029
 20
2.4690019464
 30
0
 11
1.7574708458074
 21
2.4690019464
 31
0
  0
LINE
  5
37E
100
AcDbEntity
  8
SEMA2D
100
AcDbLine
370
9
 62
1
 48
0
  6
_SOLID
 10
1.7645900029
 20
2.4690019464
 30
0
 11
1.7717091599926
 21
2.4690019464
 31
0
  0
LINE
  5
37F
100
AcDbEntity
  8
SEMA2D
100
AcDbLine
370
9
 62
1
 48
0
  6
_SOLID
 10
1.7645900029
 20
2.4690019464
 30
0
 11
1.7610304243537
 21
2.47516731729573
 31
0
  0
LINE
  5
380
100
AcDbEntity
  8
SEMA2D
100
AcDbLine
370
9
 62
1
 48
0
  6
_SOLID
 10
1.7645900029
 20
2.4690019464
 30
0
 11
1.7681495814463
 21
2.46283657550427
 31
0
  0
LINE
  5
381
100
AcDbEntity
  8
SEMA2D
100
AcDbLine
370
9
 62
1
 48
0
  6
_DOT
 10
1.7395900029
 20
2.4690019464
 30
0
 11
1.7645900029
 21
2.4690019464
 31
0
  0
LINE
  5
382
100
AcDbEntity
  8
SEMA2D
100
AcDbLine
370
9
 62
1
 48
0
  6
_SOLID
 10
1.7645900029
 20
2.5290019464
 30
0
 11
1.7574708458074
 21
2.5290019464
 31
0
  0
LINE
  5
383
100
AcDbEntity
  8
SEMA2D
100
AcDbLine
370
9
 62
1
 48
0
  6
_SOLID
 10
1.7645900029
 20
2.5290019464
 30
0
 11
1.7717091599926
 21
2.5290019464
 31
0
  0
LINE
  5
384
100
AcDbEntity
  8
SEMA2D
100
AcDbLine
370
9
 62
1
 48
0
  6
_SOLID
 10
1.7645900029
 20
2.5290019464
 30
0
 11
1.7610304243537
 21
2.53516731729573
 31
0
  0
LINE
  5
385
100
AcDbEntity
  8
SEMA2D
100
AcDbLine
370
9
 62
1
 48
0
  6
_SOLID
 10
1.7645900029
 20
2.5290019464
 30
0
 11
1.7681495814463
 21
2.52283657550427
 31
0
  0
LINE
  5
386
100
AcDbEntity
  8
SEMA2D
100
AcDbLine
370
9
 62
1
 48
0
  6
_DOT
 10
1.7395900029
 20
2.5290019464
 30
0
 11
1.7645900029
 21
2.5290019464
 31
0
  0
LINE
  5
387
100
AcDbEntity
  8
SEMA2D
100
AcDbLine
370
9
 62
0
 48
0
  6
_SOLID
 10
1.5185962899236
 20
2.5811761889
 30
0
 11
1.6782768435236
 21
2.5811762344
 31
0
  0
MTEXT
  5
388
100
AcDbEntity
  8
SEMATEXT
100
AcDbMText
370
9
 62
0
 10
1.59249363958115
 20
2.58640598453059
 30
0
 40
0.00813617953440476
  1
{\fArial Narrow;160}
 50
1.63260829140199E-5
 41
0
  7
STANDARD
 71
7
  0
LINE
  5
38C
100
AcDbEntity
  8
SEMA2D
100
AcDbLine
370
9
 62
0
 48
0
  6
_SOLID
 10
1.5185962899236
 20
2.5811761889
 30
0
 11
1.51859628789504
 21
2.5882953459926
 31
0
  0
LINE
  5
38D
100
AcDbEntity
  8
SEMA2D
100
AcDbLine
370
9
 62
0
 48
0
  6
_SOLID
 10
1.5185962899236
 20
2.5811761889
 30
0
 11
1.51859629195216
 21
2.5740570318074
 31
0
  0
LINE
  5
38E
100
AcDbEntity
  8
SEMA2D
100
AcDbLine
370
9
 62
0
 48
0
  6
_SOLID
 10
1.5185962899236
 20
2.5811761889
 30
0
 11
1.52476165980504
 21
2.58473576920309
 31
0
  0
LINE
  5
38F
100
AcDbEntity
  8
SEMA2D
100
AcDbLine
370
9
 62
0
 48
0
  6
_SOLID
 10
1.5185962899236
 20
2.5811761889
 30
0
 11
1.51243092004215
 21
2.57761660859691
 31
0
  0
LINE
  5
390
100
AcDbEntity
  8
SEMA2D
100
AcDbLine
370
9
 62
0
 48
0
  6
_DOT
 10
1.5185962828
 20
2.6061761889
 30
0
 11
1.5185962899236
 21
2.5811761889
 31
0
  0
LINE
  5
391
100
AcDbEntity
  8
SEMA2D
100
AcDbLine
370
9
 62
0
 48
0
  6
_SOLID
 10
1.6782768435236
 20
2.5811762344
 30
0
 11
1.67827684149504
 21
2.5882953914926
 31
0
  0
LINE
  5
392
100
AcDbEntity
  8
SEMA2D
100
AcDbLine
370
9
 62
0
 48
0
  6
_SOLID
 10
1.6782768435236
 20
2.5811762344
 30
0
 11
1.67827684555216
 21
2.5740570773074
 31
0
  0
LINE
  5
393
100
AcDbEntity
  8
SEMA2D
100
AcDbLine
370
9
 62
0
 48
0
  6
_SOLID
 10
1.6782768435236
 20
2.5811762344
 30
0
 11
1.68444221340504
 21
2.58473581470309
 31
0
  0
LINE
  5
394
100
AcDbEntity
  8
SEMA2D
100
AcDbLine
370
9
 62
0
 48
0
  6
_SOLID
 10
1.6782768435236
 20
2.5811762344
 30
0
 11
1.67211147364215
 21
2.57761665409691
 31
0
  0
LINE
  5
395
100
AcDbEntity
  8
SEMA2D
100
AcDbLine
370
9
 62
0
 48
0
  6
_DOT
 10
1.6782768364
 20
2.6061762344
 30
0
 11
1.6782768435236
 21
2.5811762344
 31
0
  0
LINE
  5
396
100
AcDbEntity
  8
SEMA2D
100
AcDbLine
370
9
 62
0
 48
0
  6
_SOLID
 10
1.49193655190888
 20
2.0338427193
 30
0
 11
1.70593655470888
 21
2.03384278
 31
0
  0
MTEXT
  5
397
100
AcDbEntity
  8
SEMATEXT
100
AcDbMText
370
9
 62
0
 10
1.59299362617322
 20
2.03907252253831
 30
0
 40
0.00813617953440476
  1
{\fArial Narrow;214}
 50
1.62516535056056E-5
 41
0
  7
STANDARD
 71
7
  0
LINE
  5
39B
100
AcDbEntity
  8
SEMA2D
100
AcDbLine
370
9
 62
0
 48
0
  6
_SOLID
 10
1.49193655190888
 20
2.0338427193
 30
0
 11
1.49193654988957
 21
2.0409618763926
 31
0
  0
LINE
  5
39C
100
AcDbEntity
  8
SEMA2D
100
AcDbLine
370
9
 62
0
 48
0
  6
_SOLID
 10
1.49193655190888
 20
2.0338427193
 30
0
 11
1.49193655392819
 21
2.0267235622074
 31
0
  0
LINE
  5
39D
100
AcDbEntity
  8
SEMA2D
100
AcDbLine
370
9
 62
0
 48
0
  6
_SOLID
 10
1.49193655190888
 20
2.0338427193
 30
0
 11
1.49810192179495
 21
2.03740229959508
 31
0
  0
LINE
  5
39E
100
AcDbEntity
  8
SEMA2D
100
AcDbLine
370
9
 62
0
 48
0
  6
_SOLID
 10
1.49193655190888
 20
2.0338427193
 30
0
 11
1.48577118202281
 21
2.03028313900492
 31
0
  0
LINE
  5
39F
100
AcDbEntity
  8
SEMA2D
100
AcDbLine
370
9
 62
0
 48
0
  6
_DOT
 10
1.491936559
 20
2.0088427193
 30
0
 11
1.49193655190888
 21
2.0338427193
 31
0
  0
LINE
  5
3A0
100
AcDbEntity
  8
SEMA2D
100
AcDbLine
370
9
 62
0
 48
0
  6
_SOLID
 10
1.70593655470888
 20
2.03384278
 30
0
 11
1.70593655268957
 21
2.0409619370926
 31
0
  0
LINE
  5
3A1
100
AcDbEntity
  8
SEMA2D
100
AcDbLine
370
9
 62
0
 48
0
  6
_SOLID
 10
1.70593655470888
 20
2.03384278
 30
0
 11
1.70593655672819
 21
2.0267236229074
 31
0
  0
LINE
  5
3A2
100
AcDbEntity
  8
SEMA2D
100
AcDbLine
370
9
 62
0
 48
0
  6
_SOLID
 10
1.70593655470888
 20
2.03384278
 30
0
 11
1.71210192459495
 21
2.03740236029508
 31
0
  0
LINE
  5
3A3
100
AcDbEntity
  8
SEMA2D
100
AcDbLine
370
9
 62
0
 48
0
  6
_SOLID
 10
1.70593655470888
 20
2.03384278
 30
0
 11
1.69977118482281
 21
2.03028319970492
 31
0
  0
LINE
  5
3A4
100
AcDbEntity
  8
SEMA2D
100
AcDbLine
370
9
 62
0
 48
0
  6
_DOT
 10
1.7059365618
 20
2.00884278
 30
0
 11
1.70593655470888
 21
2.03384278
 31
0
  0
LINE
  5
3A5
100
AcDbEntity
  8
SEMA2D
100
AcDbLine
370
9
 62
0
 48
0
  6
_SOLID
 10
1.4874312626
 20
2.0848519464
 30
0
 11
1.4759974969
 21
2.0882339855
 31
0
  0
LINE
  5
3A6
100
AcDbEntity
  8
SEMA2D
100
AcDbLine
370
9
 62
0
 48
0
  6
_SOLID
 10
1.5147299989
 20
2.5267298659
 30
0
 11
1.5189464225
 21
2.5280519464
 31
0
  0
LINE
  5
3A7
100
AcDbEntity
  8
SEMA2D
100
AcDbLine
370
9
 62
0
 48
0
  6
_SOLID
 10
1.4714985521
 20
2.0839019464
 30
0
 11
1.7263782013
 21
2.0839019464
 31
0
  0
LINE
  5
3A8
100
AcDbEntity
  8
SEMA2D
100
AcDbLine
370
9
 62
0
 48
0
  6
_SOLID
 10
1.4724851539
 20
2.0848519464
 30
0
 11
1.7253915996
 21
2.0848519464
 31
0
  0
LINE
  5
3A9
100
AcDbEntity
  8
SEMA2D
100
AcDbLine
370
9
 62
0
 48
0
  6
_SOLID
 10
1.4787001254
 20
2.0848519464
 30
0
 11
1.4787001254
 21
2.0839019464
 31
0
  0
LINE
  5
3AA
100
AcDbEntity
  8
SEMA2D
100
AcDbLine
370
9
 62
0
 48
0
  6
_SOLID
 10
1.4874312626
 20
2.0848519464
 30
0
 11
1.4874312626
 21
2.0839019464
 31
0
  0
LINE
  5
3AB
100
AcDbEntity
  8
SEMA2D
100
AcDbLine
370
9
 62
0
 48
0
  6
_SOLID
 10
1.5080397373
 20
2.5280519464
 30
0
 11
1.5080397373
 21
2.5290019464
 31
0
  0
LINE
  5
3AC
100
AcDbEntity
  8
SEMA2D
100
AcDbLine
370
9
 62
0
 48
0
  6
_SOLID
 10
1.5189464225
 20
2.5280519464
 30
0
 11
1.5189464225
 21
2.5290019464
 31
0
  0
LINE
  5
3AD
100
AcDbEntity
  8
SEMA2D
100
AcDbLine
370
9
 62
0
 48
0
  6
_DASHDOT
 10
1.598936559
 20
2.0849019464
 30
0
 11
1.598936559
 21
2.5280019464
 31
0
  0
LINE
  5
3AE
100
AcDbEntity
  8
SEMA2D
100
AcDbLine
370
9
 62
0
 48
0
  6
_DASHDOT
 10
1.48483638950589
 20
2.2789519464
 30
0
 11
1.71303672849411
 21
2.2789519464
 31
0
  0
LINE
  5
3AF
100
AcDbEntity
  8
SEMA2D
100
AcDbLine
370
9
 62
0
 48
0
  6
_SOLID
 10
1.6778686205
 20
2.5280519464
 30
0
 11
1.6778686205
 21
2.5290019464
 31
0
  0
LINE
  5
3B0
100
AcDbEntity
  8
SEMA2D
100
AcDbLine
370
9
 62
0
 48
0
  6
_SOLID
 10
1.6887753057
 20
2.5280519464
 30
0
 11
1.6887753057
 21
2.5290019464
 31
0
  0
LINE
  5
3B1
100
AcDbEntity
  8
SEMA2D
100
AcDbLine
370
9
 62
0
 48
0
  6
_SOLID
 10
1.7104454908
 20
2.0848519464
 30
0
 11
1.7104454908
 21
2.0839019464
 31
0
  0
LINE
  5
3B2
100
AcDbEntity
  8
SEMA2D
100
AcDbLine
370
9
 62
0
 48
0
  6
_SOLID
 10
1.719176628
 20
2.0848519464
 30
0
 11
1.719176628
 21
2.0839019464
 31
0
  0
LINE
  5
3B3
100
AcDbEntity
  8
SEMA2D
100
AcDbLine
370
9
 62
0
 48
0
  6
_SOLID
 10
1.501756928
 20
2.5280519464
 30
0
 11
1.6950581151
 21
2.5280519464
 31
0
  0
LINE
  5
3B4
100
AcDbEntity
  8
SEMA2D
100
AcDbLine
370
9
 62
0
 48
0
  6
_SOLID
 10
1.695936559
 20
2.5290019464
 30
0
 11
1.500878484
 21
2.5290019464
 31
0
  0
LINE
  5
3B5
100
AcDbEntity
  8
SEMA2D
100
AcDbLine
370
9
 62
0
 48
0
  6
_SOLID
 10
1.7104454908
 20
2.0848519464
 30
0
 11
1.7218792569
 21
2.0882339856
 31
0
  0
LINE
  5
3B6
100
AcDbEntity
  8
SEMA2D
100
AcDbLine
370
9
 62
0
 48
0
  6
_SOLID
 10
1.6778686205
 20
2.5280519464
 30
0
 11
1.6820850441
 21
2.5267298659
 31
0
  0
LINE
  5
3B7
100
AcDbEntity
  8
SEMA2D
100
AcDbLine
370
9
 62
0
 48
0
  6
_DASHDOT
 10
1.4663249582
 20
2.6061761741
 30
0
 11
1.7315481617
 21
2.6061762495
 31
0
  0
LINE
  5
3B8
100
AcDbEntity
  8
SEMA2D
100
AcDbLine
370
9
 62
0
 48
0
  6
_DASHDOT
 10
1.598936559
 20
2.6061762118
 30
0
 11
1.598936559
 21
2.7268775356
 31
0
  0
LINE
  5
3B9
100
AcDbEntity
  8
SEMA2D
100
AcDbLine
370
9
 62
0
 48
0
  6
_DASHDOT
 10
1.598936559
 20
2.0088426693
 30
0
 11
1.598936559
 21
1.8881413454
 31
0
  0
LINE
  5
3BA
100
AcDbEntity
  8
SEMA2D
100
AcDbLine
370
9
 62
0
 48
0
  6
_DASHDOT
 10
1.4663249562
 20
2.0088426317
 30
0
 11
1.7315481597
 21
2.0088427069
 31
0
  0
LINE
  5
3BB
100
AcDbEntity
  8
SEMA2D
100
AcDbLine
370
9
 62
0
 48
0
  6
_SOLID
 10
1.4758293547
 20
2.0880720811
 30
0
 11
1.4714985521
 21
2.0839019464
 31
0
  0
ARC
  5
3BC
100
AcDbEntity
  8
SEMA2D
100
AcDbCircle
370
9
 62
0
 48
0
  6
_SOLID
 10
1.4806846847
 20
2.0830296839
 30
0
 40
0.007
100
AcDbArc
 50
90
 51
133.917237911037
  0
LINE
  5
3BD
100
AcDbEntity
  8
SEMA2D
100
AcDbLine
370
9
 62
0
 48
0
  6
_SOLID
 10
1.7253781065
 20
2.0848649389
 30
0
 11
1.6950679128
 21
2.5280429739
 31
0
  0
LINE
  5
3BE
100
AcDbEntity
  8
SEMA2D
100
AcDbLine
370
9
 62
0
 48
0
  6
_SOLID
 10
1.695936559
 20
2.5290019464
 30
0
 11
1.7263754305
 21
2.0839046144
 31
0
  0
LINE
  5
3BF
100
AcDbEntity
  8
SEMA2D
100
AcDbLine
370
9
 62
0
 48
0
  6
_SOLID
 10
1.7171920691
 20
2.0900296839
 30
0
 11
1.4806846847
 21
2.0900296839
 31
0
  0
ARC
  5
3C0
100
AcDbEntity
  8
SEMA2D
100
AcDbCircle
370
9
 62
0
 48
0
  6
_SOLID
 10
1.7171920691
 20
2.0830296839
 30
0
 40
0.007
100
AcDbArc
 50
46.0827591836138
 51
90
  0
LINE
  5
3C1
100
AcDbEntity
  8
SEMA2D
100
AcDbLine
370
9
 62
0
 48
0
  6
_SOLID
 10
1.7263782013
 20
2.0839019464
 30
0
 11
1.7220473994
 21
2.0880720809
 31
0
  0
LINE
  5
3C2
100
AcDbEntity
  8
SEMA2D
100
AcDbLine
370
9
 62
0
 48
0
  6
_SOLID
 10
1.6934577689
 20
2.5263212395
 30
0
 11
1.5033572744
 21
2.5263212395
 31
0
  0
LINE
  5
3C3
100
AcDbEntity
  8
SEMA2D
100
AcDbLine
370
9
 62
0
 48
0
  6
_SOLID
 10
1.500878484
 20
2.5290019464
 30
0
 11
1.5033572744
 21
2.5263212395
 31
0
  0
LINE
  5
3C4
100
AcDbEntity
  8
SEMA2D
100
AcDbLine
370
9
 62
0
 48
0
  6
_SOLID
 10
1.695936559
 20
2.5290019464
 30
0
 11
1.6934577689
 21
2.5263212395
 31
0
  0
LINE
  5
3C5
100
AcDbEntity
  8
SEMA2D
100
AcDbLine
370
9
 62
0
 48
0
  6
_SOLID
 10
1.1428235852
 20
2.0858519464
 30
0
 11
1.1390042357
 21
2.0869203223
 31
0
  0
LINE
  5
3C6
100
AcDbEntity
  8
SEMA2D
100
AcDbLine
370
9
 62
0
 48
0
  6
_SOLID
 10
1.2422245561
 20
2.0849019464
 30
0
 11
1.1463548392
 21
2.0849019464
 31
0
  0
LINE
  5
3C7
100
AcDbEntity
  8
SEMA2D
100
AcDbLine
370
9
 62
0
 48
0
  6
_SOLID
 10
1.2422245561
 20
2.0865644464
 30
0
 11
1.1464524467
 21
2.0865644464
 31
0
  0
LINE
  5
3C8
100
AcDbEntity
  8
SEMA2D
100
AcDbLine
370
9
 62
0
 48
0
  6
_SOLID
 10
1.2444033287
 20
2.0871739083
 30
0
 11
1.2422245561
 21
2.0865644464
 31
0
  0
ARC
  5
3C9
100
AcDbEntity
  8
SEMA2D
100
AcDbCircle
370
9
 62
0
 48
0
  6
_SOLID
 10
1.2438645561
 20
2.0890999727
 30
0
 40
0.002
100
AcDbArc
 50
285.627750822192
 51
0
  0
LINE
  5
3CA
100
AcDbEntity
  8
SEMA2D
100
AcDbLine
370
9
 62
0
 48
0
  6
_SOLID
 10
1.1494481172
 20
2.0874024169
 30
0
 11
1.1464524467
 21
2.0865644464
 31
0
  0
LINE
  5
3CB
100
AcDbEntity
  8
SEMA2D
100
AcDbLine
370
9
 62
0
 48
0
  6
_SOLID
 10
1.1740233646
 20
2.5251632226
 30
0
 11
1.1751237697
 21
2.5240628175
 31
0
  0
LINE
  5
3CC
100
AcDbEntity
  8
SEMA2D
100
AcDbLine
370
9
 62
0
 48
0
  6
_SOLID
 10
1.1706991992
 20
2.1691458743
 30
0
 11
1.1615170153
 21
2.1683072257
 31
0
  0
LINE
  5
3CD
100
AcDbEntity
  8
SEMA2D
100
AcDbLine
370
9
 62
0
 48
0
  6
_SOLID
 10
1.1706991992
 20
2.179452982
 30
0
 11
1.1629791254
 21
2.1801580897
 31
0
  0
LINE
  5
3CE
100
AcDbEntity
  8
SEMA2D
100
AcDbLine
370
9
 62
0
 48
0
  6
_SOLID
 10
1.2458645561
 20
2.0890999727
 30
0
 11
1.2458645561
 21
2.5238039201
 31
0
  0
ARC
  5
3CF
100
AcDbEntity
  8
SEMA2D
100
AcDbCircle
370
9
 62
0
 48
0
  6
_SOLID
 10
1.2438645561
 20
2.5238039201
 30
0
 40
0.002
100
AcDbArc
 50
0
 51
74.3722499396528
  0
LINE
  5
3D0
100
AcDbEntity
  8
SEMA2D
100
AcDbLine
370
9
 62
0
 48
0
  6
_SOLID
 10
1.2422245561
 20
2.0849019464
 30
0
 11
1.2422245561
 21
2.0865644464
 31
0
  0
LINE
  5
3D1
100
AcDbEntity
  8
SEMA2D
100
AcDbLine
370
9
 62
0
 48
0
  6
_SOLID
 10
1.2422245561
 20
2.5263394464
 30
0
 11
1.2422245561
 21
2.5280019464
 31
0
  0
LINE
  5
3D2
100
AcDbEntity
  8
SEMA2D
100
AcDbLine
370
9
 62
0
 48
0
  6
_SOLID
 10
1.1571017456
 20
2.2733310548
 30
0
 11
1.1474546538
 21
2.2742121653
 31
0
  0
LINE
  5
3D3
100
AcDbEntity
  8
SEMA2D
100
AcDbLine
370
9
 62
0
 48
0
  6
_DASHDOT
 10
1.248936559
 20
2.2789519464
 30
0
 11
1.1335091078
 21
2.2789519464
 31
0
  0
LINE
  5
3D4
100
AcDbEntity
  8
SEMA2D
100
AcDbLine
370
9
 62
0
 48
0
  6
_SOLID
 10
1.1725172877
 20
2.1711375842
 30
0
 11
1.1725172877
 21
2.1774612721
 31
0
  0
LINE
  5
3D5
100
AcDbEntity
  8
SEMA2D
100
AcDbLine
370
9
 62
0
 48
0
  6
_SOLID
 10
1.1736978047
 20
2.3127545235
 30
0
 11
1.1736978047
 21
2.3128516913
 31
0
  0
LINE
  5
3D6
100
AcDbEntity
  8
SEMA2D
100
AcDbLine
370
9
 62
0
 48
0
  6
_SOLID
 10
1.1736978047
 20
2.313105154
 30
0
 11
1.1736978047
 21
2.3187275809
 31
0
  0
LINE
  5
3D7
100
AcDbEntity
  8
SEMA2D
100
AcDbLine
370
9
 62
0
 48
0
  6
_SOLID
 10
1.1736978047
 20
2.3188637556
 30
0
 11
1.1736978047
 21
2.3190782114
 31
0
  0
LINE
  5
3D8
100
AcDbEntity
  8
SEMA2D
100
AcDbLine
370
9
 62
0
 48
0
  6
_SOLID
 10
1.1757095561
 20
2.5068658278
 30
0
 11
1.1757095561
 21
2.522648604
 31
0
  0
LINE
  5
3D9
100
AcDbEntity
  8
SEMA2D
100
AcDbLine
370
9
 62
0
 48
0
  6
_SOLID
 10
1.1593527716
 20
2.2830506125
 30
0
 11
1.1474546538
 21
2.281963906
 31
0
  0
LINE
  5
3DA
100
AcDbEntity
  8
SEMA2D
100
AcDbLine
370
9
 62
0
 48
0
  6
_SOLID
 10
1.1676630194
 20
2.3103776844
 30
0
 11
1.1718797162
 21
2.3107628136
 31
0
  0
LINE
  5
3DB
100
AcDbEntity
  8
SEMA2D
100
AcDbLine
370
9
 62
0
 48
0
  6
_SOLID
 10
1.1698184681
 20
2.5280019464
 30
0
 11
1.1698184681
 21
2.5263394464
 31
0
  0
LINE
  5
3DC
100
AcDbEntity
  8
SEMA2D
100
AcDbLine
370
9
 62
0
 48
0
  6
_SOLID
 10
1.1661784681
 20
2.5280019464
 30
0
 11
1.1661784681
 21
2.5270519464
 31
0
  0
LINE
  5
3DD
100
AcDbEntity
  8
SEMA2D
100
AcDbLine
370
9
 62
0
 48
0
  6
_SOLID
 10
1.1718797162
 20
2.3210699213
 30
0
 11
1.1663986238
 21
2.3215705331
 31
0
  0
ARC
  5
3DE
100
AcDbEntity
  8
SEMA2D
100
AcDbCircle
370
9
 62
0
 48
0
  6
_SOLID
 10
1.1665805353
 20
2.323562243
 30
0
 40
0.002
100
AcDbArc
 50
177.043178296446
 51
264.781408336933
  0
LINE
  5
3DF
100
AcDbEntity
  8
SEMA2D
100
AcDbLine
370
9
 62
0
 48
0
  6
_SOLID
 10
1.1445375578
 20
2.2730878844
 30
0
 11
1.1451624315
 21
2.2848160083
 31
0
  0
LINE
  5
3E0
100
AcDbEntity
  8
SEMA2D
100
AcDbLine
370
9
 62
0
 48
0
  6
_SOLID
 10
1.1474546538
 20
2.2742121653
 30
0
 11
1.1474546538
 21
2.281963906
 31
0
  0
LINE
  5
3E1
100
AcDbEntity
  8
SEMA2D
100
AcDbLine
370
9
 62
0
 48
0
  6
_SOLID
 10
1.1464524467
 20
2.0849019464
 30
0
 11
1.1464524467
 21
2.0865644464
 31
0
  0
LINE
  5
3E2
100
AcDbEntity
  8
SEMA2D
100
AcDbLine
370
9
 62
0
 48
0
  6
_SOLID
 10
1.1428235852
 20
2.0858519464
 30
0
 11
1.1428235852
 21
2.0849019464
 31
0
  0
LINE
  5
3E3
100
AcDbEntity
  8
SEMA2D
100
AcDbLine
370
9
 62
0
 48
0
  6
_SOLID
 10
1.1698184681
 20
2.5263394464
 30
0
 11
1.1740233692
 21
2.5251632213
 31
0
  0
LINE
  5
3E4
100
AcDbEntity
  8
SEMA2D
100
AcDbLine
370
9
 62
0
 48
0
  6
_SOLID
 10
1.2422245561
 20
2.5263394464
 30
0
 11
1.2444033287
 21
2.5257299845
 31
0
  0
LINE
  5
3E5
100
AcDbEntity
  8
SEMA2D
100
AcDbLine
370
9
 62
0
 48
0
  6
_SOLID
 10
1.1698184681
 20
2.5263394464
 30
0
 11
1.2422245561
 21
2.5263394464
 31
0
  0
LINE
  5
3E6
100
AcDbEntity
  8
SEMA2D
100
AcDbLine
370
9
 62
0
 48
0
  6
_SOLID
 10
1.2422245561
 20
2.5280019464
 30
0
 11
1.1661784681
 21
2.5280019464
 31
0
  0
LINE
  5
3E7
100
AcDbEntity
  8
SEMA2D
100
AcDbLine
370
9
 62
0
 48
0
  6
_SOLID
 10
1.1603258929
 20
2.5254148221
 30
0
 11
1.1661784681
 21
2.5270519464
 31
0
  0
LINE
  5
3E8
100
AcDbEntity
  8
SEMA2D
100
AcDbLine
370
9
 62
0
 48
0
  6
_SOLID
 10
1.1392306554
 20
2.1579080996
 30
0
 11
1.1484409113
 21
2.3307738996
 31
0
  0
LINE
  5
3E9
100
AcDbEntity
  8
SEMA2D
100
AcDbLine
370
9
 62
0
 48
0
  6
_SOLID
 10
1.1492836461
 20
2.3469273365
 30
0
 11
1.1588676018
 21
2.5235970941
 31
0
  0
LINE
  5
3EA
100
AcDbEntity
  8
SEMA2D
100
AcDbLine
370
9
 62
0
 48
0
  6
_SOLID
 10
1.1707047764
 20
2.4568276772
 30
0
 11
1.1729213508
 21
2.4989415974
 31
0
  0
LINE
  5
3EB
100
AcDbEntity
  8
SEMA2D
100
AcDbLine
370
9
 62
0
 48
0
  6
_SOLID
 10
1.1451624315
 20
2.2848160083
 30
0
 11
1.146173122
 21
2.2870134257
 31
0
  0
LINE
  5
3EC
100
AcDbEntity
  8
SEMA2D
100
AcDbLine
370
9
 62
0
 48
0
  6
_SOLID
 10
1.1445665086
 20
2.2730065311
 30
0
 11
1.1453303872
 21
2.2708599888
 31
0
  0
ARC
  5
3ED
100
AcDbEntity
  8
SEMA2D
100
AcDbCircle
370
9
 62
0
 48
0
  6
_SOLID
 10
1.1623270262
 20
2.1609018272
 30
0
 40
0.0074495667
100
AcDbArc
 50
96.2422617637718
 51
178.308823304383
  0
ARC
  5
3EE
100
AcDbEntity
  8
SEMA2D
100
AcDbCircle
370
9
 62
0
 48
0
  6
_SOLID
 10
1.1635126508
 20
2.1876125343
 30
0
 40
0.0074805182
100
AcDbArc
 50
192.820730568512
 51
267.504276997736
  0
LINE
  5
3EF
100
AcDbEntity
  8
SEMA2D
100
AcDbLine
370
9
 62
0
 48
0
  6
_SOLID
 10
1.1580734562
 20
2.2210366732
 30
0
 11
1.1544376442
 21
2.1542198129
 31
0
  0
ARC
  5
3F0
100
AcDbEntity
  8
SEMA2D
100
AcDbCircle
370
9
 62
0
 48
0
  6
_SOLID
 10
1.1798024895
 20
2.4994667743
 30
0
 40
0.0069011506
100
AcDbArc
 50
132.648505997356
 51
184.364423233244
  0
ARC
  5
3F1
100
AcDbEntity
  8
SEMA2D
100
AcDbCircle
370
9
 62
0
 48
0
  6
_SOLID
 10
1.1732098807
 20
2.5062581022
 30
0
 40
0.0025724905
100
AcDbArc
 50
318.178513035054
 51
13.6647380705949
  0
CIRCLE
  5
3F2
100
AcDbEntity
  8
SEMA2D
100
AcDbCircle
370
9
 62
0
 48
0
  6
_SOLID
 10
1.5989365589
 20
2.2789519464
 30
0
 40
0.003
  0
CIRCLE
  5
3F3
100
AcDbEntity
  8
SEMA2D
100
AcDbCircle
370
9
 62
0
 48
0
  6
_SOLID
 10
1.5989365589
 20
2.2789519464
 30
0
 40
0.004
  0
CIRCLE
  5
3F4
100
AcDbEntity
  8
SEMA2D
100
AcDbCircle
370
9
 62
0
 48
0
  6
_SOLID
 10
1.5989365589
 20
2.2789519464
 30
0
 40
0.005
  0
CIRCLE
  5
3F5
100
AcDbEntity
  8
SEMA2D
100
AcDbCircle
370
9
 62
0
 48
0
  6
_SOLID
 10
1.5989365589
 20
2.2789519464
 30
0
 40
0.008
  0
CIRCLE
  5
3F6
100
AcDbEntity
  8
SEMA2D
100
AcDbCircle
370
9
 62
0
 48
0
  6
_SOLID
 10
1.598936559
 20
2.4940019464
 30
0
 40
0.005
  0
CIRCLE
  5
3F7
100
AcDbEntity
  8
SEMA2D
100
AcDbCircle
370
9
 62
0
 48
0
  6
_SOLID
 10
1.598936559
 20
2.4940019464
 30
0
 40
0.006
  0
LINE
  5
3F8
100
AcDbEntity
  8
SEMA2D
100
AcDbLine
370
9
 62
0
 48
0
  6
_DOT
 10
1.1817095561
 20
2.5780019464
 30
0
 11
1.1817095561
 21
2.2297042374
 31
0
  0
MTEXT
  5
3F9
100
AcDbEntity
  8
SEMATEXT
100
AcDbMText
370
9
 62
1
 10
1.7585900029
 20
2.4043019464
 30
0
 40
0.00813617953440476
  1
{\fArial Narrow;Überdeckung}
 50
90
 41
0
  7
STANDARD
 71
7
  0
LINE
  5
3FD
100
AcDbEntity
  8
SEMA2D
100
AcDbLine
370
9
 62
5
 48
0
  6
_SOLID
 10
1.4758814924
 20
1.8778527351
 30
0
 11
1.5409838575
 21
1.9128816001
 31
0
  0
LINE
  5
3FE
100
AcDbEntity
  8
SEMA2D
100
AcDbLine
370
9
 62
5
 48
0
  6
_SOLID
 10
1.4758814924
 20
1.8778527351
 30
0
 11
1.4610959057
 21
1.8778527351
 31
0
  0
MTEXT
  5
3FF
100
AcDbEntity
  8
SEMATEXT
100
AcDbMText
370
9
 62
5
 10
1.39110144801785
 20
1.8778527351
 30
0
 40
0.00813617953440476
  1
{\fArial Narrow;Bogenmass 374 mm}
 50
0
 41
0
  7
STANDARD
 71
7
  0
LINE
  5
403
100
AcDbEntity
  8
SEMA2D
100
AcDbLine
370
9
 62
92
 48
0
  6
_SOLID
 10
1.7283199322
 20
1.9062616086
 30
0
 11
1.6632175671
 21
1.9412904736
 31
0
  0
LINE
  5
404
100
AcDbEntity
  8
SEMA2D
100
AcDbLine
370
9
 62
92
 48
0
  6
_SOLID
 10
1.7283199322
 20
1.9062616086
 30
0
 11
1.7431055189
 21
1.9062616086
 31
0
  0
MTEXT
  5
405
100
AcDbEntity
  8
SEMATEXT
100
AcDbMText
370
9
 62
92
 10
1.7431055189
 20
1.9062616086
 30
0
 40
0.00813617953440476
  1
{\fArial Narrow;Bogenmass 314 mm}
 50
0
 41
0
  7
STANDARD
 71
7
  0
LINE
  5
409
100
AcDbEntity
  8
SEMA2D
100
AcDbLine
370
9
 62
5
 48
0
  6
_SOLID
 10
1.4674671175
 20
2.7012320139
 30
0
 11
1.5325694826
 21
2.6662031489
 31
0
  0
LINE
  5
40A
100
AcDbEntity
  8
SEMA2D
100
AcDbLine
370
9
 62
5
 48
0
  6
_SOLID
 10
1.4674671175
 20
2.7012320139
 30
0
 11
1.4526815308
 21
2.7012320139
 31
0
  0
MTEXT
  5
40B
100
AcDbEntity
  8
SEMATEXT
100
AcDbMText
370
9
 62
5
 10
1.38268707311785
 20
2.70123201389929
 30
0
 40
0.00813617953440476
  1
{\fArial Narrow;Bogenmass 290 mm}
 50
5.84807924308706E-10
 41
0
  7
STANDARD
 71
7
  0
LINE
  5
40F
100
AcDbEntity
  8
SEMA2D
100
AcDbLine
370
9
 62
92
 48
0
  6
_SOLID
 10
1.6933036382
 20
2.7012320139
 30
0
 11
1.6282012731
 21
2.6662031489
 31
0
  0
LINE
  5
410
100
AcDbEntity
  8
SEMA2D
100
AcDbLine
370
9
 62
92
 48
0
  6
_SOLID
 10
1.6933036382
 20
2.7012320139
 30
0
 11
1.7080892249
 21
2.7012320139
 31
0
  0
MTEXT
  5
411
100
AcDbEntity
  8
SEMATEXT
100
AcDbMText
370
9
 62
92
 10
1.7080892249
 20
2.7012320139
 30
0
 40
0.00813617953440476
  1
{\fArial Narrow;Bogenmass 235 mm}
 50
5.84807924308706E-10
 41
0
  7
STANDARD
 71
7
  0
LINE
  5
415
100
AcDbEntity
  8
SEMA2D
100
AcDbLine
370
9
 62
0
 48
0
  6
_SOLID
 10
1.4778130117
 20
2.6101506062
 30
0
 11
1.4783823402
 21
2.6078385654
 31
0
  0
ARC
  5
416
100
AcDbEntity
  8
SEMA2D
100
AcDbCircle
370
9
 62
0
 48
0
  6
_SOLID
 10
1.48050365
 20
2.6083609273
 30
0
 40
0.0021846778
100
AcDbArc
 50
193.833575788933
 51
270
  0
LINE
  5
417
100
AcDbEntity
  8
SEMA2D
100
AcDbLine
370
9
 62
0
 48
0
  6
_SOLID
 10
1.4759265237
 20
2.6141284768
 30
0
 11
1.4759265237
 21
2.6101523632
 31
0
  0
LINE
  5
418
100
AcDbEntity
  8
SEMA2D
100
AcDbLine
370
9
 62
0
 48
0
  6
_SOLID
 10
1.4809317054
 20
2.6061762495
 30
0
 11
1.4809317054
 21
2.608018168
 31
0
  0
LINE
  5
419
100
AcDbEntity
  8
SEMA2D
100
AcDbLine
370
9
 62
0
 48
0
  6
_SOLID
 10
1.4883107859
 20
2.6061762495
 30
0
 11
1.4883107859
 21
2.6080181369
 31
0
  0
LINE
  5
41A
100
AcDbEntity
  8
SEMA2D
100
AcDbLine
370
9
 62
0
 48
0
  6
_SOLID
 10
1.4883107859
 20
2.6061762495
 30
0
 11
1.5123792801
 21
2.6061762495
 31
0
  0
LINE
  5
41B
100
AcDbEntity
  8
SEMA2D
100
AcDbLine
370
9
 62
0
 48
0
  6
_SOLID
 10
1.7169415199
 20
2.6080181369
 30
0
 11
1.7091044904
 21
2.6080181369
 31
0
  0
ARC
  5
41C
100
AcDbEntity
  8
SEMA2D
100
AcDbCircle
370
9
 62
0
 48
0
  6
_SOLID
 10
1.7091044904
 20
2.6107285556
 30
0
 40
0.0027104187
100
AcDbArc
 50
180
 51
270
  0
LINE
  5
41D
100
AcDbEntity
  8
SEMA2D
100
AcDbLine
370
9
 62
0
 48
0
  6
_SOLID
 10
1.4883107859
 20
2.6080181369
 30
0
 11
1.480931598
 21
2.6080181369
 31
0
  0
LINE
  5
41E
100
AcDbEntity
  8
SEMA2D
100
AcDbLine
370
9
 62
0
 48
0
  6
_SOLID
 10
1.6854942656
 20
2.6061763
 30
0
 11
1.7095623321
 21
2.6061762614
 31
0
  0
ARC
  5
41F
100
AcDbEntity
  8
SEMA2D
100
AcDbCircle
370
9
 62
0
 48
0
  6
_SOLID
 10
1.7173694679
 20
2.6083609268
 30
0
 40
0.0021846778
100
AcDbArc
 50
258.701319740341
 51
346.166425663231
  0
LINE
  5
420
100
AcDbEntity
  8
SEMA2D
100
AcDbLine
370
9
 62
0
 48
0
  6
_SOLID
 10
1.4970863396
 20
2.6422670759
 30
0
 11
1.4871399183
 21
2.646722045
 31
0
  0
LINE
  5
421
100
AcDbEntity
  8
SEMA2D
100
AcDbLine
370
9
 62
0
 48
0
  6
_SOLID
 10
1.4759265237
 20
2.6101523632
 30
0
 11
1.4873814469
 21
2.6101523632
 31
0
  0
LINE
  5
422
100
AcDbEntity
  8
SEMA2D
100
AcDbLine
370
9
 62
0
 48
0
  6
_SOLID
 10
1.7104916712
 20
2.6101523632
 30
0
 11
1.7219465943
 21
2.6101523632
 31
0
  0
LINE
  5
423
100
AcDbEntity
  8
SEMA2D
100
AcDbLine
370
9
 62
0
 48
0
  6
_SOLID
 10
1.7219465943
 20
2.6141284768
 30
0
 11
1.7140800355
 21
2.6141284768
 31
0
  0
LINE
  5
424
100
AcDbEntity
  8
SEMA2D
100
AcDbLine
370
9
 62
0
 48
0
  6
_SOLID
 10
1.4759265237
 20
2.6141284768
 30
0
 11
1.4837930825
 21
2.6141284768
 31
0
  0
LINE
  5
425
100
AcDbEntity
  8
SEMA2D
100
AcDbLine
370
9
 62
0
 48
0
  6
_SOLID
 10
1.5564913875
 20
2.6762552525
 30
0
 11
1.5564913875
 21
2.6785237357
 31
0
  0
LINE
  5
426
100
AcDbEntity
  8
SEMA2D
100
AcDbLine
370
9
 62
0
 48
0
  6
_SOLID
 10
1.5603567721
 20
2.6731527265
 30
0
 11
1.5612282147
 21
2.6735623069
 31
0
  0
LINE
  5
427
100
AcDbEntity
  8
SEMA2D
100
AcDbLine
370
9
 62
0
 48
0
  6
_SOLID
 10
1.5876607726
 20
2.6762552529
 30
0
 11
1.5876607726
 21
2.6785237357
 31
0
  0
LINE
  5
428
100
AcDbEntity
  8
SEMA2D
100
AcDbLine
370
9
 62
0
 48
0
  6
_SOLID
 10
1.5951258822
 20
2.6777462947
 30
0
 11
1.5951258822
 21
2.6800147786
 31
0
  0
LINE
  5
429
100
AcDbEntity
  8
SEMA2D
100
AcDbLine
370
9
 62
0
 48
0
  6
_SOLID
 10
1.6027472358
 20
2.6777462955
 30
0
 11
1.6027472358
 21
2.6800147783
 31
0
  0
LINE
  5
42A
100
AcDbEntity
  8
SEMA2D
100
AcDbLine
370
9
 62
0
 48
0
  6
_SOLID
 10
1.6102123454
 20
2.6762552547
 30
0
 11
1.6102123454
 21
2.6785237357
 31
0
  0
LINE
  5
42B
100
AcDbEntity
  8
SEMA2D
100
AcDbLine
370
9
 62
0
 48
0
  6
_SOLID
 10
1.5827595945
 20
2.6762552529
 30
0
 11
1.5502360287
 21
2.6762552529
 31
0
  0
LINE
  5
42C
100
AcDbEntity
  8
SEMA2D
100
AcDbLine
370
9
 62
0
 48
0
  6
_SOLID
 10
1.6151135237
 20
2.6762552529
 30
0
 11
1.5827595945
 21
2.6762552529
 31
0
  0
LINE
  5
42D
100
AcDbEntity
  8
SEMA2D
100
AcDbLine
370
9
 62
0
 48
0
  6
_SOLID
 10
1.6476370882
 20
2.6762552529
 30
0
 11
1.6151135237
 21
2.6762552529
 31
0
  0
LINE
  5
42E
100
AcDbEntity
  8
SEMA2D
100
AcDbLine
370
9
 62
0
 48
0
  6
_SOLID
 10
1.6027471919
 20
2.6777462955
 30
0
 11
1.5951259261
 21
2.6777462955
 31
0
  0
LINE
  5
42F
100
AcDbEntity
  8
SEMA2D
100
AcDbLine
370
9
 62
0
 48
0
  6
_SOLID
 10
1.6413817669
 20
2.6785237357
 30
0
 11
1.6102123454
 21
2.6785237357
 31
0
  0
LINE
  5
430
100
AcDbEntity
  8
SEMA2D
100
AcDbLine
370
9
 62
0
 48
0
  6
_SOLID
 10
1.5876607726
 20
2.6785237357
 30
0
 11
1.5564913512
 21
2.6785237357
 31
0
  0
LINE
  5
431
100
AcDbEntity
  8
SEMA2D
100
AcDbLine
370
9
 62
0
 48
0
  6
_SOLID
 10
1.6027472358
 20
2.6800147783
 30
0
 11
1.5951258822
 21
2.6800147783
 31
0
  0
LINE
  5
432
100
AcDbEntity
  8
SEMA2D
100
AcDbLine
370
9
 62
0
 48
0
  6
_SOLID
 10
1.6413817306
 20
2.6762552529
 30
0
 11
1.6413817306
 21
2.6785237357
 31
0
  0
LINE
  5
433
100
AcDbEntity
  8
SEMA2D
100
AcDbLine
370
9
 62
0
 48
0
  6
_SOLID
 10
1.7007867785
 20
2.6422670759
 30
0
 11
1.71070024
 21
2.6467072824
 31
0
  0
LINE
  5
434
100
AcDbEntity
  8
SEMA2D
100
AcDbLine
370
9
 62
0
 48
0
  6
_SOLID
 10
1.7095623321
 20
2.6061762508
 30
0
 11
1.7095623321
 21
2.6080181369
 31
0
  0
LINE
  5
435
100
AcDbEntity
  8
SEMA2D
100
AcDbLine
370
9
 62
0
 48
0
  6
_SOLID
 10
1.7169414126
 20
2.6061762495
 30
0
 11
1.7169414126
 21
2.6080181369
 31
0
  0
LINE
  5
436
100
AcDbEntity
  8
SEMA2D
100
AcDbLine
370
9
 62
0
 48
0
  6
_SOLID
 10
1.7219465943
 20
2.6101523632
 30
0
 11
1.7219465943
 21
2.6141284768
 31
0
  0
LINE
  5
437
100
AcDbEntity
  8
SEMA2D
100
AcDbLine
370
9
 62
0
 48
0
  6
_SOLID
 10
1.7200601063
 20
2.6101506062
 30
0
 11
1.7194907778
 21
2.6078385649
 31
0
  0
LINE
  5
438
100
AcDbEntity
  8
SEMA2D
100
AcDbLine
370
9
 62
0
 48
0
  6
_SOLID
 10
1.7169415199
 20
2.6080181369
 30
0
 11
1.7200601063
 21
2.6101506062
 31
0
  0
LINE
  5
439
100
AcDbEntity
  8
SEMA2D
100
AcDbLine
370
9
 62
0
 48
0
  6
_SOLID
 10
1.480931598
 20
2.6080181369
 30
0
 11
1.4778130117
 21
2.6101506062
 31
0
  0
ARC
  5
43A
100
AcDbEntity
  8
SEMA2D
100
AcDbCircle
370
9
 62
0
 48
0
  6
_SOLID
 10
1.6014123389
 20
2.5976107677
 30
0
 40
0.079785769
100
AcDbArc
 50
9.33568226376126
 51
80.111889921074
  0
ARC
  5
43B
100
AcDbEntity
  8
SEMA2D
100
AcDbCircle
370
9
 62
0
 48
0
  6
_SOLID
 10
1.5964607792
 20
2.5976107677
 30
0
 40
0.079785769
100
AcDbArc
 50
99.888110078926
 51
170.664317736239
  0
ARC
  5
43C
100
AcDbEntity
  8
SEMA2D
100
AcDbCircle
370
9
 62
0
 48
0
  6
_SOLID
 10
1.6472804675
 20
2.6463656409
 30
0
 40
0.0298841864
100
AcDbArc
 50
47.2132907845484
 51
89.3164392219393
  0
ARC
  5
43D
100
AcDbEntity
  8
SEMA2D
100
AcDbCircle
370
9
 62
0
 48
0
  6
_SOLID
 10
1.635638617
 20
2.6463730264
 30
0
 40
0.0298688862
100
AcDbArc
 50
55.0601068883099
 51
85.7960912444303
  0
ARC
  5
43E
100
AcDbEntity
  8
SEMA2D
100
AcDbCircle
370
9
 62
0
 48
0
  6
_SOLID
 10
1.5622792158
 20
2.6462849374
 30
0
 40
0.0299667096
100
AcDbArc
 50
91.2644573587149
 51
124.91351746089
  0
ARC
  5
43F
100
AcDbEntity
  8
SEMA2D
100
AcDbCircle
370
9
 62
0
 48
0
  6
_SOLID
 10
1.5506424509
 20
2.646269207
 30
0
 40
0.0299887999
100
AcDbArc
 50
90.7765229386365
 51
132.731385153054
  0
ARC
  5
440
100
AcDbEntity
  8
SEMA2D
100
AcDbCircle
370
9
 62
0
 48
0
  6
_SOLID
 10
1.6007945034
 20
2.5945266719
 30
0
 40
0.1216638281
100
AcDbArc
 50
9.27283090046459
 51
90.8769522239376
  0
ARC
  5
441
100
AcDbEntity
  8
SEMA2D
100
AcDbCircle
370
9
 62
0
 48
0
  6
_SOLID
 10
1.596925925
 20
2.5947089613
 30
0
 40
0.1214838596
100
AcDbArc
 50
89.0536253876749
 51
170.800415351181
  0
ARC
  5
442
100
AcDbEntity
  8
SEMA2D
100
AcDbCircle
370
9
 62
0
 48
0
  6
_SOLID
 10
1.6007945034
 20
2.5945266719
 30
0
 40
0.1108043377
100
AcDbArc
 50
8.10689692078008
 51
90
  0
ARC
  5
443
100
AcDbEntity
  8
SEMA2D
100
AcDbCircle
370
9
 62
0
 48
0
  6
_SOLID
 10
1.6007945034
 20
2.5945266719
 30
0
 40
0.11495958
100
AcDbArc
 50
9.8166948976573
 51
90
  0
ARC
  5
444
100
AcDbEntity
  8
SEMA2D
100
AcDbCircle
370
9
 62
0
 48
0
  6
_SOLID
 10
1.7095623321
 20
2.6116380014
 30
0
 40
0.0054616946
100
AcDbArc
 50
191.453137852065
 51
270
  0
LINE
  5
445
100
AcDbEntity
  8
SEMA2D
100
AcDbLine
370
9
 62
0
 48
0
  6
_SOLID
 10
1.6801413361
 20
2.6105534856
 30
0
 11
1.7042093939
 21
2.6105534856
 31
0
  0
LINE
  5
446
100
AcDbEntity
  8
SEMA2D
100
AcDbLine
370
9
 62
0
 48
0
  6
_SOLID
 10
1.7042093939
 20
2.6105534924
 30
0
 11
1.7063940717
 21
2.6105534924
 31
0
  0
ARC
  5
447
100
AcDbEntity
  8
SEMA2D
100
AcDbCircle
370
9
 62
0
 48
0
  6
_SOLID
 10
1.6007945034
 20
2.5945266719
 30
0
 40
0.1068046685
100
AcDbArc
 50
8.7227314174863
 51
90
  0
ARC
  5
448
100
AcDbEntity
  8
SEMA2D
100
AcDbCircle
370
9
 62
0
 48
0
  6
_SOLID
 10
1.5970786148
 20
2.5945266719
 30
0
 40
0.1108043377
100
AcDbArc
 50
90
 51
171.89310307922
  0
ARC
  5
449
100
AcDbEntity
  8
SEMA2D
100
AcDbCircle
370
9
 62
0
 48
0
  6
_SOLID
 10
1.5970786148
 20
2.5945266719
 30
0
 40
0.11495958
100
AcDbArc
 50
90
 51
170.183305102343
  0
ARC
  5
44A
100
AcDbEntity
  8
SEMA2D
100
AcDbCircle
370
9
 62
0
 48
0
  6
_SOLID
 10
1.5970786148
 20
2.5945266719
 30
0
 40
0.1068046685
100
AcDbArc
 50
90
 51
171.277268582514
  0
ARC
  5
44B
100
AcDbEntity
  8
SEMA2D
100
AcDbCircle
370
9
 62
0
 48
0
  6
_SOLID
 10
1.4887686277
 20
2.6107285556
 30
0
 40
0.0027104187
100
AcDbArc
 50
270
 51
0
  0
ARC
  5
44C
100
AcDbEntity
  8
SEMA2D
100
AcDbCircle
370
9
 62
0
 48
0
  6
_SOLID
 10
1.488310786
 20
2.6116380014
 30
0
 40
0.0054616946
100
AcDbArc
 50
270
 51
348.546862147935
  0
LINE
  5
44D
100
AcDbEntity
  8
SEMA2D
100
AcDbLine
370
9
 62
0
 48
0
  6
_SOLID
 10
1.4936637242
 20
2.6105534924
 30
0
 11
1.4914790464
 21
2.6105534924
 31
0
  0
ARC
  5
44E
100
AcDbEntity
  8
SEMA2D
100
AcDbCircle
370
9
 62
0
 48
0
  6
_SOLID
 10
1.5989365591
 20
2.5961978781
 30
0
 40
0.0995501628
100
AcDbArc
 50
46.4066483823984
 51
133.593351674304
  0
ARC
  5
44F
100
AcDbEntity
  8
SEMA2D
100
AcDbCircle
370
9
 62
0
 48
0
  6
_SOLID
 10
1.5989365591
 20
2.5892634058
 30
0
 40
0.0988382627
100
AcDbArc
 50
64.5679066598151
 51
115.432093340185
  0
ARC
  5
450
100
AcDbEntity
  8
SEMA2D
100
AcDbCircle
370
9
 62
0
 48
0
  6
_SOLID
 10
1.6447680175
 20
2.6485281661
 30
0
 40
0.0301861042
100
AcDbArc
 50
40.9126319751792
 51
96.4409476614145
  0
ARC
  5
451
100
AcDbEntity
  8
SEMA2D
100
AcDbCircle
370
9
 62
0
 48
0
  6
_SOLID
 10
1.5537605039
 20
2.6468491533
 30
0
 40
0.0317920854
100
AcDbArc
 50
85.0723875765213
 51
137.574032831815
  0
LINE
  5
452
100
AcDbEntity
  8
SEMA2D
100
AcDbLine
370
9
 62
0
 48
0
  6
_SOLID
 10
1.7095623321
 20
2.6061763068
 30
0
 11
1.7169414126
 21
2.6061763089
 31
0
  0
LINE
  5
453
100
AcDbEntity
  8
SEMA2D
100
AcDbLine
370
9
 62
0
 48
0
  6
_SOLID
 10
1.48050365
 20
2.6061762495
 30
0
 11
1.488310786
 21
2.6061762517
 31
0
  0
LINE
  5
454
100
AcDbEntity
  8
SEMA2D
100
AcDbLine
370
9
 62
0
 48
0
  6
_SOLID
 10
1.5970786148
 20
2.6991806887
 30
0
 11
1.6007945034
 21
2.6991806887
 31
0
  0
LINE
  5
455
100
AcDbEntity
  8
SEMA2D
100
AcDbLine
370
9
 62
0
 48
0
  6
_SOLID
 10
1.6007945034
 20
2.7013313404
 30
0
 11
1.5970786148
 21
2.7013313404
 31
0
  0
LINE
  5
456
100
AcDbEntity
  8
SEMA2D
100
AcDbLine
370
9
 62
0
 48
0
  6
_SOLID
 10
1.6007945034
 20
2.7053310096
 30
0
 11
1.5970786148
 21
2.7053310096
 31
0
  0
LINE
  5
457
100
AcDbEntity
  8
SEMA2D
100
AcDbLine
370
9
 62
0
 48
0
  6
_SOLID
 10
1.6007945034
 20
2.7094862519
 30
0
 11
1.5970786148
 21
2.7094862519
 31
0
  0
LINE
  5
458
100
AcDbEntity
  8
SEMA2D
100
AcDbLine
370
9
 62
0
 48
0
  6
_SOLID
 10
1.4782314134
 20
2.0071804263
 30
0
 11
1.4776620847
 21
2.004868385
 31
0
  0
ARC
  5
459
100
AcDbEntity
  8
SEMA2D
100
AcDbCircle
370
9
 62
0
 48
0
  6
_SOLID
 10
1.480352723
 20
2.0066580644
 30
0
 40
0.0021846777
100
AcDbArc
 50
90
 51
166.166424919776
  0
LINE
  5
45A
100
AcDbEntity
  8
SEMA2D
100
AcDbLine
370
9
 62
0
 48
0
  6
_SOLID
 10
1.4757755969
 20
2.0008905148
 30
0
 11
1.4757755969
 21
2.0048666282
 31
0
  0
LINE
  5
45B
100
AcDbEntity
  8
SEMA2D
100
AcDbLine
370
9
 62
0
 48
0
  6
_SOLID
 10
1.4997613457
 20
2.0008905148
 30
0
 11
1.4997613457
 21
2.0048666282
 31
0
  0
LINE
  5
45C
100
AcDbEntity
  8
SEMA2D
100
AcDbLine
370
9
 62
0
 48
0
  6
_SOLID
 10
1.5116614057
 20
2.0088427347
 30
0
 11
1.5116614057
 21
2.0070008544
 31
0
  0
LINE
  5
45D
100
AcDbEntity
  8
SEMA2D
100
AcDbLine
370
9
 62
0
 48
0
  6
_SOLID
 10
1.5148918935
 20
1.9683883158
 30
0
 11
1.5189609879
 21
1.9707572304
 31
0
  0
ARC
  5
45E
100
AcDbEntity
  8
SEMA2D
100
AcDbCircle
370
9
 62
0
 48
0
  6
_SOLID
 10
1.6852661421
 20
2.0033810474
 30
0
 40
0.0054616942
100
AcDbArc
 50
90
 51
170.146568033196
  0
ARC
  5
45F
100
AcDbEntity
  8
SEMA2D
100
AcDbCircle
370
9
 62
0
 48
0
  6
_SOLID
 10
1.5123059544
 20
2.003380997
 30
0
 40
0.0054616942
100
AcDbArc
 50
9.8328775122805
 51
90
  0
LINE
  5
460
100
AcDbEntity
  8
SEMA2D
100
AcDbLine
370
9
 62
0
 48
0
  6
_SOLID
 10
1.5838239132
 20
1.9387637439
 30
0
 11
1.6137473588
 21
1.9387637439
 31
0
  0
LINE
  5
461
100
AcDbEntity
  8
SEMA2D
100
AcDbLine
370
9
 62
0
 48
0
  6
_SOLID
 10
1.5075838608
 20
2.0008905148
 30
0
 11
1.4757755969
 21
2.0008905148
 31
0
  0
LINE
  5
462
100
AcDbEntity
  8
SEMA2D
100
AcDbLine
370
9
 62
0
 48
0
  6
_SOLID
 10
1.6899873875
 20
2.0008905148
 30
0
 11
1.7217956514
 21
2.0008905148
 31
0
  0
LINE
  5
463
100
AcDbEntity
  8
SEMA2D
100
AcDbLine
370
9
 62
0
 48
0
  6
_SOLID
 10
1.5110981232
 20
2.0048666282
 30
0
 11
1.4757755969
 21
2.0048666282
 31
0
  0
LINE
  5
464
100
AcDbEntity
  8
SEMA2D
100
AcDbLine
370
9
 62
0
 48
0
  6
_SOLID
 10
1.6864731252
 20
2.0048666282
 30
0
 11
1.7217956514
 21
2.0048666282
 31
0
  0
LINE
  5
465
100
AcDbEntity
  8
SEMA2D
100
AcDbLine
370
9
 62
0
 48
0
  6
_SOLID
 10
1.47814137
 20
2.0067888926
 30
0
 11
1.5015706615
 21
2.0067879315
 31
0
  0
LINE
  5
466
100
AcDbEntity
  8
SEMA2D
100
AcDbLine
370
9
 62
0
 48
0
  6
_SOLID
 10
1.6960005868
 20
2.0067879315
 30
0
 11
1.7194298783
 21
2.0067888926
 31
0
  0
LINE
  5
467
100
AcDbEntity
  8
SEMA2D
100
AcDbLine
370
9
 62
0
 48
0
  6
_SOLID
 10
1.5040776696
 20
2.0070008544
 30
0
 11
1.5132990072
 21
2.0070008544
 31
0
  0
ARC
  5
468
100
AcDbEntity
  8
SEMA2D
100
AcDbCircle
370
9
 62
0
 48
0
  6
_SOLID
 10
1.5132990072
 20
2.0048161767
 30
0
 40
0.0021846777
100
AcDbArc
 50
10.000000001991
 51
90
  0
LINE
  5
469
100
AcDbEntity
  8
SEMA2D
100
AcDbLine
370
9
 62
0
 48
0
  6
_SOLID
 10
1.6859098426
 20
2.0070008544
 30
0
 11
1.6934935786
 21
2.0070008544
 31
0
  0
LINE
  5
46A
100
AcDbEntity
  8
SEMA2D
100
AcDbLine
370
9
 62
0
 48
0
  6
_SOLID
 10
1.7168770149
 20
2.0088427416
 30
0
 11
1.6852661421
 21
2.0088427416
 31
0
  0
LINE
  5
46B
100
AcDbEntity
  8
SEMA2D
100
AcDbLine
370
9
 62
0
 48
0
  6
_SOLID
 10
1.4803527265
 20
2.0088427421
 30
0
 11
1.5123059631
 21
2.0088426912
 31
0
  0
LINE
  5
46C
100
AcDbEntity
  8
SEMA2D
100
AcDbLine
370
9
 62
0
 48
0
  6
_SOLID
 10
1.6786102606
 20
1.9707572303
 30
0
 11
1.6826793548
 21
1.9683883158
 31
0
  0
LINE
  5
46D
100
AcDbEntity
  8
SEMA2D
100
AcDbLine
370
9
 62
0
 48
0
  6
_SOLID
 10
1.6859098426
 20
2.0088427416
 30
0
 11
1.6859098426
 21
2.0070008544
 31
0
  0
LINE
  5
46E
100
AcDbEntity
  8
SEMA2D
100
AcDbLine
370
9
 62
0
 48
0
  6
_SOLID
 10
1.6978099026
 20
2.0048666282
 30
0
 11
1.6978099026
 21
2.0008905148
 31
0
  0
LINE
  5
46F
100
AcDbEntity
  8
SEMA2D
100
AcDbLine
370
9
 62
0
 48
0
  6
_SOLID
 10
1.7217956514
 20
2.0048666282
 30
0
 11
1.7217956514
 21
2.0008905148
 31
0
  0
LINE
  5
470
100
AcDbEntity
  8
SEMA2D
100
AcDbLine
370
9
 62
0
 48
0
  6
_SOLID
 10
1.7177203233
 20
2.0087075776
 30
0
 11
1.717555765
 21
2.0087558829
 31
0
  0
LINE
  5
471
100
AcDbEntity
  8
SEMA2D
100
AcDbLine
370
9
 62
0
 48
0
  6
_SOLID
 10
1.717555765
 20
2.0087558829
 30
0
 11
1.7173883534
 21
2.0087936969
 31
0
  0
LINE
  5
472
100
AcDbEntity
  8
SEMA2D
100
AcDbLine
370
9
 62
0
 48
0
  6
_SOLID
 10
1.7173883534
 20
2.0087936969
 30
0
 11
1.7172188906
 21
2.008820867
 31
0
  0
LINE
  5
473
100
AcDbEntity
  8
SEMA2D
100
AcDbLine
370
9
 62
0
 48
0
  6
_SOLID
 10
1.7172188906
 20
2.008820867
 30
0
 11
1.7170482173
 21
2.0088372531
 31
0
  0
LINE
  5
474
100
AcDbEntity
  8
SEMA2D
100
AcDbLine
370
9
 62
0
 48
0
  6
_SOLID
 10
1.7170482173
 20
2.0088372531
 30
0
 11
1.7168770383
 21
2.0088427416
 31
0
  0
LINE
  5
475
100
AcDbEntity
  8
SEMA2D
100
AcDbLine
370
9
 62
0
 48
0
  6
_SOLID
 10
1.7199091636
 20
2.004868385
 30
0
 11
1.7194018177
 21
2.0069287148
 31
0
  0
ARC
  5
476
100
AcDbEntity
  8
SEMA2D
100
AcDbCircle
370
9
 62
0
 48
0
  6
_SOLID
 10
1.5970042849
 20
2.0205839998
 30
0
 40
0.1217542223
100
AcDbArc
 50
189.309602241767
 51
270.836357075148
  0
ARC
  5
477
100
AcDbEntity
  8
SEMA2D
100
AcDbCircle
370
9
 62
0
 48
0
  6
_SOLID
 10
1.6007199658
 20
2.0204010295
 30
0
 40
0.121573736
100
AcDbArc
 50
269.086388628923
 51
350.763828193942
  0
ARC
  5
478
100
AcDbEntity
  8
SEMA2D
100
AcDbCircle
370
9
 62
0
 48
0
  6
_SOLID
 10
1.6016937597
 20
2.017065315
 30
0
 40
0.0792238921
100
AcDbArc
 50
278.751308750043
 51
350.739034375474
  0
ARC
  5
479
100
AcDbEntity
  8
SEMA2D
100
AcDbCircle
370
9
 62
0
 48
0
  6
_SOLID
 10
1.5957935368
 20
2.0169795903
 30
0
 40
0.0791264199
100
AcDbArc
 50
189.21103767016
 51
261.299346049405
  0
ARC
  5
47A
100
AcDbEntity
  8
SEMA2D
100
AcDbCircle
370
9
 62
0
 48
0
  6
_SOLID
 10
1.5957935368
 20
2.0169795903
 30
0
 40
0.0973633651
100
AcDbArc
 50
189.510909642182
 51
270
  0
ARC
  5
47B
100
AcDbEntity
  8
SEMA2D
100
AcDbCircle
370
9
 62
0
 48
0
  6
_SOLID
 10
1.5957935368
 20
2.0169795903
 30
0
 40
0.089664637
100
AcDbArc
 50
190.336879923076
 51
270
  0
ARC
  5
47C
100
AcDbEntity
  8
SEMA2D
100
AcDbCircle
370
9
 62
0
 48
0
  6
_SOLID
 10
1.5957935368
 20
2.0169795903
 30
0
 40
0.0855510392
100
AcDbArc
 50
188.139129893059
 51
270
  0
ARC
  5
47D
100
AcDbEntity
  8
SEMA2D
100
AcDbCircle
370
9
 62
0
 48
0
  6
_SOLID
 10
1.5957935368
 20
2.0169795903
 30
0
 40
0.0812115581
100
AcDbArc
 50
188.139129893059
 51
270
  0
ARC
  5
47E
100
AcDbEntity
  8
SEMA2D
100
AcDbCircle
370
9
 62
0
 48
0
  6
_SOLID
 10
1.5957935368
 20
2.0169795903
 30
0
 40
0.0943711416
100
AcDbArc
 50
201.002488380859
 51
270
  0
LINE
  5
47F
100
AcDbEntity
  8
SEMA2D
100
AcDbLine
370
9
 62
0
 48
0
  6
_SOLID
 10
1.507691945
 20
1.9831561974
 30
0
 11
1.4997613457
 21
2.0008905148
 31
0
  0
ARC
  5
480
100
AcDbEntity
  8
SEMA2D
100
AcDbCircle
370
9
 62
0
 48
0
  6
_SOLID
 10
1.7172185254
 20
2.0066580644
 30
0
 40
0.0021846777
100
AcDbArc
 50
13.8335750802244
 51
90
  0
LINE
  5
481
100
AcDbEntity
  8
SEMA2D
100
AcDbLine
370
9
 62
0
 48
0
  6
_SOLID
 10
1.6978099028
 20
2.0008905148
 30
0
 11
1.6978099028
 21
2.0048666282
 31
0
  0
LINE
  5
482
100
AcDbEntity
  8
SEMA2D
100
AcDbLine
370
9
 62
0
 48
0
  6
_SOLID
 10
1.6859098428
 20
2.0088427347
 30
0
 11
1.6859098428
 21
2.0070008544
 31
0
  0
LINE
  5
483
100
AcDbEntity
  8
SEMA2D
100
AcDbLine
370
9
 62
0
 48
0
  6
_SOLID
 10
1.6826793549
 20
1.9683883158
 30
0
 11
1.6786102606
 21
1.9707572304
 31
0
  0
ARC
  5
484
100
AcDbEntity
  8
SEMA2D
100
AcDbCircle
370
9
 62
0
 48
0
  6
_SOLID
 10
1.685265294
 20
2.003380997
 30
0
 40
0.0054616942
100
AcDbArc
 50
90
 51
170.167122487719
  0
LINE
  5
485
100
AcDbEntity
  8
SEMA2D
100
AcDbLine
370
9
 62
0
 48
0
  6
_SOLID
 10
1.6934935788
 20
2.0070008544
 30
0
 11
1.6842722412
 21
2.0070008544
 31
0
  0
ARC
  5
486
100
AcDbEntity
  8
SEMA2D
100
AcDbCircle
370
9
 62
0
 48
0
  6
_SOLID
 10
1.6842722412
 20
2.0048161767
 30
0
 40
0.0021846777
100
AcDbArc
 50
90
 51
169.999999998009
  0
ARC
  5
487
100
AcDbEntity
  8
SEMA2D
100
AcDbCircle
370
9
 62
0
 48
0
  6
_SOLID
 10
1.6017777116
 20
2.0169795903
 30
0
 40
0.0973633651
100
AcDbArc
 50
270
 51
350.489090357818
  0
ARC
  5
488
100
AcDbEntity
  8
SEMA2D
100
AcDbCircle
370
9
 62
0
 48
0
  6
_SOLID
 10
1.6017777116
 20
2.0169795903
 30
0
 40
0.089664637
100
AcDbArc
 50
270
 51
349.663120076924
  0
ARC
  5
489
100
AcDbEntity
  8
SEMA2D
100
AcDbCircle
370
9
 62
0
 48
0
  6
_SOLID
 10
1.6017777116
 20
2.0169795903
 30
0
 40
0.0855510392
100
AcDbArc
 50
270
 51
351.860870106941
  0
ARC
  5
48A
100
AcDbEntity
  8
SEMA2D
100
AcDbCircle
370
9
 62
0
 48
0
  6
_SOLID
 10
1.6017777116
 20
2.0169795903
 30
0
 40
0.0812115581
100
AcDbArc
 50
270
 51
351.860870106941
  0
ARC
  5
48B
100
AcDbEntity
  8
SEMA2D
100
AcDbCircle
370
9
 62
0
 48
0
  6
_SOLID
 10
1.6017777116
 20
2.0169795903
 30
0
 40
0.0943711416
100
AcDbArc
 50
270
 51
338.997511619141
  0
LINE
  5
48C
100
AcDbEntity
  8
SEMA2D
100
AcDbLine
370
9
 62
0
 48
0
  6
_SOLID
 10
1.6898793034
 20
1.9831561974
 30
0
 11
1.6978099028
 21
2.0008905148
 31
0
  0
LINE
  5
48D
100
AcDbEntity
  8
SEMA2D
100
AcDbLine
370
9
 62
0
 48
0
  6
_SOLID
 10
1.6044813175
 20
1.9183821155
 30
0
 11
1.5933918005
 21
1.9183848219
 31
0
  0
ARC
  5
48E
100
AcDbEntity
  8
SEMA2D
100
AcDbCircle
370
9
 62
0
 48
0
  6
_SOLID
 10
1.5989421987
 20
1.941492951
 30
0
 40
0.0237653646
100
AcDbArc
 50
256.493840796669
 51
283.478193540579
  0
ARC
  5
48F
100
AcDbEntity
  8
SEMA2D
100
AcDbCircle
370
9
 62
0
 48
0
  6
_SOLID
 10
1.5988418836
 20
1.9180228237
 30
0
 40
0.0109916876
100
AcDbArc
 50
242.712108734983
 51
297.390024957558
  0
ARC
  5
490
100
AcDbEntity
  8
SEMA2D
100
AcDbCircle
370
9
 62
0
 48
0
  6
_SOLID
 10
1.5987666533
 20
2.0024293227
 30
0
 40
0.0943057056
100
AcDbArc
 50
266.982685886239
 51
273.119447805254
  0
LINE
  5
491
100
AcDbEntity
  8
SEMA2D
100
AcDbLine
370
9
 62
0
 48
0
  6
_SOLID
 10
1.5015706615
 20
2.0066580122
 30
0
 11
1.5015706615
 21
2.0048666282
 31
0
  0
ARC
  5
492
100
AcDbEntity
  8
SEMA2D
100
AcDbCircle
370
9
 62
0
 48
0
  6
_SOLID
 10
1.5037553392
 20
2.0066580122
 30
0
 40
0.0021846777
100
AcDbArc
 50
90
 51
180
  0
LINE
  5
493
100
AcDbEntity
  8
SEMA2D
100
AcDbLine
370
9
 62
0
 48
0
  6
_SOLID
 10
1.5116751878
 20
2.0088426922
 30
0
 11
1.5037553386
 21
2.0088426899
 31
0
  0
LINE
  5
494
100
AcDbEntity
  8
SEMA2D
100
AcDbLine
370
9
 62
0
 48
0
  6
_SOLID
 10
1.5040776696
 20
2.0070008544
 30
0
 11
1.5037553392
 21
2.0088426899
 31
0
  0
LINE
  5
495
100
AcDbEntity
  8
SEMA2D
100
AcDbLine
370
9
 62
0
 48
0
  6
_SOLID
 10
1.5040776696
 20
2.0070008544
 30
0
 11
1.5015706615
 21
2.0048666282
 31
0
  0
LINE
  5
496
100
AcDbEntity
  8
SEMA2D
100
AcDbLine
370
9
 62
0
 48
0
  6
_SOLID
 10
1.6960143689
 20
2.0066580122
 30
0
 11
1.6960143689
 21
2.0048666282
 31
0
  0
ARC
  5
497
100
AcDbEntity
  8
SEMA2D
100
AcDbCircle
370
9
 62
0
 48
0
  6
_SOLID
 10
1.6938296912
 20
2.0066580122
 30
0
 40
0.0021846777
100
AcDbArc
 50
0
 51
90
  0
LINE
  5
498
100
AcDbEntity
  8
SEMA2D
100
AcDbLine
370
9
 62
0
 48
0
  6
_SOLID
 10
1.6859098426
 20
2.0088426922
 30
0
 11
1.6938296919
 21
2.0088426899
 31
0
  0
LINE
  5
499
100
AcDbEntity
  8
SEMA2D
100
AcDbLine
370
9
 62
0
 48
0
  6
_SOLID
 10
1.6935073608
 20
2.0070008544
 30
0
 11
1.6938296912
 21
2.0088426899
 31
0
  0
LINE
  5
49A
100
AcDbEntity
  8
SEMA2D
100
AcDbLine
370
9
 62
0
 48
0
  6
_SOLID
 10
1.6935073608
 20
2.0070008544
 30
0
 11
1.6960143689
 21
2.0048666282
 31
0
  0
LINE
  5
49B
100
AcDbEntity
  8
SEMA2D
100
AcDbLine
370
9
 62
0
 48
0
  6
_SOLID
 10
1.5957935368
 20
1.9357680322
 30
0
 11
1.6018014005
 21
1.9357680322
 31
0
  0
LINE
  5
49C
100
AcDbEntity
  8
SEMA2D
100
AcDbLine
370
9
 62
0
 48
0
  6
_SOLID
 10
1.5957935368
 20
1.9196162252
 30
0
 11
1.6017777116
 21
1.9196162252
 31
0
  0
LINE
  5
49D
100
AcDbEntity
  8
SEMA2D
100
AcDbLine
370
9
 62
0
 48
0
  6
_SOLID
 10
1.6017777116
 20
1.9226084487
 30
0
 11
1.5957935368
 21
1.9226084487
 31
0
  0
LINE
  5
49E
100
AcDbEntity
  8
SEMA2D
100
AcDbLine
370
9
 62
0
 48
0
  6
_SOLID
 10
1.5957935368
 20
1.9273149532
 30
0
 11
1.6017777116
 21
1.9273149532
 31
0
  0
LINE
  5
49F
100
AcDbEntity
  8
SEMA2D
100
AcDbLine
370
9
 62
0
 48
0
  6
_SOLID
 10
1.5957935368
 20
1.931428551
 30
0
 11
1.6017777116
 21
1.931428551
 31
0
  0
ARC
  5
4A0
100
AcDbEntity
  8
SEMA2D
100
AcDbCircle
370
9
 62
0
 48
0
  6
_SOLID
 10
1.5987856359
 20
2.011188375
 30
0
 40
0.0739539055
100
AcDbArc
 50
258.327843317222
 51
281.672156810859
  0
LINE
  5
4A1
100
AcDbEntity
  8
SEMA2D
100
AcDbLine
370
9
 62
0
 48
0
  6
_SOLID
 10
1.4724950115
 20
2.0848649389
 30
0
 11
1.5028052052
 21
2.5280429739
 31
0
  0
LINE
  5
4A2
100
AcDbEntity
  8
SEMA2D
100
AcDbLine
370
9
 62
0
 48
0
  6
_SOLID
 10
1.501936559
 20
2.5290019464
 30
0
 11
1.4714976875
 21
2.0839046144
 31
0
  0
VIEWPORT
  5
4BA
100
AcDbEntity
 67
1
  8
0
100
AcDbViewport
370
-1
 48
0
 10
0
 20
0
 30
0
 40
-2E20
 41
-2E20
 68
1
 69
1
 12
0
 22
0
 32
0
 16
0
 26
0
 36
1
 17
0
 27
0
 37
0
 42
50
 43
0
 44
0
 45
-2E20
 51
0
 90
32800
340
0
  0
ENDSEC
  0
SECTION
  2
OBJECTS
  0
DICTIONARY
  5
4BB
100
AcDbDictionary
  3
ACAD_GROUP
350
4BC
  3
ACAD_MATERIAL
350
4BD
  3
ACAD_WIPEOUT_VARS
350
4BE
  3
ACAD_MLINESTYLE
350
4BF
  3
ACAD_LAYOUT
350
4C0
  0
DICTIONARY
  5
4BC
100
AcDbDictionary
  0
DICTIONARY
  5
4BD
100
AcDbDictionary
  0
WIPEOUTVARIABLES
  5
4BE
100
AcDbWipeoutVariables
 70
1
  0
DICTIONARY
  5
4BF
100
AcDbDictionary
  3
STANDARD
350
4C1
  0
MLINESTYLE
  5
4C1
100
AcDbMlineStyle
  2
STANDARD
 70
0
  3

 62
256
 51
90
 52
90
 71
2
 49
0.5
 62
256
  6
ByLayer
 49
-0.5
 62
256
  6
ByLayer
  0
DICTIONARY
  5
4C0
100
AcDbDictionary
  3
Model
350
4A3
  3
Layout1
350
4A4
  0
LAYOUT
  5
4A3
100
AcDbPlotSettings
100
AcDbLayout
  1
Model
 70
1
 71
1
 10
1.13006528440427
 20
1.8420221883074
 11
1.82859773669632
 21
2.77044809233681
 12
0
 22
0
 32
0
 14
1.13006528440427
 24
1.8420221883074
 34
0
 15
1.82859773669632
 25
2.77044809233681
 35
0
146
0
 13
0
 23
0
 33
0
 16
1
 26
0
 36
0
 17
0
 27
1
 37
0
 76
0
330
4A8
  0
LAYOUT
  5
4A4
100
AcDbPlotSettings
100
AcDbLayout
  1
Layout1
 70
1
 71
2
 10
1E20
 20
1E20
 11
-1E20
 21
-1E20
 12
0
 22
0
 32
0
 14
1E20
 24
1E20
 34
1E20
 15
-1E20
 25
-1E20
 35
-1E20
146
0
 13
0
 23
0
 33
0
 16
1
 26
0
 36
0
 17
0
 27
1
 37
0
 76
0
330
4A9
  0
ENDSEC
  0
EOF
