999
Created by Soft Gold Ltd. www.cadsofttools.com
999

  0
SECTION
  2
HEADER
  9
$ACADVER
  1
AC1015
  9
$CLAYER
  8
0
  9
$CELTYPE
  6
BYLAYER
  9
$CELTSCALE
 40
1
  9
$CELWEIGHT
370
-1
  9
$DIMSTYLE
  2
STANDARD
  9
$DIMALT
 70
0
  9
$DIMALTF
 40
1
  9
$DIMAPOST
  1

  9
$DIMASZ
 40
0.18
  9
$DIMCLRD
 70
0
  9
$DIMCLRE
 70
0
  9
$DIMCLRT
 70
0
  9
$DIMEXE
 40
0.18
  9
$DIMEXO
 40
0.0625
  9
$DIMGAP
 40
0.0625
  9
$DIMLFAC
 40
1
  9
$DIMDEC
 70
4
  9
$DIMTAD
 70
0
  9
$DIMTIH
 70
1
  9
$DIMTIX
 70
0
  9
$DIMTOH
 70
1
  9
$DIMPOST
  1

  9
$DIMBLK
  1
_CLOSEDFILLED
  9
$DIMBLK1
  1

  9
$DIMBLK2
  1

  9
$DIMLDRBLK
  1

  9
$DIMTXT
 40
0.18
  9
$DIMTXSTY
  7
STANDARD
  9
$TEXTSIZE
 40
0.18
  9
$TEXTSTYLE
  7
STANDARD
  9
$HANDSEED
  5
00000000000003D0
  9
$FILLETRAD
 40
0.5
  9
$INSUNITS
 70
4
  9
$LIMMIN
 10
1.0809735018952
 20
1.78679387848749
  9
$LIMMAX
 10
1.97714640967831
 20
2.65787650861255
  9
$LTSCALE
 40
1
  9
$MEASUREMENT
 70
0
  9
$PDMODE
 70
0
  9
$PDSIZE
 40
0
  9
$TILEMODE
 70
1
  9
$UCSORG
 10
0
 20
0
 30
0
  9
$UCSXDIR
 10
1
 20
0
 30
0
  9
$UCSYDIR
 10
0
 20
1
 30
0
  0
ENDSEC
  0
SECTION
  2
CLASSES
  0
CLASS
  1
IMAGE
  2
AcDbRasterImage
  3
ISM
 90
2175
280
0
281
1
  0
CLASS
  1
IMAGEDEF
  2
AcDbRasterImageDef
  3
ISM
 90
0
280
0
281
0
  0
CLASS
  1
WIPEOUT
  2
AcDbWipeout
  3
"WipeOut"
 90
2175
280
0
281
1
  0
CLASS
  1
WIPEOUTVARIABLES
  2
AcDbWipeoutVariables
  3
"WipeOut"
 90
0
280
0
281
0
  0
CLASS
  1
MPOLYGON
  2
AcDbMPolygon
  3
"AcMPolygonObj15"
 90
3071
280
0
281
1
  0
ENDSEC
  0
SECTION
  2
TABLES
  0
TABLE
  2
APPID
  5
3B2
100
AcDbSymbolTable
  0
APPID
  5
3B3
100
AcDbSymbolTableRecord
100
AcDbRegAppTableRecord
  2
ACAD
 70
0
  0
ENDTAB
  0
TABLE
  2
BLOCK_RECORD
  5
3B4
100
AcDbSymbolTable
  0
BLOCK_RECORD
  5
3B5
100
AcDbSymbolTableRecord
100
AcDbBlockTableRecord
  2
*MODEL_SPACE
  0
BLOCK_RECORD
  5
3B6
100
AcDbSymbolTableRecord
100
AcDbBlockTableRecord
  2
*PAPER_SPACE
  0
ENDTAB
  0
TABLE
  2
STYLE
  5
3B7
100
AcDbSymbolTable
  0
STYLE
  5
2D2
100
AcDbSymbolTableRecord
100
AcDbTextStyleTableRecord
  2
STANDARD
 70
0
 40
0
 41
1
 50
0
 71
0
 42
2.5
  3
txt
  4

  0
ENDTAB
  0
TABLE
  2
LTYPE
  5
3B8
100
AcDbSymbolTable
  0
LTYPE
  5
1
100
AcDbSymbolTableRecord
100
AcDbLinetypeTableRecord
  2
_SOLID
 70
0
  3
_.
 72
65
 73
2
 40
5
 49
5
 74
0
 49
0
 74
0
  0
LTYPE
  5
2
100
AcDbSymbolTableRecord
100
AcDbLinetypeTableRecord
  2
_DASH
 70
0
  3
_ 
 72
65
 73
2
 40
7
 49
5
 74
0
 49
-2
 74
0
  0
LTYPE
  5
3
100
AcDbSymbolTableRecord
100
AcDbLinetypeTableRecord
  2
_DOT
 70
0
  3
_ 
 72
65
 73
2
 40
4
 49
2
 74
0
 49
-2
 74
0
  0
LTYPE
  5
4
100
AcDbSymbolTableRecord
100
AcDbLinetypeTableRecord
  2
_DASHDOT
 70
0
  3
_ _ 
 72
65
 73
4
 40
11
 49
5
 74
0
 49
-2
 74
0
 49
2
 74
0
 49
-2
 74
0
  0
LTYPE
  5
5
100
AcDbSymbolTableRecord
100
AcDbLinetypeTableRecord
  2
_DASHDOTDOT
 70
0
  3
_ _ _ 
 72
65
 73
6
 40
15
 49
5
 74
0
 49
-2
 74
0
 49
2
 74
0
 49
-2
 74
0
 49
2
 74
0
 49
-2
 74
0
  0
LTYPE
  5
6
100
AcDbSymbolTableRecord
100
AcDbLinetypeTableRecord
  2
ISO128-20-02
 70
0
  3
_ 
 72
65
 73
2
 40
15
 49
12
 74
0
 49
-3
 74
0
  0
LTYPE
  5
7
100
AcDbSymbolTableRecord
100
AcDbLinetypeTableRecord
  2
ISO128-20-03
 70
0
  3
_ 
 72
65
 73
2
 40
30
 49
12
 74
0
 49
-18
 74
0
  0
LTYPE
  5
8
100
AcDbSymbolTableRecord
100
AcDbLinetypeTableRecord
  2
ISO128-20-04
 70
0
  3
_ . 
 72
65
 73
4
 40
30
 49
24
 74
0
 49
-3
 74
0
 49
0
 74
0
 49
-3
 74
0
  0
LTYPE
  5
9
100
AcDbSymbolTableRecord
100
AcDbLinetypeTableRecord
  2
ISO128-20-05
 70
0
  3
_ . . 
 72
65
 73
6
 40
33
 49
24
 74
0
 49
-3
 74
0
 49
0
 74
0
 49
-3
 74
0
 49
0
 74
0
 49
-3
 74
0
  0
LTYPE
  5
A
100
AcDbSymbolTableRecord
100
AcDbLinetypeTableRecord
  2
ISO128-20-06
 70
0
  3
_ . . . 
 72
65
 73
8
 40
36
 49
24
 74
0
 49
-3
 74
0
 49
0
 74
0
 49
-3
 74
0
 49
0
 74
0
 49
-3
 74
0
 49
0
 74
0
 49
-3
 74
0
  0
LTYPE
  5
B
100
AcDbSymbolTableRecord
100
AcDbLinetypeTableRecord
  2
ISO128-20-07
 70
0
  3
. 
 72
65
 73
2
 40
3
 49
0
 74
0
 49
-3
 74
0
  0
LTYPE
  5
C
100
AcDbSymbolTableRecord
100
AcDbLinetypeTableRecord
  2
ISO128-20-08
 70
0
  3
_ _ 
 72
65
 73
4
 40
36
 49
24
 74
0
 49
-3
 74
0
 49
6
 74
0
 49
-3
 74
0
  0
LTYPE
  5
D
100
AcDbSymbolTableRecord
100
AcDbLinetypeTableRecord
  2
ISO128-20-09
 70
0
  3
_ _ _ 
 72
65
 73
6
 40
45
 49
24
 74
0
 49
-3
 74
0
 49
6
 74
0
 49
-3
 74
0
 49
6
 74
0
 49
-3
 74
0
  0
LTYPE
  5
E
100
AcDbSymbolTableRecord
100
AcDbLinetypeTableRecord
  2
ISO128-20-10
 70
0
  3
_ . 
 72
65
 73
4
 40
18
 49
12
 74
0
 49
-3
 74
0
 49
0
 74
0
 49
-3
 74
0
  0
LTYPE
  5
F
100
AcDbSymbolTableRecord
100
AcDbLinetypeTableRecord
  2
ISO128-20-11
 70
0
  3
_ _ . 
 72
65
 73
6
 40
33
 49
12
 74
0
 49
-3
 74
0
 49
12
 74
0
 49
-3
 74
0
 49
0
 74
0
 49
-3
 74
0
  0
LTYPE
  5
10
100
AcDbSymbolTableRecord
100
AcDbLinetypeTableRecord
  2
ISO128-20-12
 70
0
  3
_ . . 
 72
65
 73
6
 40
21
 49
12
 74
0
 49
-3
 74
0
 49
0
 74
0
 49
-3
 74
0
 49
0
 74
0
 49
-3
 74
0
  0
LTYPE
  5
11
100
AcDbSymbolTableRecord
100
AcDbLinetypeTableRecord
  2
ISO128-20-13
 70
0
  3
_ _ . . 
 72
65
 73
8
 40
36
 49
12
 74
0
 49
-3
 74
0
 49
12
 74
0
 49
-3
 74
0
 49
0
 74
0
 49
-3
 74
0
 49
0
 74
0
 49
-3
 74
0
  0
LTYPE
  5
12
100
AcDbSymbolTableRecord
100
AcDbLinetypeTableRecord
  2
ISO128-20-14
 70
0
  3
_ . . . 
 72
65
 73
8
 40
24
 49
12
 74
0
 49
-3
 74
0
 49
0
 74
0
 49
-3
 74
0
 49
0
 74
0
 49
-3
 74
0
 49
0
 74
0
 49
-3
 74
0
  0
LTYPE
  5
13
100
AcDbSymbolTableRecord
100
AcDbLinetypeTableRecord
  2
ISO128-20-15
 70
0
  3
_ _ . . . 
 72
65
 73
10
 40
39
 49
12
 74
0
 49
-3
 74
0
 49
12
 74
0
 49
-3
 74
0
 49
0
 74
0
 49
-3
 74
0
 49
0
 74
0
 49
-3
 74
0
 49
0
 74
0
 49
-3
 74
0
  0
LTYPE
  5
3B9
100
AcDbSymbolTableRecord
100
AcDbLinetypeTableRecord
  2
ByBlock
 70
0
  3

 72
65
 73
0
 40
0
  0
LTYPE
  5
3BA
100
AcDbSymbolTableRecord
100
AcDbLinetypeTableRecord
  2
ByLayer
 70
0
  3

 72
65
 73
0
 40
0
  0
ENDTAB
  0
TABLE
  2
LAYER
  5
3BB
100
AcDbSymbolTable
  0
LAYER
  5
3BC
100
AcDbSymbolTableRecord
100
AcDbLayerTableRecord
  2
0
 70
0
 62
7
  6
CONTINUOUS
370
-3
390
0
  0
LAYER
  5
14
100
AcDbSymbolTableRecord
100
AcDbLayerTableRecord
  2
SEMA2D
 70
0
 62
7
290
1
370
-3
390
0
  0
LAYER
  5
2D0
100
AcDbSymbolTableRecord
100
AcDbLayerTableRecord
  2
SEMATEXT
 70
0
 62
7
290
1
370
-3
390
0
  0
ENDTAB
  0
TABLE
  2
VPORT
  5
3BD
100
AcDbSymbolTable
  0
VPORT
  5
3BE
100
AcDbSymbolTableRecord
100
AcDbViewportTableRecord
  2
*ACTIVE
 70
0
 10
0
 20
0
 11
1
 21
1
 12
1.52905995578675
 22
2.22233519355002
 32
0
 13
0
 23
0
 14
1
 24
1
 15
1
 25
1
 16
0
 26
0
 36
1
 17
0
 27
0
 37
0
 40
0.696866104100044
 41
1.02880355639104
 42
50
 43
0
 44
0
 50
0
 51
0
 71
0
 72
100
 73
1
 74
1
 75
0
 76
0
 77
0
 78
0
  0
ENDTAB
  0
TABLE
  2
VIEW
  5
3BF
100
AcDbSymbolTable
  0
ENDTAB
  0
TABLE
  2
UCS
  5
3C0
100
AcDbSymbolTable
  0
ENDTAB
  0
TABLE
  2
DIMSTYLE
  5
3C1
100
AcDbSymbolTable
 70
1
100
AcDbDimStyleTable
 71
0
  0
DIMSTYLE
105
3C2
100
AcDbSymbolTableRecord
100
AcDbDimStyleTableRecord
  2
STANDARD
 70
0
340
0
  0
ENDTAB
  0
ENDSEC
  0
SECTION
  2
BLOCKS
  0
BLOCK
  5
3C3
100
AcDbEntity
  8
0
100
AcDbBlockBegin
  2
*MODEL_SPACE
 70
0
 10
0
 20
0
  0
ENDBLK
  5
3C4
100
AcDbEntity
  8
0
100
AcDbBlockEnd
  0
BLOCK
  5
3C5
100
AcDbEntity
  8
0
100
AcDbBlockBegin
  2
*PAPER_SPACE
 70
0
 10
0
 20
0
  0
ENDBLK
  5
3C6
100
AcDbEntity
  8
0
100
AcDbBlockEnd
  0
ENDSEC
  0
SECTION
  2
ENTITIES
  0
LINE
  5
15
100
AcDbEntity
  8
SEMA2D
100
AcDbLine
370
9
 62
0
 48
0
  6
_SOLID
 10
1.1996529705
 20
2.5055019467
 30
0
 11
1.1996529705
 21
2.5012166227
 31
0
  0
LINE
  5
17
100
AcDbEntity
  8
SEMA2D
100
AcDbLine
370
9
 62
0
 48
0
  6
_SOLID
 10
1.1996529705
 20
2.5012166227
 30
0
 11
1.1999872516
 21
2.5002726421
 31
0
  0
LINE
  5
18
100
AcDbEntity
  8
SEMA2D
100
AcDbLine
370
9
 62
0
 48
0
  6
_SOLID
 10
1.1999872516
 20
2.5002726421
 30
0
 11
1.200841103
 21
2.4997494013
 31
0
  0
LINE
  5
19
100
AcDbEntity
  8
SEMA2D
100
AcDbLine
370
9
 62
0
 48
0
  6
_SOLID
 10
1.200841103
 20
2.4997494013
 30
0
 11
1.2035687939
 21
2.4991696127
 31
0
  0
LINE
  5
1A
100
AcDbEntity
  8
SEMA2D
100
AcDbLine
370
9
 62
0
 48
0
  6
_SOLID
 10
1.2035687939
 20
2.4991696127
 30
0
 11
1.2047072624
 21
2.4984719583
 31
0
  0
LINE
  5
1B
100
AcDbEntity
  8
SEMA2D
100
AcDbLine
370
9
 62
0
 48
0
  6
_SOLID
 10
1.2047072624
 20
2.4984719583
 30
0
 11
1.2051529705
 21
2.4972133175
 31
0
  0
LINE
  5
1C
100
AcDbEntity
  8
SEMA2D
100
AcDbLine
370
9
 62
0
 48
0
  6
_SOLID
 10
1.2051529705
 20
2.4972133175
 30
0
 11
1.2051529705
 21
2.4831385713
 31
0
  0
LINE
  5
1D
100
AcDbEntity
  8
SEMA2D
100
AcDbLine
370
9
 62
0
 48
0
  6
_SOLID
 10
1.2051529705
 20
2.4831385713
 30
0
 11
1.2045330305
 21
2.481312287
 31
0
  0
LINE
  5
1E
100
AcDbEntity
  8
SEMA2D
100
AcDbLine
370
9
 62
0
 48
0
  6
_SOLID
 10
1.2045330305
 20
2.481312287
 30
0
 11
1.2029294276
 21
2.4802407938
 31
0
  0
LINE
  5
1F
100
AcDbEntity
  8
SEMA2D
100
AcDbLine
370
9
 62
0
 48
0
  6
_SOLID
 10
1.2029294276
 20
2.4802407938
 30
0
 11
1.1997118277
 21
2.4793786405
 31
0
  0
LINE
  5
20
100
AcDbEntity
  8
SEMA2D
100
AcDbLine
370
9
 62
0
 48
0
  6
_SOLID
 10
1.1997118277
 20
2.4793786405
 30
0
 11
1.195366906
 21
2.4762250882
 31
0
  0
LINE
  5
21
100
AcDbEntity
  8
SEMA2D
100
AcDbLine
370
9
 62
0
 48
0
  6
_SOLID
 10
1.195366906
 20
2.4762250882
 30
0
 11
1.194243046
 21
2.4709753097
 31
0
  0
LINE
  5
22
100
AcDbEntity
  8
SEMA2D
100
AcDbLine
370
9
 62
0
 48
0
  6
_SOLID
 10
1.194243046
 20
2.4709753097
 30
0
 11
1.1969161284
 21
2.46631936
 31
0
  0
LINE
  5
23
100
AcDbEntity
  8
SEMA2D
100
AcDbLine
370
9
 62
0
 48
0
  6
_SOLID
 10
1.1969161284
 20
2.46631936
 30
0
 11
1.1976529705
 21
2.4647687368
 31
0
  0
LINE
  5
24
100
AcDbEntity
  8
SEMA2D
100
AcDbLine
370
9
 62
0
 48
0
  6
_SOLID
 10
1.1976529705
 20
2.4647687368
 30
0
 11
1.1976529705
 21
2.4603435482
 31
0
  0
LINE
  5
25
100
AcDbEntity
  8
SEMA2D
100
AcDbLine
370
9
 62
0
 48
0
  6
_SOLID
 10
1.1976529705
 20
2.4603435482
 30
0
 11
1.1979216329
 21
2.4594869225
 31
0
  0
LINE
  5
26
100
AcDbEntity
  8
SEMA2D
100
AcDbLine
370
9
 62
0
 48
0
  6
_SOLID
 10
1.1979216329
 20
2.4594869225
 30
0
 11
1.1986313806
 21
2.4589371542
 31
0
  0
LINE
  5
27
100
AcDbEntity
  8
SEMA2D
100
AcDbLine
370
9
 62
0
 48
0
  6
_SOLID
 10
1.1986313806
 20
2.4589371542
 30
0
 11
1.1995279705
 21
2.4588911794
 31
0
  0
LINE
  5
28
100
AcDbEntity
  8
SEMA2D
100
AcDbLine
370
9
 62
0
 48
0
  6
_SOLID
 10
1.1995279705
 20
2.4588911794
 30
0
 11
1.2007779792
 21
2.4588911794
 31
0
  0
LINE
  5
29
100
AcDbEntity
  8
SEMA2D
100
AcDbLine
370
9
 62
0
 48
0
  6
_SOLID
 10
1.2007779792
 20
2.4588911794
 30
0
 11
1.2010222869
 21
2.4588145549
 31
0
  0
LINE
  5
2A
100
AcDbEntity
  8
SEMA2D
100
AcDbLine
370
9
 62
0
 48
0
  6
_SOLID
 10
1.2010222869
 20
2.4588145549
 30
0
 11
1.2022051999
 21
2.4578982744
 31
0
  0
LINE
  5
2B
100
AcDbEntity
  8
SEMA2D
100
AcDbLine
370
9
 62
0
 48
0
  6
_SOLID
 10
1.2022051999
 20
2.4578982744
 30
0
 11
1.2026529705
 21
2.4564705649
 31
0
  0
LINE
  5
2C
100
AcDbEntity
  8
SEMA2D
100
AcDbLine
370
9
 62
0
 48
0
  6
_SOLID
 10
1.2026529705
 20
2.4564705649
 30
0
 11
1.2026529705
 21
2.2464303738
 31
0
  0
LINE
  5
2D
100
AcDbEntity
  8
SEMA2D
100
AcDbLine
370
9
 62
0
 48
0
  6
_SOLID
 10
1.2026529705
 20
2.2464303738
 30
0
 11
1.2025007296
 21
2.2456650069
 31
0
  0
LINE
  5
2E
100
AcDbEntity
  8
SEMA2D
100
AcDbLine
370
9
 62
0
 48
0
  6
_SOLID
 10
1.2025007296
 20
2.2456650069
 30
0
 11
1.2020671841
 21
2.2450161602
 31
0
  0
LINE
  5
2F
100
AcDbEntity
  8
SEMA2D
100
AcDbLine
370
9
 62
0
 48
0
  6
_SOLID
 10
1.2020671841
 20
2.2450161602
 30
0
 11
1.2010923103
 21
2.2440412865
 31
0
  0
LINE
  5
30
100
AcDbEntity
  8
SEMA2D
100
AcDbLine
370
9
 62
0
 48
0
  6
_SOLID
 10
1.2010923103
 20
2.2440412865
 30
0
 11
1.2006529705
 21
2.2429806263
 31
0
  0
LINE
  5
31
100
AcDbEntity
  8
SEMA2D
100
AcDbLine
370
9
 62
0
 48
0
  6
_SOLID
 10
1.2006529705
 20
2.2429806263
 30
0
 11
1.2006529705
 21
2.2412432939
 31
0
  0
LINE
  5
32
100
AcDbEntity
  8
SEMA2D
100
AcDbLine
370
9
 62
0
 48
0
  6
_SOLID
 10
1.2006529705
 20
2.2412432939
 30
0
 11
1.2036529705
 21
2.2398443709
 31
0
  0
LINE
  5
33
100
AcDbEntity
  8
SEMA2D
100
AcDbLine
370
9
 62
0
 48
0
  6
_SOLID
 10
1.2036529705
 20
2.2398443709
 30
0
 11
1.2036529705
 21
2.2341595224
 31
0
  0
LINE
  5
34
100
AcDbEntity
  8
SEMA2D
100
AcDbLine
370
9
 62
0
 48
0
  6
_SOLID
 10
1.2036529705
 20
2.2341595224
 30
0
 11
1.2006529705
 21
2.2327605995
 31
0
  0
LINE
  5
35
100
AcDbEntity
  8
SEMA2D
100
AcDbLine
370
9
 62
0
 48
0
  6
_SOLID
 10
1.2006529705
 20
2.2327605995
 30
0
 11
1.2006529705
 21
2.231023267
 31
0
  0
LINE
  5
36
100
AcDbEntity
  8
SEMA2D
100
AcDbLine
370
9
 62
0
 48
0
  6
_SOLID
 10
1.2006529705
 20
2.231023267
 30
0
 11
1.2010923103
 21
2.2299626068
 31
0
  0
LINE
  5
37
100
AcDbEntity
  8
SEMA2D
100
AcDbLine
370
9
 62
0
 48
0
  6
_SOLID
 10
1.2010923103
 20
2.2299626068
 30
0
 11
1.2020671841
 21
2.2289877331
 31
0
  0
LINE
  5
38
100
AcDbEntity
  8
SEMA2D
100
AcDbLine
370
9
 62
0
 48
0
  6
_SOLID
 10
1.2020671841
 20
2.2289877331
 30
0
 11
1.2026529705
 21
2.2275735195
 31
0
  0
LINE
  5
39
100
AcDbEntity
  8
SEMA2D
100
AcDbLine
370
9
 62
0
 48
0
  6
_SOLID
 10
1.2026529705
 20
2.2275735195
 30
0
 11
1.2026529705
 21
2.1880019467
 31
0
  0
LINE
  5
3A
100
AcDbEntity
  8
SEMA2D
100
AcDbLine
370
9
 62
0
 48
0
  6
_SOLID
 10
1.2026529705
 20
2.1880019467
 30
0
 11
1.2022510467
 21
2.1865019467
 31
0
  0
LINE
  5
3B
100
AcDbEntity
  8
SEMA2D
100
AcDbLine
370
9
 62
0
 48
0
  6
_SOLID
 10
1.2022510467
 20
2.1865019467
 30
0
 11
1.2011529705
 21
2.1854038705
 31
0
  0
LINE
  5
3C
100
AcDbEntity
  8
SEMA2D
100
AcDbLine
370
9
 62
0
 48
0
  6
_SOLID
 10
1.2011529705
 20
2.1854038705
 30
0
 11
1.1991890187
 21
2.1850379949
 31
0
  0
LINE
  5
3D
100
AcDbEntity
  8
SEMA2D
100
AcDbLine
370
9
 62
0
 48
0
  6
_SOLID
 10
1.1991890187
 20
2.1850379949
 30
0
 11
1.1991529705
 21
2.1850019467
 31
0
  0
LINE
  5
3E
100
AcDbEntity
  8
SEMA2D
100
AcDbLine
370
9
 62
0
 48
0
  6
_SOLID
 10
1.1991529705
 20
2.1850019467
 30
0
 11
1.1981529705
 21
2.1847339975
 31
0
  0
LINE
  5
3F
100
AcDbEntity
  8
SEMA2D
100
AcDbLine
370
9
 62
0
 48
0
  6
_SOLID
 10
1.1981529705
 20
2.1847339975
 30
0
 11
1.1974209197
 21
2.1840019467
 31
0
  0
LINE
  5
40
100
AcDbEntity
  8
SEMA2D
100
AcDbLine
370
9
 62
0
 48
0
  6
_SOLID
 10
1.1974209197
 20
2.1840019467
 30
0
 11
1.1971529705
 21
2.1830019467
 31
0
  0
LINE
  5
41
100
AcDbEntity
  8
SEMA2D
100
AcDbLine
370
9
 62
0
 48
0
  6
_SOLID
 10
1.1971529705
 20
2.1830019467
 30
0
 11
1.1971529705
 21
2.1810975434
 31
0
  0
LINE
  5
42
100
AcDbEntity
  8
SEMA2D
100
AcDbLine
370
9
 62
0
 48
0
  6
_SOLID
 10
1.1971529705
 20
2.1810975434
 30
0
 11
1.1966731879
 21
2.1789603408
 31
0
  0
LINE
  5
43
100
AcDbEntity
  8
SEMA2D
100
AcDbLine
370
9
 62
0
 48
0
  6
_SOLID
 10
1.1966731879
 20
2.1789603408
 30
0
 11
1.195002587
 21
2.1757009488
 31
0
  0
LINE
  5
44
100
AcDbEntity
  8
SEMA2D
100
AcDbLine
370
9
 62
0
 48
0
  6
_SOLID
 10
1.195002587
 20
2.1757009488
 30
0
 11
1.1947217109
 21
2.1735009019
 31
0
  0
LINE
  5
45
100
AcDbEntity
  8
SEMA2D
100
AcDbLine
370
9
 62
0
 48
0
  6
_SOLID
 10
1.1947217109
 20
2.1735009019
 30
0
 11
1.1940434877
 21
2.1707441125
 31
0
  0
LINE
  5
46
100
AcDbEntity
  8
SEMA2D
100
AcDbLine
370
9
 62
0
 48
0
  6
_SOLID
 10
1.1940434877
 20
2.1707441125
 30
0
 11
1.1866282422
 21
2.1651141699
 31
0
  0
LINE
  5
47
100
AcDbEntity
  8
SEMA2D
100
AcDbLine
370
9
 62
0
 48
0
  6
_SOLID
 10
1.1866282422
 20
2.1651141699
 30
0
 11
1.1818609848375
 21
2.1616654810625
 31
0
  0
LINE
  5
48
100
AcDbEntity
  8
SEMA2D
100
AcDbLine
370
9
 62
0
 48
0
  6
_SOLID
 10
1.1818609848375
 20
2.1616654810625
 30
0
 11
1.1784605826
 21
2.1568636624
 31
0
  0
LINE
  5
49
100
AcDbEntity
  8
SEMA2D
100
AcDbLine
370
9
 62
0
 48
0
  6
_SOLID
 10
1.1784605826
 20
2.1568636624
 30
0
 11
1.1767903768625
 21
2.1512218
 31
0
  0
LINE
  5
4A
100
AcDbEntity
  8
SEMA2D
100
AcDbLine
370
9
 62
0
 48
0
  6
_SOLID
 10
1.1767903768625
 20
2.1512218
 30
0
 11
1.1770288333
 21
2.1453427408
 31
0
  0
LINE
  5
4B
100
AcDbEntity
  8
SEMA2D
100
AcDbLine
370
9
 62
0
 48
0
  6
_SOLID
 10
1.1770288333
 20
2.1453427408
 30
0
 11
1.179150472225
 21
2.1398546767875
 31
0
  0
LINE
  5
4C
100
AcDbEntity
  8
SEMA2D
100
AcDbLine
370
9
 62
0
 48
0
  6
_SOLID
 10
1.179150472225
 20
2.1398546767875
 30
0
 11
1.1829285913
 21
2.1353440211
 31
0
  0
LINE
  5
4D
100
AcDbEntity
  8
SEMA2D
100
AcDbLine
370
9
 62
0
 48
0
  6
_SOLID
 10
1.1829285913
 20
2.1353440211
 30
0
 11
1.1876892238375
 21
2.1324035681875
 31
0
  0
LINE
  5
4E
100
AcDbEntity
  8
SEMA2D
100
AcDbLine
370
9
 62
0
 48
0
  6
_SOLID
 10
1.1876892238375
 20
2.1324035681875
 30
0
 11
1.1931157195
 21
2.1310677096
 31
0
  0
LINE
  5
4F
100
AcDbEntity
  8
SEMA2D
100
AcDbLine
370
9
 62
0
 48
0
  6
_SOLID
 10
1.1931157195
 20
2.1310677096
 30
0
 11
1.1931760822
 21
2.1310268947
 31
0
  0
LINE
  5
50
100
AcDbEntity
  8
SEMA2D
100
AcDbLine
370
9
 62
0
 48
0
  6
_SOLID
 10
1.1931760822
 20
2.1310268947
 30
0
 11
1.1937056021
 21
2.1310268947
 31
0
  0
LINE
  5
51
100
AcDbEntity
  8
SEMA2D
100
AcDbLine
370
9
 62
0
 48
0
  6
_SOLID
 10
1.1937056021
 20
2.1310268947
 30
0
 11
1.1943784468
 21
2.1307165279
 31
0
  0
LINE
  5
52
100
AcDbEntity
  8
SEMA2D
100
AcDbLine
370
9
 62
0
 48
0
  6
_SOLID
 10
1.1943784468
 20
2.1307165279
 30
0
 11
1.1946529705
 21
2.1300282807
 31
0
  0
LINE
  5
53
100
AcDbEntity
  8
SEMA2D
100
AcDbLine
370
9
 62
0
 48
0
  6
_SOLID
 10
1.1946529705
 20
2.1300282807
 30
0
 11
1.1946529705
 21
2.1290019467
 31
0
  0
LINE
  5
54
100
AcDbEntity
  8
SEMA2D
100
AcDbLine
370
9
 62
0
 48
0
  6
_SOLID
 10
1.1946529705
 20
2.1290019467
 30
0
 11
1.1986529705
 21
2.1290019467
 31
0
  0
LINE
  5
55
100
AcDbEntity
  8
SEMA2D
100
AcDbLine
370
9
 62
0
 48
0
  6
_SOLID
 10
1.1986529705
 20
2.1290019467
 30
0
 11
1.1986529705
 21
2.1300019467
 31
0
  0
LINE
  5
56
100
AcDbEntity
  8
SEMA2D
100
AcDbLine
370
9
 62
0
 48
0
  6
_SOLID
 10
1.1986529705
 20
2.1300019467
 30
0
 11
1.1987869451
 21
2.1305019467
 31
0
  0
LINE
  5
57
100
AcDbEntity
  8
SEMA2D
100
AcDbLine
370
9
 62
0
 48
0
  6
_SOLID
 10
1.1987869451
 20
2.1305019467
 30
0
 11
1.1991529705
 21
2.1308679721
 31
0
  0
LINE
  5
58
100
AcDbEntity
  8
SEMA2D
100
AcDbLine
370
9
 62
0
 48
0
  6
_SOLID
 10
1.1991529705
 20
2.1308679721
 30
0
 11
1.1996529705
 21
2.1310019467
 31
0
  0
LINE
  5
59
100
AcDbEntity
  8
SEMA2D
100
AcDbLine
370
9
 62
0
 48
0
  6
_SOLID
 10
1.1996529705
 20
2.1310019467
 30
0
 11
1.2001529705
 21
2.1310019467
 31
0
  0
LINE
  5
5A
100
AcDbEntity
  8
SEMA2D
100
AcDbLine
370
9
 62
0
 48
0
  6
_SOLID
 10
1.2001529705
 20
2.1310019467
 30
0
 11
1.2009029705
 21
2.1312029086
 31
0
  0
LINE
  5
5B
100
AcDbEntity
  8
SEMA2D
100
AcDbLine
370
9
 62
0
 48
0
  6
_SOLID
 10
1.2009029705
 20
2.1312029086
 30
0
 11
1.2014520086
 21
2.1317519467
 31
0
  0
LINE
  5
5C
100
AcDbEntity
  8
SEMA2D
100
AcDbLine
370
9
 62
0
 48
0
  6
_SOLID
 10
1.2014520086
 20
2.1317519467
 30
0
 11
1.2016529705
 21
2.1325019467
 31
0
  0
LINE
  5
5D
100
AcDbEntity
  8
SEMA2D
100
AcDbLine
370
9
 62
0
 48
0
  6
_SOLID
 10
1.2016529705
 20
2.1325019467
 30
0
 11
1.2016529705
 21
2.1371189054
 31
0
  0
LINE
  5
5E
100
AcDbEntity
  8
SEMA2D
100
AcDbLine
370
9
 62
0
 48
0
  6
_SOLID
 10
1.2016529705
 20
2.1371189054
 30
0
 11
1.2013430005
 21
2.1380320475
 31
0
  0
LINE
  5
5F
100
AcDbEntity
  8
SEMA2D
100
AcDbLine
370
9
 62
0
 48
0
  6
_SOLID
 10
1.2013430005
 20
2.1380320475
 30
0
 11
1.2005411991
 21
2.1385677941
 31
0
  0
LINE
  5
60
100
AcDbEntity
  8
SEMA2D
100
AcDbLine
370
9
 62
0
 48
0
  6
_SOLID
 10
1.2005411991
 20
2.1385677941
 30
0
 11
1.19806478
 21
2.1392313486
 31
0
  0
LINE
  5
61
100
AcDbEntity
  8
SEMA2D
100
AcDbLine
370
9
 62
0
 48
0
  6
_SOLID
 10
1.19806478
 20
2.1392313486
 30
0
 11
1.1927194371
 21
2.1428029926
 31
0
  0
LINE
  5
62
100
AcDbEntity
  8
SEMA2D
100
AcDbLine
370
9
 62
0
 48
0
  6
_SOLID
 10
1.1927194371
 20
2.1428029926
 30
0
 11
1.1906529705
 21
2.1488906069
 31
0
  0
LINE
  5
63
100
AcDbEntity
  8
SEMA2D
100
AcDbLine
370
9
 62
0
 48
0
  6
_SOLID
 10
1.1906529705
 20
2.1488906069
 30
0
 11
1.1906529705
 21
2.1510019467
 31
0
  0
LINE
  5
64
100
AcDbEntity
  8
SEMA2D
100
AcDbLine
370
9
 62
0
 48
0
  6
_SOLID
 10
1.1906529705
 20
2.1510019467
 30
0
 11
1.1923678737
 21
2.1566016941
 31
0
  0
LINE
  5
65
100
AcDbEntity
  8
SEMA2D
100
AcDbLine
370
9
 62
0
 48
0
  6
_SOLID
 10
1.1923678737
 20
2.1566016941
 30
0
 11
1.1969244047
 21
2.1602808366
 31
0
  0
LINE
  5
66
100
AcDbEntity
  8
SEMA2D
100
AcDbLine
370
9
 62
0
 48
0
  6
_SOLID
 10
1.1969244047
 20
2.1602808366
 30
0
 11
1.2137800995
 21
2.1667856626
 31
0
  0
LINE
  5
67
100
AcDbEntity
  8
SEMA2D
100
AcDbLine
370
9
 62
0
 48
0
  6
_SOLID
 10
1.2137800995
 20
2.1667856626
 30
0
 11
1.2151738935
 21
2.1678874688
 31
0
  0
LINE
  5
68
100
AcDbEntity
  8
SEMA2D
100
AcDbLine
370
9
 62
0
 48
0
  6
_SOLID
 10
1.2151738935
 20
2.1678874688
 30
0
 11
1.2157
 21
2.1695844811
 31
0
  0
LINE
  5
69
100
AcDbEntity
  8
SEMA2D
100
AcDbLine
370
9
 62
0
 48
0
  6
_SOLID
 10
1.2157
 20
2.1695844811
 30
0
 11
1.2157
 21
2.1727032547
 31
0
  0
LINE
  5
6A
100
AcDbEntity
  8
SEMA2D
100
AcDbLine
370
9
 62
0
 48
0
  6
_SOLID
 10
1.2157
 20
2.1727032547
 30
0
 11
1.2163369635
 21
2.174551513
 31
0
  0
LINE
  5
6B
100
AcDbEntity
  8
SEMA2D
100
AcDbLine
370
9
 62
0
 48
0
  6
_SOLID
 10
1.2163369635
 20
2.174551513
 30
0
 11
1.2179773724
 21
2.1756149225
 31
0
  0
LINE
  5
6C
100
AcDbEntity
  8
SEMA2D
100
AcDbLine
370
9
 62
0
 48
0
  6
_SOLID
 10
1.2179773724
 20
2.1756149225
 30
0
 11
1.2501706914
 21
2.1836044153
 31
0
  0
LINE
  5
6D
100
AcDbEntity
  8
SEMA2D
100
AcDbLine
370
9
 62
0
 48
0
  6
_SOLID
 10
1.2501706914
 20
2.1836044153
 30
0
 11
1.2512396772
 21
2.1843190777
 31
0
  0
LINE
  5
6E
100
AcDbEntity
  8
SEMA2D
100
AcDbLine
370
9
 62
0
 48
0
  6
_SOLID
 10
1.2512396772
 20
2.1843190777
 30
0
 11
1.2516529705
 21
2.1855366006
 31
0
  0
LINE
  5
6F
100
AcDbEntity
  8
SEMA2D
100
AcDbLine
370
9
 62
0
 48
0
  6
_SOLID
 10
1.2516529705
 20
2.1855366006
 30
0
 11
1.2516529705
 21
2.1904672927
 31
0
  0
LINE
  5
70
100
AcDbEntity
  8
SEMA2D
100
AcDbLine
370
9
 62
0
 48
0
  6
_SOLID
 10
1.2516529705
 20
2.1904672927
 30
0
 11
1.2512396772
 21
2.1916848156
 31
0
  0
LINE
  5
71
100
AcDbEntity
  8
SEMA2D
100
AcDbLine
370
9
 62
0
 48
0
  6
_SOLID
 10
1.2512396772
 20
2.1916848156
 30
0
 11
1.2501706086
 21
2.1923991444
 31
0
  0
LINE
  5
72
100
AcDbEntity
  8
SEMA2D
100
AcDbLine
370
9
 62
0
 48
0
  6
_SOLID
 10
1.2501706086
 20
2.1923991444
 30
0
 11
1.2189371998
 21
2.2000727412
 31
0
  0
LINE
  5
73
100
AcDbEntity
  8
SEMA2D
100
AcDbLine
370
9
 62
0
 48
0
  6
_SOLID
 10
1.2189371998
 20
2.2000727412
 30
0
 11
1.2172921113
 21
2.2011350636
 31
0
  0
LINE
  5
74
100
AcDbEntity
  8
SEMA2D
100
AcDbLine
370
9
 62
0
 48
0
  6
_SOLID
 10
1.2172921113
 20
2.2011350636
 30
0
 11
1.2166529705
 21
2.2029861022
 31
0
  0
LINE
  5
75
100
AcDbEntity
  8
SEMA2D
100
AcDbLine
370
9
 62
0
 48
0
  6
_SOLID
 10
1.2166529705
 20
2.2029861022
 30
0
 11
1.2166529705
 21
2.2334807346
 31
0
  0
LINE
  5
76
100
AcDbEntity
  8
SEMA2D
100
AcDbLine
370
9
 62
0
 48
0
  6
_SOLID
 10
1.2166529705
 20
2.2334807346
 30
0
 11
1.2056529705
 21
2.2340746739
 31
0
  0
LINE
  5
77
100
AcDbEntity
  8
SEMA2D
100
AcDbLine
370
9
 62
0
 48
0
  6
_SOLID
 10
1.2056529705
 20
2.2340746739
 30
0
 11
1.2056529705
 21
2.2399292194
 31
0
  0
LINE
  5
78
100
AcDbEntity
  8
SEMA2D
100
AcDbLine
370
9
 62
0
 48
0
  6
_SOLID
 10
1.2056529705
 20
2.2399292194
 30
0
 11
1.2166529705
 21
2.2405231588
 31
0
  0
LINE
  5
79
100
AcDbEntity
  8
SEMA2D
100
AcDbLine
370
9
 62
0
 48
0
  6
_SOLID
 10
1.2166529705
 20
2.2405231588
 30
0
 11
1.2166529705
 21
2.2826699365
 31
0
  0
LINE
  5
7A
100
AcDbEntity
  8
SEMA2D
100
AcDbLine
370
9
 62
0
 48
0
  6
_SOLID
 10
1.2166529705
 20
2.2826699365
 30
0
 11
1.2172824528
 21
2.2845085898
 31
0
  0
LINE
  5
7B
100
AcDbEntity
  8
SEMA2D
100
AcDbLine
370
9
 62
0
 48
0
  6
_SOLID
 10
1.2172824528
 20
2.2845085898
 30
0
 11
1.2189067345
 21
2.2855756433
 31
0
  0
LINE
  5
7C
100
AcDbEntity
  8
SEMA2D
100
AcDbLine
370
9
 62
0
 48
0
  6
_SOLID
 10
1.2189067345
 20
2.2855756433
 30
0
 11
1.2501706086
 21
2.2936047489
 31
0
  0
LINE
  5
7D
100
AcDbEntity
  8
SEMA2D
100
AcDbLine
370
9
 62
0
 48
0
  6
_SOLID
 10
1.2501706086
 20
2.2936047489
 30
0
 11
1.2512396772
 21
2.2943190777
 31
0
  0
LINE
  5
7E
100
AcDbEntity
  8
SEMA2D
100
AcDbLine
370
9
 62
0
 48
0
  6
_SOLID
 10
1.2512396772
 20
2.2943190777
 30
0
 11
1.2516529705
 21
2.2955366006
 31
0
  0
LINE
  5
7F
100
AcDbEntity
  8
SEMA2D
100
AcDbLine
370
9
 62
0
 48
0
  6
_SOLID
 10
1.2516529705
 20
2.2955366006
 30
0
 11
1.2516529705
 21
2.3004672927
 31
0
  0
LINE
  5
80
100
AcDbEntity
  8
SEMA2D
100
AcDbLine
370
9
 62
0
 48
0
  6
_SOLID
 10
1.2516529705
 20
2.3004672927
 30
0
 11
1.2512396772
 21
2.3016848156
 31
0
  0
LINE
  5
81
100
AcDbEntity
  8
SEMA2D
100
AcDbLine
370
9
 62
0
 48
0
  6
_SOLID
 10
1.2512396772
 20
2.3016848156
 30
0
 11
1.2501706086
 21
2.3023991444
 31
0
  0
LINE
  5
82
100
AcDbEntity
  8
SEMA2D
100
AcDbLine
370
9
 62
0
 48
0
  6
_SOLID
 10
1.2501706086
 20
2.3023991444
 30
0
 11
1.2189067345
 21
2.31042825
 31
0
  0
LINE
  5
83
100
AcDbEntity
  8
SEMA2D
100
AcDbLine
370
9
 62
0
 48
0
  6
_SOLID
 10
1.2189067345
 20
2.31042825
 30
0
 11
1.2172824528
 21
2.3114953035
 31
0
  0
LINE
  5
84
100
AcDbEntity
  8
SEMA2D
100
AcDbLine
370
9
 62
0
 48
0
  6
_SOLID
 10
1.2172824528
 20
2.3114953035
 30
0
 11
1.2166529705
 21
2.3133339568
 31
0
  0
LINE
  5
85
100
AcDbEntity
  8
SEMA2D
100
AcDbLine
370
9
 62
0
 48
0
  6
_SOLID
 10
1.2166529705
 20
2.3133339568
 30
0
 11
1.2166529705
 21
2.3966243569
 31
0
  0
LINE
  5
86
100
AcDbEntity
  8
SEMA2D
100
AcDbLine
370
9
 62
0
 48
0
  6
_SOLID
 10
1.2166529705
 20
2.3966243569
 30
0
 11
1.2172541774
 21
2.3984259649
 31
0
  0
LINE
  5
87
100
AcDbEntity
  8
SEMA2D
100
AcDbLine
370
9
 62
0
 48
0
  6
_SOLID
 10
1.2172541774
 20
2.3984259649
 30
0
 11
1.2188168315
 21
2.3995054802
 31
0
  0
LINE
  5
88
100
AcDbEntity
  8
SEMA2D
100
AcDbLine
370
9
 62
0
 48
0
  6
_SOLID
 10
1.2188168315
 20
2.3995054802
 30
0
 11
1.2501706086
 21
2.4086047489
 31
0
  0
LINE
  5
89
100
AcDbEntity
  8
SEMA2D
100
AcDbLine
370
9
 62
0
 48
0
  6
_SOLID
 10
1.2501706086
 20
2.4086047489
 30
0
 11
1.2512396772
 21
2.4093190777
 31
0
  0
LINE
  5
8A
100
AcDbEntity
  8
SEMA2D
100
AcDbLine
370
9
 62
0
 48
0
  6
_SOLID
 10
1.2512396772
 20
2.4093190777
 30
0
 11
1.2516529705
 21
2.4105366006
 31
0
  0
LINE
  5
8B
100
AcDbEntity
  8
SEMA2D
100
AcDbLine
370
9
 62
0
 48
0
  6
_SOLID
 10
1.2516529705
 20
2.4105366006
 30
0
 11
1.2516529705
 21
2.4154672927
 31
0
  0
LINE
  5
8C
100
AcDbEntity
  8
SEMA2D
100
AcDbLine
370
9
 62
0
 48
0
  6
_SOLID
 10
1.2516529705
 20
2.4154672927
 30
0
 11
1.2512396772
 21
2.4166848156
 31
0
  0
LINE
  5
8D
100
AcDbEntity
  8
SEMA2D
100
AcDbLine
370
9
 62
0
 48
0
  6
_SOLID
 10
1.2512396772
 20
2.4166848156
 30
0
 11
1.2501706086
 21
2.4173991444
 31
0
  0
LINE
  5
8E
100
AcDbEntity
  8
SEMA2D
100
AcDbLine
370
9
 62
0
 48
0
  6
_SOLID
 10
1.2501706086
 20
2.4173991444
 30
0
 11
1.250219294
 21
2.4173356963
 31
0
  0
LINE
  5
8F
100
AcDbEntity
  8
SEMA2D
100
AcDbLine
370
9
 62
0
 48
0
  6
_SOLID
 10
1.250219294
 20
2.4173356963
 30
0
 11
1.2208050619
 21
2.4260517002
 31
0
  0
LINE
  5
90
100
AcDbEntity
  8
SEMA2D
100
AcDbLine
370
9
 62
0
 48
0
  6
_SOLID
 10
1.2208050619
 20
2.4260517002
 30
0
 11
1.2192505003
 21
2.42713268
 31
0
  0
LINE
  5
91
100
AcDbEntity
  8
SEMA2D
100
AcDbLine
370
9
 62
0
 48
0
  6
_SOLID
 10
1.2192505003
 20
2.42713268
 30
0
 11
1.2186529705
 21
2.4289293817
 31
0
  0
LINE
  5
92
100
AcDbEntity
  8
SEMA2D
100
AcDbLine
370
9
 62
0
 48
0
  6
_SOLID
 10
1.2186529705
 20
2.4289293817
 30
0
 11
1.2186529705
 21
2.4838576423
 31
0
  0
LINE
  5
93
100
AcDbEntity
  8
SEMA2D
100
AcDbLine
370
9
 62
0
 48
0
  6
_SOLID
 10
1.2186529705
 20
2.4838576423
 30
0
 11
1.2192729105
 21
2.4856839266
 31
0
  0
LINE
  5
94
100
AcDbEntity
  8
SEMA2D
100
AcDbLine
370
9
 62
0
 48
0
  6
_SOLID
 10
1.2192729105
 20
2.4856839266
 30
0
 11
1.2208765134
 21
2.4867554198
 31
0
  0
LINE
  5
95
100
AcDbEntity
  8
SEMA2D
100
AcDbLine
370
9
 62
0
 48
0
  6
_SOLID
 10
1.2208765134
 20
2.4867554198
 30
0
 11
1.2505411991
 21
2.4947040485
 31
0
  0
LINE
  5
96
100
AcDbEntity
  8
SEMA2D
100
AcDbLine
370
9
 62
0
 48
0
  6
_SOLID
 10
1.2505411991
 20
2.4947040485
 30
0
 11
1.2513430005
 21
2.4952397951
 31
0
  0
LINE
  5
97
100
AcDbEntity
  8
SEMA2D
100
AcDbLine
370
9
 62
0
 48
0
  6
_SOLID
 10
1.2513430005
 20
2.4952397951
 30
0
 11
1.2516529705
 21
2.4961529372
 31
0
  0
LINE
  5
98
100
AcDbEntity
  8
SEMA2D
100
AcDbLine
370
9
 62
0
 48
0
  6
_SOLID
 10
1.2516529705
 20
2.4961529372
 30
0
 11
1.2516529705
 21
2.4999377252
 31
0
  0
LINE
  5
99
100
AcDbEntity
  8
SEMA2D
100
AcDbLine
370
9
 62
0
 48
0
  6
_SOLID
 10
1.2516529705
 20
2.4999377252
 30
0
 11
1.2513763446
 21
2.5008056859
 31
0
  0
LINE
  5
9A
100
AcDbEntity
  8
SEMA2D
100
AcDbLine
370
9
 62
0
 48
0
  6
_SOLID
 10
1.2513763446
 20
2.5008056859
 30
0
 11
1.2506484961
 21
2.5013535127
 31
0
  0
LINE
  5
9B
100
AcDbEntity
  8
SEMA2D
100
AcDbLine
370
9
 62
0
 48
0
  6
_SOLID
 10
1.2506484961
 20
2.5013535127
 30
0
 11
1.2507363743
 21
2.5012296501
 31
0
  0
LINE
  5
9C
100
AcDbEntity
  8
SEMA2D
100
AcDbLine
370
9
 62
0
 48
0
  6
_SOLID
 10
1.2507363743
 20
2.5012296501
 30
0
 11
1.2371520143
 21
2.5070019467
 31
0
  0
LINE
  5
9D
100
AcDbEntity
  8
SEMA2D
100
AcDbLine
370
9
 62
0
 48
0
  6
_SOLID
 10
1.2371520143
 20
2.5070019467
 30
0
 11
1.2153226201
 21
2.5070019467
 31
0
  0
LINE
  5
9E
100
AcDbEntity
  8
SEMA2D
100
AcDbLine
370
9
 62
0
 48
0
  6
_SOLID
 10
1.2153226201
 20
2.5070019467
 30
0
 11
1.2148373878
 21
2.5073671646
 31
0
  0
LINE
  5
9F
100
AcDbEntity
  8
SEMA2D
100
AcDbLine
370
9
 62
0
 48
0
  6
_SOLID
 10
1.2148373878
 20
2.5073671646
 30
0
 11
1.2146529705
 21
2.5079458051
 31
0
  0
LINE
  5
A0
100
AcDbEntity
  8
SEMA2D
100
AcDbLine
370
9
 62
0
 48
0
  6
_SOLID
 10
1.2146529705
 20
2.5079458051
 30
0
 11
1.2146529705
 21
2.5090019467
 31
0
  0
LINE
  5
A1
100
AcDbEntity
  8
SEMA2D
100
AcDbLine
370
9
 62
0
 48
0
  6
_SOLID
 10
1.2146529705
 20
2.5090019467
 30
0
 11
1.2106529705
 21
2.5090019467
 31
0
  0
LINE
  5
A2
100
AcDbEntity
  8
SEMA2D
100
AcDbLine
370
9
 62
0
 48
0
  6
_SOLID
 10
1.2106529705
 20
2.5090019467
 30
0
 11
1.2106529705
 21
2.5080019467
 31
0
  0
LINE
  5
A3
100
AcDbEntity
  8
SEMA2D
100
AcDbLine
370
9
 62
0
 48
0
  6
_SOLID
 10
1.2106529705
 20
2.5080019467
 30
0
 11
1.2105189959
 21
2.5075019467
 31
0
  0
LINE
  5
A4
100
AcDbEntity
  8
SEMA2D
100
AcDbLine
370
9
 62
0
 48
0
  6
_SOLID
 10
1.2105189959
 20
2.5075019467
 30
0
 11
1.2101529705
 21
2.5071359213
 31
0
  0
LINE
  5
A5
100
AcDbEntity
  8
SEMA2D
100
AcDbLine
370
9
 62
0
 48
0
  6
_SOLID
 10
1.2101529705
 20
2.5071359213
 30
0
 11
1.2096529705
 21
2.5070019467
 31
0
  0
LINE
  5
A6
100
AcDbEntity
  8
SEMA2D
100
AcDbLine
370
9
 62
0
 48
0
  6
_SOLID
 10
1.2096529705
 20
2.5070019467
 30
0
 11
1.2011529705
 21
2.5070019467
 31
0
  0
LINE
  5
A7
100
AcDbEntity
  8
SEMA2D
100
AcDbLine
370
9
 62
0
 48
0
  6
_SOLID
 10
1.2011529705
 20
2.5070019467
 30
0
 11
1.2004029705
 21
2.5068009848
 31
0
  0
LINE
  5
A8
100
AcDbEntity
  8
SEMA2D
100
AcDbLine
370
9
 62
0
 48
0
  6
_SOLID
 10
1.2004029705
 20
2.5068009848
 30
0
 11
1.1998539324
 21
2.5062519467
 31
0
  0
LINE
  5
A9
100
AcDbEntity
  8
SEMA2D
100
AcDbLine
370
9
 62
0
 48
0
  6
_SOLID
 10
1.1998539324
 20
2.5062519467
 30
0
 11
1.1996529705
 21
2.5055019467
 31
0
  0
LINE
  5
AA
100
AcDbEntity
  8
SEMA2D
100
AcDbLine
370
9
 62
0
 48
0
  6
_SOLID
 10
1.1996529705
 20
2.5055019467
 30
0
 11
1.1996529705
 21
2.5012166227
 31
0
  0
LINE
  5
AB
100
AcDbEntity
  8
SEMA2D
100
AcDbLine
370
9
 62
0
 48
0
  6
_SOLID
 10
1.1996529705
 20
2.5012166227
 30
0
 11
1.1999872516
 21
2.5002726421
 31
0
  0
LINE
  5
AC
100
AcDbEntity
  8
SEMA2D
100
AcDbLine
370
9
 62
0
 48
0
  6
_SOLID
 10
1.1999872516
 20
2.5002726421
 30
0
 11
1.200841103
 21
2.4997494013
 31
0
  0
LINE
  5
AD
100
AcDbEntity
  8
SEMA2D
100
AcDbLine
370
9
 62
0
 48
0
  6
_SOLID
 10
1.200841103
 20
2.4997494013
 30
0
 11
1.2035687939
 21
2.4991696127
 31
0
  0
LINE
  5
AE
100
AcDbEntity
  8
SEMA2D
100
AcDbLine
370
9
 62
0
 48
0
  6
_SOLID
 10
1.2035687939
 20
2.4991696127
 30
0
 11
1.2047072624
 21
2.4984719583
 31
0
  0
LINE
  5
AF
100
AcDbEntity
  8
SEMA2D
100
AcDbLine
370
9
 62
0
 48
0
  6
_SOLID
 10
1.2047072624
 20
2.4984719583
 30
0
 11
1.2051529705
 21
2.4972133175
 31
0
  0
LINE
  5
B0
100
AcDbEntity
  8
SEMA2D
100
AcDbLine
370
9
 62
0
 48
0
  6
_SOLID
 10
1.2051529705
 20
2.4972133175
 30
0
 11
1.2051529705
 21
2.4831385713
 31
0
  0
LINE
  5
B1
100
AcDbEntity
  8
SEMA2D
100
AcDbLine
370
9
 62
0
 48
0
  6
_SOLID
 10
1.2051529705
 20
2.4831385713
 30
0
 11
1.2045330305
 21
2.481312287
 31
0
  0
LINE
  5
B2
100
AcDbEntity
  8
SEMA2D
100
AcDbLine
370
9
 62
0
 48
0
  6
_SOLID
 10
1.2045330305
 20
2.481312287
 30
0
 11
1.2029294276
 21
2.4802407938
 31
0
  0
LINE
  5
B3
100
AcDbEntity
  8
SEMA2D
100
AcDbLine
370
9
 62
0
 48
0
  6
_SOLID
 10
1.2029294276
 20
2.4802407938
 30
0
 11
1.1997118277
 21
2.4793786405
 31
0
  0
LINE
  5
B4
100
AcDbEntity
  8
SEMA2D
100
AcDbLine
370
9
 62
0
 48
0
  6
_SOLID
 10
1.1997118277
 20
2.4793786405
 30
0
 11
1.195366906
 21
2.4762250882
 31
0
  0
LINE
  5
B5
100
AcDbEntity
  8
SEMA2D
100
AcDbLine
370
9
 62
0
 48
0
  6
_SOLID
 10
1.195366906
 20
2.4762250882
 30
0
 11
1.194243046
 21
2.4709753097
 31
0
  0
LINE
  5
B6
100
AcDbEntity
  8
SEMA2D
100
AcDbLine
370
9
 62
0
 48
0
  6
_SOLID
 10
1.194243046
 20
2.4709753097
 30
0
 11
1.1969161284
 21
2.46631936
 31
0
  0
LINE
  5
B7
100
AcDbEntity
  8
SEMA2D
100
AcDbLine
370
9
 62
0
 48
0
  6
_SOLID
 10
1.1969161284
 20
2.46631936
 30
0
 11
1.1976529705
 21
2.4647687368
 31
0
  0
LINE
  5
B8
100
AcDbEntity
  8
SEMA2D
100
AcDbLine
370
9
 62
0
 48
0
  6
_SOLID
 10
1.1976529705
 20
2.4647687368
 30
0
 11
1.1976529705
 21
2.4603435482
 31
0
  0
LINE
  5
B9
100
AcDbEntity
  8
SEMA2D
100
AcDbLine
370
9
 62
0
 48
0
  6
_SOLID
 10
1.1976529705
 20
2.4603435482
 30
0
 11
1.1979216329
 21
2.4594869225
 31
0
  0
LINE
  5
BA
100
AcDbEntity
  8
SEMA2D
100
AcDbLine
370
9
 62
0
 48
0
  6
_SOLID
 10
1.1979216329
 20
2.4594869225
 30
0
 11
1.1986313806
 21
2.4589371542
 31
0
  0
LINE
  5
BB
100
AcDbEntity
  8
SEMA2D
100
AcDbLine
370
9
 62
0
 48
0
  6
_SOLID
 10
1.1986313806
 20
2.4589371542
 30
0
 11
1.1995279705
 21
2.4588911794
 31
0
  0
LINE
  5
BC
100
AcDbEntity
  8
SEMA2D
100
AcDbLine
370
9
 62
0
 48
0
  6
_SOLID
 10
1.1995279705
 20
2.4588911794
 30
0
 11
1.2007779792
 21
2.4588911794
 31
0
  0
LINE
  5
BD
100
AcDbEntity
  8
SEMA2D
100
AcDbLine
370
9
 62
0
 48
0
  6
_SOLID
 10
1.2007779792
 20
2.4588911794
 30
0
 11
1.2010222869
 21
2.4588145549
 31
0
  0
LINE
  5
BE
100
AcDbEntity
  8
SEMA2D
100
AcDbLine
370
9
 62
0
 48
0
  6
_SOLID
 10
1.2010222869
 20
2.4588145549
 30
0
 11
1.2022051999
 21
2.4578982744
 31
0
  0
LINE
  5
BF
100
AcDbEntity
  8
SEMA2D
100
AcDbLine
370
9
 62
0
 48
0
  6
_SOLID
 10
1.2022051999
 20
2.4578982744
 30
0
 11
1.2026529705
 21
2.4564705649
 31
0
  0
LINE
  5
C0
100
AcDbEntity
  8
SEMA2D
100
AcDbLine
370
9
 62
0
 48
0
  6
_SOLID
 10
1.2026529705
 20
2.4564705649
 30
0
 11
1.2026529705
 21
2.2464303738
 31
0
  0
LINE
  5
C1
100
AcDbEntity
  8
SEMA2D
100
AcDbLine
370
9
 62
0
 48
0
  6
_SOLID
 10
1.2026529705
 20
2.2464303738
 30
0
 11
1.2025007296
 21
2.2456650069
 31
0
  0
LINE
  5
C2
100
AcDbEntity
  8
SEMA2D
100
AcDbLine
370
9
 62
0
 48
0
  6
_SOLID
 10
1.2025007296
 20
2.2456650069
 30
0
 11
1.2020671841
 21
2.2450161602
 31
0
  0
LINE
  5
C3
100
AcDbEntity
  8
SEMA2D
100
AcDbLine
370
9
 62
0
 48
0
  6
_SOLID
 10
1.2020671841
 20
2.2450161602
 30
0
 11
1.2010923103
 21
2.2440412865
 31
0
  0
LINE
  5
C4
100
AcDbEntity
  8
SEMA2D
100
AcDbLine
370
9
 62
0
 48
0
  6
_SOLID
 10
1.2010923103
 20
2.2440412865
 30
0
 11
1.2006529705
 21
2.2429806263
 31
0
  0
LINE
  5
C5
100
AcDbEntity
  8
SEMA2D
100
AcDbLine
370
9
 62
0
 48
0
  6
_SOLID
 10
1.2006529705
 20
2.2429806263
 30
0
 11
1.2006529705
 21
2.2412432939
 31
0
  0
LINE
  5
C6
100
AcDbEntity
  8
SEMA2D
100
AcDbLine
370
9
 62
0
 48
0
  6
_SOLID
 10
1.2006529705
 20
2.2412432939
 30
0
 11
1.2036529705
 21
2.2398443709
 31
0
  0
LINE
  5
C7
100
AcDbEntity
  8
SEMA2D
100
AcDbLine
370
9
 62
0
 48
0
  6
_SOLID
 10
1.2036529705
 20
2.2398443709
 30
0
 11
1.2036529705
 21
2.2341595224
 31
0
  0
LINE
  5
C8
100
AcDbEntity
  8
SEMA2D
100
AcDbLine
370
9
 62
0
 48
0
  6
_SOLID
 10
1.2036529705
 20
2.2341595224
 30
0
 11
1.2006529705
 21
2.2327605995
 31
0
  0
LINE
  5
C9
100
AcDbEntity
  8
SEMA2D
100
AcDbLine
370
9
 62
0
 48
0
  6
_SOLID
 10
1.2006529705
 20
2.2327605995
 30
0
 11
1.2006529705
 21
2.231023267
 31
0
  0
LINE
  5
CA
100
AcDbEntity
  8
SEMA2D
100
AcDbLine
370
9
 62
0
 48
0
  6
_SOLID
 10
1.2006529705
 20
2.231023267
 30
0
 11
1.2010923103
 21
2.2299626068
 31
0
  0
LINE
  5
CB
100
AcDbEntity
  8
SEMA2D
100
AcDbLine
370
9
 62
0
 48
0
  6
_SOLID
 10
1.2010923103
 20
2.2299626068
 30
0
 11
1.2020671841
 21
2.2289877331
 31
0
  0
LINE
  5
CC
100
AcDbEntity
  8
SEMA2D
100
AcDbLine
370
9
 62
0
 48
0
  6
_SOLID
 10
1.2020671841
 20
2.2289877331
 30
0
 11
1.2026529705
 21
2.2275735195
 31
0
  0
LINE
  5
CD
100
AcDbEntity
  8
SEMA2D
100
AcDbLine
370
9
 62
0
 48
0
  6
_SOLID
 10
1.2026529705
 20
2.2275735195
 30
0
 11
1.2026529705
 21
2.1880019467
 31
0
  0
LINE
  5
CE
100
AcDbEntity
  8
SEMA2D
100
AcDbLine
370
9
 62
0
 48
0
  6
_SOLID
 10
1.2026529705
 20
2.1880019467
 30
0
 11
1.2022510467
 21
2.1865019467
 31
0
  0
LINE
  5
CF
100
AcDbEntity
  8
SEMA2D
100
AcDbLine
370
9
 62
0
 48
0
  6
_SOLID
 10
1.2022510467
 20
2.1865019467
 30
0
 11
1.2011529705
 21
2.1854038705
 31
0
  0
LINE
  5
D0
100
AcDbEntity
  8
SEMA2D
100
AcDbLine
370
9
 62
0
 48
0
  6
_SOLID
 10
1.2011529705
 20
2.1854038705
 30
0
 11
1.1991890187
 21
2.1850379949
 31
0
  0
LINE
  5
D1
100
AcDbEntity
  8
SEMA2D
100
AcDbLine
370
9
 62
0
 48
0
  6
_SOLID
 10
1.1991890187
 20
2.1850379949
 30
0
 11
1.1991529705
 21
2.1850019467
 31
0
  0
LINE
  5
D2
100
AcDbEntity
  8
SEMA2D
100
AcDbLine
370
9
 62
0
 48
0
  6
_SOLID
 10
1.1991529705
 20
2.1850019467
 30
0
 11
1.1981529705
 21
2.1847339975
 31
0
  0
LINE
  5
D3
100
AcDbEntity
  8
SEMA2D
100
AcDbLine
370
9
 62
0
 48
0
  6
_SOLID
 10
1.1981529705
 20
2.1847339975
 30
0
 11
1.1974209197
 21
2.1840019467
 31
0
  0
LINE
  5
D4
100
AcDbEntity
  8
SEMA2D
100
AcDbLine
370
9
 62
0
 48
0
  6
_SOLID
 10
1.1974209197
 20
2.1840019467
 30
0
 11
1.1971529705
 21
2.1830019467
 31
0
  0
LINE
  5
D5
100
AcDbEntity
  8
SEMA2D
100
AcDbLine
370
9
 62
0
 48
0
  6
_SOLID
 10
1.1971529705
 20
2.1830019467
 30
0
 11
1.1971529705
 21
2.1810975434
 31
0
  0
LINE
  5
D6
100
AcDbEntity
  8
SEMA2D
100
AcDbLine
370
9
 62
0
 48
0
  6
_SOLID
 10
1.1971529705
 20
2.1810975434
 30
0
 11
1.1966731879
 21
2.1789603408
 31
0
  0
LINE
  5
D7
100
AcDbEntity
  8
SEMA2D
100
AcDbLine
370
9
 62
0
 48
0
  6
_SOLID
 10
1.1966731879
 20
2.1789603408
 30
0
 11
1.195002587
 21
2.1757009488
 31
0
  0
LINE
  5
D8
100
AcDbEntity
  8
SEMA2D
100
AcDbLine
370
9
 62
0
 48
0
  6
_SOLID
 10
1.195002587
 20
2.1757009488
 30
0
 11
1.1947217109
 21
2.1735009019
 31
0
  0
LINE
  5
D9
100
AcDbEntity
  8
SEMA2D
100
AcDbLine
370
9
 62
0
 48
0
  6
_SOLID
 10
1.1947217109
 20
2.1735009019
 30
0
 11
1.1940434877
 21
2.1707441125
 31
0
  0
LINE
  5
DA
100
AcDbEntity
  8
SEMA2D
100
AcDbLine
370
9
 62
0
 48
0
  6
_SOLID
 10
1.1940434877
 20
2.1707441125
 30
0
 11
1.1866282422
 21
2.1651141699
 31
0
  0
LINE
  5
DB
100
AcDbEntity
  8
SEMA2D
100
AcDbLine
370
9
 62
0
 48
0
  6
_SOLID
 10
1.1866282422
 20
2.1651141699
 30
0
 11
1.1784605826
 21
2.1568636624
 31
0
  0
LINE
  5
DC
100
AcDbEntity
  8
SEMA2D
100
AcDbLine
370
9
 62
0
 48
0
  6
_SOLID
 10
1.1784605826
 20
2.1568636624
 30
0
 11
1.1770288333
 21
2.1453427408
 31
0
  0
LINE
  5
DD
100
AcDbEntity
  8
SEMA2D
100
AcDbLine
370
9
 62
0
 48
0
  6
_SOLID
 10
1.1770288333
 20
2.1453427408
 30
0
 11
1.1829285913
 21
2.1353440211
 31
0
  0
LINE
  5
DE
100
AcDbEntity
  8
SEMA2D
100
AcDbLine
370
9
 62
0
 48
0
  6
_SOLID
 10
1.1829285913
 20
2.1353440211
 30
0
 11
1.1931157195
 21
2.1310677096
 31
0
  0
LINE
  5
DF
100
AcDbEntity
  8
SEMA2D
100
AcDbLine
370
9
 62
0
 48
0
  6
_SOLID
 10
1.1931157195
 20
2.1310677096
 30
0
 11
1.1931760822
 21
2.1310268947
 31
0
  0
LINE
  5
E0
100
AcDbEntity
  8
SEMA2D
100
AcDbLine
370
9
 62
0
 48
0
  6
_SOLID
 10
1.1931760822
 20
2.1310268947
 30
0
 11
1.1937056021
 21
2.1310268947
 31
0
  0
LINE
  5
E1
100
AcDbEntity
  8
SEMA2D
100
AcDbLine
370
9
 62
0
 48
0
  6
_SOLID
 10
1.1937056021
 20
2.1310268947
 30
0
 11
1.1943784468
 21
2.1307165279
 31
0
  0
LINE
  5
E2
100
AcDbEntity
  8
SEMA2D
100
AcDbLine
370
9
 62
0
 48
0
  6
_SOLID
 10
1.1943784468
 20
2.1307165279
 30
0
 11
1.1946529705
 21
2.1300282807
 31
0
  0
LINE
  5
E3
100
AcDbEntity
  8
SEMA2D
100
AcDbLine
370
9
 62
0
 48
0
  6
_SOLID
 10
1.1946529705
 20
2.1300282807
 30
0
 11
1.1946529705
 21
2.1290019467
 31
0
  0
LINE
  5
E4
100
AcDbEntity
  8
SEMA2D
100
AcDbLine
370
9
 62
0
 48
0
  6
_SOLID
 10
1.1946529705
 20
2.1290019467
 30
0
 11
1.1986529705
 21
2.1290019467
 31
0
  0
LINE
  5
E5
100
AcDbEntity
  8
SEMA2D
100
AcDbLine
370
9
 62
0
 48
0
  6
_SOLID
 10
1.1986529705
 20
2.1290019467
 30
0
 11
1.1986529705
 21
2.1300019467
 31
0
  0
LINE
  5
E6
100
AcDbEntity
  8
SEMA2D
100
AcDbLine
370
9
 62
0
 48
0
  6
_SOLID
 10
1.1986529705
 20
2.1300019467
 30
0
 11
1.1987869451
 21
2.1305019467
 31
0
  0
LINE
  5
E7
100
AcDbEntity
  8
SEMA2D
100
AcDbLine
370
9
 62
0
 48
0
  6
_SOLID
 10
1.1987869451
 20
2.1305019467
 30
0
 11
1.1991529705
 21
2.1308679721
 31
0
  0
LINE
  5
E8
100
AcDbEntity
  8
SEMA2D
100
AcDbLine
370
9
 62
0
 48
0
  6
_SOLID
 10
1.1991529705
 20
2.1308679721
 30
0
 11
1.1996529705
 21
2.1310019467
 31
0
  0
LINE
  5
E9
100
AcDbEntity
  8
SEMA2D
100
AcDbLine
370
9
 62
0
 48
0
  6
_SOLID
 10
1.1996529705
 20
2.1310019467
 30
0
 11
1.2001529705
 21
2.1310019467
 31
0
  0
LINE
  5
EA
100
AcDbEntity
  8
SEMA2D
100
AcDbLine
370
9
 62
0
 48
0
  6
_SOLID
 10
1.2001529705
 20
2.1310019467
 30
0
 11
1.2009029705
 21
2.1312029086
 31
0
  0
LINE
  5
EB
100
AcDbEntity
  8
SEMA2D
100
AcDbLine
370
9
 62
0
 48
0
  6
_SOLID
 10
1.2009029705
 20
2.1312029086
 30
0
 11
1.2014520086
 21
2.1317519467
 31
0
  0
LINE
  5
EC
100
AcDbEntity
  8
SEMA2D
100
AcDbLine
370
9
 62
0
 48
0
  6
_SOLID
 10
1.2014520086
 20
2.1317519467
 30
0
 11
1.2016529705
 21
2.1325019467
 31
0
  0
LINE
  5
ED
100
AcDbEntity
  8
SEMA2D
100
AcDbLine
370
9
 62
0
 48
0
  6
_SOLID
 10
1.2016529705
 20
2.1325019467
 30
0
 11
1.2016529705
 21
2.1371189054
 31
0
  0
LINE
  5
EE
100
AcDbEntity
  8
SEMA2D
100
AcDbLine
370
9
 62
0
 48
0
  6
_SOLID
 10
1.2016529705
 20
2.1371189054
 30
0
 11
1.2013430005
 21
2.1380320475
 31
0
  0
LINE
  5
EF
100
AcDbEntity
  8
SEMA2D
100
AcDbLine
370
9
 62
0
 48
0
  6
_SOLID
 10
1.2013430005
 20
2.1380320475
 30
0
 11
1.2005411991
 21
2.1385677941
 31
0
  0
LINE
  5
F0
100
AcDbEntity
  8
SEMA2D
100
AcDbLine
370
9
 62
0
 48
0
  6
_SOLID
 10
1.2005411991
 20
2.1385677941
 30
0
 11
1.19806478
 21
2.1392313486
 31
0
  0
LINE
  5
F1
100
AcDbEntity
  8
SEMA2D
100
AcDbLine
370
9
 62
0
 48
0
  6
_SOLID
 10
1.19806478
 20
2.1392313486
 30
0
 11
1.1927194371
 21
2.1428029926
 31
0
  0
LINE
  5
F2
100
AcDbEntity
  8
SEMA2D
100
AcDbLine
370
9
 62
0
 48
0
  6
_SOLID
 10
1.1927194371
 20
2.1428029926
 30
0
 11
1.1906529705
 21
2.1488906069
 31
0
  0
LINE
  5
F3
100
AcDbEntity
  8
SEMA2D
100
AcDbLine
370
9
 62
0
 48
0
  6
_SOLID
 10
1.1906529705
 20
2.1488906069
 30
0
 11
1.1906529705
 21
2.1510019467
 31
0
  0
LINE
  5
F4
100
AcDbEntity
  8
SEMA2D
100
AcDbLine
370
9
 62
0
 48
0
  6
_SOLID
 10
1.1906529705
 20
2.1510019467
 30
0
 11
1.1923678737
 21
2.1566016941
 31
0
  0
LINE
  5
F5
100
AcDbEntity
  8
SEMA2D
100
AcDbLine
370
9
 62
0
 48
0
  6
_SOLID
 10
1.1923678737
 20
2.1566016941
 30
0
 11
1.1969244047
 21
2.1602808366
 31
0
  0
LINE
  5
F6
100
AcDbEntity
  8
SEMA2D
100
AcDbLine
370
9
 62
0
 48
0
  6
_SOLID
 10
1.1969244047
 20
2.1602808366
 30
0
 11
1.2137800995
 21
2.1667856626
 31
0
  0
LINE
  5
F7
100
AcDbEntity
  8
SEMA2D
100
AcDbLine
370
9
 62
0
 48
0
  6
_SOLID
 10
1.2137800995
 20
2.1667856626
 30
0
 11
1.2151738935
 21
2.1678874688
 31
0
  0
LINE
  5
F8
100
AcDbEntity
  8
SEMA2D
100
AcDbLine
370
9
 62
0
 48
0
  6
_SOLID
 10
1.2151738935
 20
2.1678874688
 30
0
 11
1.2157
 21
2.1695844811
 31
0
  0
LINE
  5
F9
100
AcDbEntity
  8
SEMA2D
100
AcDbLine
370
9
 62
0
 48
0
  6
_SOLID
 10
1.2157
 20
2.1695844811
 30
0
 11
1.2157
 21
2.1727032547
 31
0
  0
LINE
  5
FA
100
AcDbEntity
  8
SEMA2D
100
AcDbLine
370
9
 62
0
 48
0
  6
_SOLID
 10
1.2157
 20
2.1727032547
 30
0
 11
1.2163369635
 21
2.174551513
 31
0
  0
LINE
  5
FB
100
AcDbEntity
  8
SEMA2D
100
AcDbLine
370
9
 62
0
 48
0
  6
_SOLID
 10
1.2163369635
 20
2.174551513
 30
0
 11
1.2179773724
 21
2.1756149225
 31
0
  0
LINE
  5
FC
100
AcDbEntity
  8
SEMA2D
100
AcDbLine
370
9
 62
0
 48
0
  6
_SOLID
 10
1.2179773724
 20
2.1756149225
 30
0
 11
1.2501706914
 21
2.1836044153
 31
0
  0
LINE
  5
FD
100
AcDbEntity
  8
SEMA2D
100
AcDbLine
370
9
 62
0
 48
0
  6
_SOLID
 10
1.2501706914
 20
2.1836044153
 30
0
 11
1.2512396772
 21
2.1843190777
 31
0
  0
LINE
  5
FE
100
AcDbEntity
  8
SEMA2D
100
AcDbLine
370
9
 62
0
 48
0
  6
_SOLID
 10
1.2512396772
 20
2.1843190777
 30
0
 11
1.2516529705
 21
2.1855366006
 31
0
  0
LINE
  5
FF
100
AcDbEntity
  8
SEMA2D
100
AcDbLine
370
9
 62
0
 48
0
  6
_SOLID
 10
1.2516529705
 20
2.1855366006
 30
0
 11
1.2516529705
 21
2.1904672927
 31
0
  0
LINE
  5
100
100
AcDbEntity
  8
SEMA2D
100
AcDbLine
370
9
 62
0
 48
0
  6
_SOLID
 10
1.2516529705
 20
2.1904672927
 30
0
 11
1.2512396772
 21
2.1916848156
 31
0
  0
LINE
  5
101
100
AcDbEntity
  8
SEMA2D
100
AcDbLine
370
9
 62
0
 48
0
  6
_SOLID
 10
1.2512396772
 20
2.1916848156
 30
0
 11
1.2501706086
 21
2.1923991444
 31
0
  0
LINE
  5
102
100
AcDbEntity
  8
SEMA2D
100
AcDbLine
370
9
 62
0
 48
0
  6
_SOLID
 10
1.2501706086
 20
2.1923991444
 30
0
 11
1.2189371998
 21
2.2000727412
 31
0
  0
LINE
  5
103
100
AcDbEntity
  8
SEMA2D
100
AcDbLine
370
9
 62
0
 48
0
  6
_SOLID
 10
1.2189371998
 20
2.2000727412
 30
0
 11
1.2172921113
 21
2.2011350636
 31
0
  0
LINE
  5
104
100
AcDbEntity
  8
SEMA2D
100
AcDbLine
370
9
 62
0
 48
0
  6
_SOLID
 10
1.2172921113
 20
2.2011350636
 30
0
 11
1.2166529705
 21
2.2029861022
 31
0
  0
LINE
  5
105
100
AcDbEntity
  8
SEMA2D
100
AcDbLine
370
9
 62
0
 48
0
  6
_SOLID
 10
1.2166529705
 20
2.2029861022
 30
0
 11
1.2166529705
 21
2.2334807346
 31
0
  0
LINE
  5
106
100
AcDbEntity
  8
SEMA2D
100
AcDbLine
370
9
 62
0
 48
0
  6
_SOLID
 10
1.2166529705
 20
2.2334807346
 30
0
 11
1.2056529705
 21
2.2340746739
 31
0
  0
LINE
  5
107
100
AcDbEntity
  8
SEMA2D
100
AcDbLine
370
9
 62
0
 48
0
  6
_SOLID
 10
1.2056529705
 20
2.2340746739
 30
0
 11
1.2056529705
 21
2.2399292194
 31
0
  0
LINE
  5
108
100
AcDbEntity
  8
SEMA2D
100
AcDbLine
370
9
 62
0
 48
0
  6
_SOLID
 10
1.2056529705
 20
2.2399292194
 30
0
 11
1.2166529705
 21
2.2405231588
 31
0
  0
LINE
  5
109
100
AcDbEntity
  8
SEMA2D
100
AcDbLine
370
9
 62
0
 48
0
  6
_SOLID
 10
1.2166529705
 20
2.2405231588
 30
0
 11
1.2166529705
 21
2.2826699365
 31
0
  0
LINE
  5
10A
100
AcDbEntity
  8
SEMA2D
100
AcDbLine
370
9
 62
0
 48
0
  6
_SOLID
 10
1.2166529705
 20
2.2826699365
 30
0
 11
1.2172824528
 21
2.2845085898
 31
0
  0
LINE
  5
10B
100
AcDbEntity
  8
SEMA2D
100
AcDbLine
370
9
 62
0
 48
0
  6
_SOLID
 10
1.2172824528
 20
2.2845085898
 30
0
 11
1.2189067345
 21
2.2855756433
 31
0
  0
LINE
  5
10C
100
AcDbEntity
  8
SEMA2D
100
AcDbLine
370
9
 62
0
 48
0
  6
_SOLID
 10
1.2189067345
 20
2.2855756433
 30
0
 11
1.2501706086
 21
2.2936047489
 31
0
  0
LINE
  5
10D
100
AcDbEntity
  8
SEMA2D
100
AcDbLine
370
9
 62
0
 48
0
  6
_SOLID
 10
1.2501706086
 20
2.2936047489
 30
0
 11
1.2512396772
 21
2.2943190777
 31
0
  0
LINE
  5
10E
100
AcDbEntity
  8
SEMA2D
100
AcDbLine
370
9
 62
0
 48
0
  6
_SOLID
 10
1.2512396772
 20
2.2943190777
 30
0
 11
1.2516529705
 21
2.2955366006
 31
0
  0
LINE
  5
10F
100
AcDbEntity
  8
SEMA2D
100
AcDbLine
370
9
 62
0
 48
0
  6
_SOLID
 10
1.2516529705
 20
2.2955366006
 30
0
 11
1.2516529705
 21
2.3004672927
 31
0
  0
LINE
  5
110
100
AcDbEntity
  8
SEMA2D
100
AcDbLine
370
9
 62
0
 48
0
  6
_SOLID
 10
1.2516529705
 20
2.3004672927
 30
0
 11
1.2512396772
 21
2.3016848156
 31
0
  0
LINE
  5
111
100
AcDbEntity
  8
SEMA2D
100
AcDbLine
370
9
 62
0
 48
0
  6
_SOLID
 10
1.2512396772
 20
2.3016848156
 30
0
 11
1.2501706086
 21
2.3023991444
 31
0
  0
LINE
  5
112
100
AcDbEntity
  8
SEMA2D
100
AcDbLine
370
9
 62
0
 48
0
  6
_SOLID
 10
1.2501706086
 20
2.3023991444
 30
0
 11
1.2189067345
 21
2.31042825
 31
0
  0
LINE
  5
113
100
AcDbEntity
  8
SEMA2D
100
AcDbLine
370
9
 62
0
 48
0
  6
_SOLID
 10
1.2189067345
 20
2.31042825
 30
0
 11
1.2172824528
 21
2.3114953035
 31
0
  0
LINE
  5
114
100
AcDbEntity
  8
SEMA2D
100
AcDbLine
370
9
 62
0
 48
0
  6
_SOLID
 10
1.2172824528
 20
2.3114953035
 30
0
 11
1.2166529705
 21
2.3133339568
 31
0
  0
LINE
  5
115
100
AcDbEntity
  8
SEMA2D
100
AcDbLine
370
9
 62
0
 48
0
  6
_SOLID
 10
1.2166529705
 20
2.3133339568
 30
0
 11
1.2166529705
 21
2.3966243569
 31
0
  0
LINE
  5
116
100
AcDbEntity
  8
SEMA2D
100
AcDbLine
370
9
 62
0
 48
0
  6
_SOLID
 10
1.2166529705
 20
2.3966243569
 30
0
 11
1.2172541774
 21
2.3984259649
 31
0
  0
LINE
  5
117
100
AcDbEntity
  8
SEMA2D
100
AcDbLine
370
9
 62
0
 48
0
  6
_SOLID
 10
1.2172541774
 20
2.3984259649
 30
0
 11
1.2188168315
 21
2.3995054802
 31
0
  0
LINE
  5
118
100
AcDbEntity
  8
SEMA2D
100
AcDbLine
370
9
 62
0
 48
0
  6
_SOLID
 10
1.2188168315
 20
2.3995054802
 30
0
 11
1.2501706086
 21
2.4086047489
 31
0
  0
LINE
  5
119
100
AcDbEntity
  8
SEMA2D
100
AcDbLine
370
9
 62
0
 48
0
  6
_SOLID
 10
1.2501706086
 20
2.4086047489
 30
0
 11
1.2512396772
 21
2.4093190777
 31
0
  0
LINE
  5
11A
100
AcDbEntity
  8
SEMA2D
100
AcDbLine
370
9
 62
0
 48
0
  6
_SOLID
 10
1.2512396772
 20
2.4093190777
 30
0
 11
1.2516529705
 21
2.4105366006
 31
0
  0
LINE
  5
11B
100
AcDbEntity
  8
SEMA2D
100
AcDbLine
370
9
 62
0
 48
0
  6
_SOLID
 10
1.2516529705
 20
2.4105366006
 30
0
 11
1.2516529705
 21
2.4154672927
 31
0
  0
LINE
  5
11C
100
AcDbEntity
  8
SEMA2D
100
AcDbLine
370
9
 62
0
 48
0
  6
_SOLID
 10
1.2516529705
 20
2.4154672927
 30
0
 11
1.2512396772
 21
2.4166848156
 31
0
  0
LINE
  5
11D
100
AcDbEntity
  8
SEMA2D
100
AcDbLine
370
9
 62
0
 48
0
  6
_SOLID
 10
1.2512396772
 20
2.4166848156
 30
0
 11
1.2501706086
 21
2.4173991444
 31
0
  0
LINE
  5
11E
100
AcDbEntity
  8
SEMA2D
100
AcDbLine
370
9
 62
0
 48
0
  6
_SOLID
 10
1.2501706086
 20
2.4173991444
 30
0
 11
1.250219294
 21
2.4173356963
 31
0
  0
LINE
  5
11F
100
AcDbEntity
  8
SEMA2D
100
AcDbLine
370
9
 62
0
 48
0
  6
_SOLID
 10
1.250219294
 20
2.4173356963
 30
0
 11
1.2208050619
 21
2.4260517002
 31
0
  0
LINE
  5
120
100
AcDbEntity
  8
SEMA2D
100
AcDbLine
370
9
 62
0
 48
0
  6
_SOLID
 10
1.2208050619
 20
2.4260517002
 30
0
 11
1.2192505003
 21
2.42713268
 31
0
  0
LINE
  5
121
100
AcDbEntity
  8
SEMA2D
100
AcDbLine
370
9
 62
0
 48
0
  6
_SOLID
 10
1.2192505003
 20
2.42713268
 30
0
 11
1.2186529705
 21
2.4289293817
 31
0
  0
LINE
  5
122
100
AcDbEntity
  8
SEMA2D
100
AcDbLine
370
9
 62
0
 48
0
  6
_SOLID
 10
1.2186529705
 20
2.4289293817
 30
0
 11
1.2186529705
 21
2.4838576423
 31
0
  0
LINE
  5
123
100
AcDbEntity
  8
SEMA2D
100
AcDbLine
370
9
 62
0
 48
0
  6
_SOLID
 10
1.2186529705
 20
2.4838576423
 30
0
 11
1.2192729105
 21
2.4856839266
 31
0
  0
LINE
  5
124
100
AcDbEntity
  8
SEMA2D
100
AcDbLine
370
9
 62
0
 48
0
  6
_SOLID
 10
1.2192729105
 20
2.4856839266
 30
0
 11
1.2208765134
 21
2.4867554198
 31
0
  0
LINE
  5
125
100
AcDbEntity
  8
SEMA2D
100
AcDbLine
370
9
 62
0
 48
0
  6
_SOLID
 10
1.2208765134
 20
2.4867554198
 30
0
 11
1.2505411991
 21
2.4947040485
 31
0
  0
LINE
  5
126
100
AcDbEntity
  8
SEMA2D
100
AcDbLine
370
9
 62
0
 48
0
  6
_SOLID
 10
1.2505411991
 20
2.4947040485
 30
0
 11
1.2513430005
 21
2.4952397951
 31
0
  0
LINE
  5
127
100
AcDbEntity
  8
SEMA2D
100
AcDbLine
370
9
 62
0
 48
0
  6
_SOLID
 10
1.2513430005
 20
2.4952397951
 30
0
 11
1.2516529705
 21
2.4961529372
 31
0
  0
LINE
  5
128
100
AcDbEntity
  8
SEMA2D
100
AcDbLine
370
9
 62
0
 48
0
  6
_SOLID
 10
1.2516529705
 20
2.4961529372
 30
0
 11
1.2516529705
 21
2.4999377252
 31
0
  0
LINE
  5
129
100
AcDbEntity
  8
SEMA2D
100
AcDbLine
370
9
 62
0
 48
0
  6
_SOLID
 10
1.2516529705
 20
2.4999377252
 30
0
 11
1.2513763446
 21
2.5008056859
 31
0
  0
LINE
  5
12A
100
AcDbEntity
  8
SEMA2D
100
AcDbLine
370
9
 62
0
 48
0
  6
_SOLID
 10
1.2513763446
 20
2.5008056859
 30
0
 11
1.2506484961
 21
2.5013535127
 31
0
  0
LINE
  5
12B
100
AcDbEntity
  8
SEMA2D
100
AcDbLine
370
9
 62
0
 48
0
  6
_SOLID
 10
1.2506484961
 20
2.5013535127
 30
0
 11
1.2507363743
 21
2.5012296501
 31
0
  0
LINE
  5
12C
100
AcDbEntity
  8
SEMA2D
100
AcDbLine
370
9
 62
0
 48
0
  6
_SOLID
 10
1.2507363743
 20
2.5012296501
 30
0
 11
1.2371520143
 21
2.5070019467
 31
0
  0
LINE
  5
12D
100
AcDbEntity
  8
SEMA2D
100
AcDbLine
370
9
 62
0
 48
0
  6
_SOLID
 10
1.2371520143
 20
2.5070019467
 30
0
 11
1.2153226201
 21
2.5070019467
 31
0
  0
LINE
  5
12E
100
AcDbEntity
  8
SEMA2D
100
AcDbLine
370
9
 62
0
 48
0
  6
_SOLID
 10
1.2153226201
 20
2.5070019467
 30
0
 11
1.2148373878
 21
2.5073671646
 31
0
  0
LINE
  5
12F
100
AcDbEntity
  8
SEMA2D
100
AcDbLine
370
9
 62
0
 48
0
  6
_SOLID
 10
1.2148373878
 20
2.5073671646
 30
0
 11
1.2146529705
 21
2.5079458051
 31
0
  0
LINE
  5
130
100
AcDbEntity
  8
SEMA2D
100
AcDbLine
370
9
 62
0
 48
0
  6
_SOLID
 10
1.2146529705
 20
2.5079458051
 30
0
 11
1.2146529705
 21
2.5090019467
 31
0
  0
LINE
  5
131
100
AcDbEntity
  8
SEMA2D
100
AcDbLine
370
9
 62
0
 48
0
  6
_SOLID
 10
1.2146529705
 20
2.5090019467
 30
0
 11
1.2106529705
 21
2.5090019467
 31
0
  0
LINE
  5
132
100
AcDbEntity
  8
SEMA2D
100
AcDbLine
370
9
 62
0
 48
0
  6
_SOLID
 10
1.2106529705
 20
2.5090019467
 30
0
 11
1.2106529705
 21
2.5080019467
 31
0
  0
LINE
  5
133
100
AcDbEntity
  8
SEMA2D
100
AcDbLine
370
9
 62
0
 48
0
  6
_SOLID
 10
1.2106529705
 20
2.5080019467
 30
0
 11
1.2105189959
 21
2.5075019467
 31
0
  0
LINE
  5
134
100
AcDbEntity
  8
SEMA2D
100
AcDbLine
370
9
 62
0
 48
0
  6
_SOLID
 10
1.2105189959
 20
2.5075019467
 30
0
 11
1.2101529705
 21
2.5071359213
 31
0
  0
LINE
  5
135
100
AcDbEntity
  8
SEMA2D
100
AcDbLine
370
9
 62
0
 48
0
  6
_SOLID
 10
1.2101529705
 20
2.5071359213
 30
0
 11
1.2096529705
 21
2.5070019467
 31
0
  0
LINE
  5
136
100
AcDbEntity
  8
SEMA2D
100
AcDbLine
370
9
 62
0
 48
0
  6
_SOLID
 10
1.2096529705
 20
2.5070019467
 30
0
 11
1.2011529705
 21
2.5070019467
 31
0
  0
LINE
  5
137
100
AcDbEntity
  8
SEMA2D
100
AcDbLine
370
9
 62
0
 48
0
  6
_SOLID
 10
1.2011529705
 20
2.5070019467
 30
0
 11
1.2004029705
 21
2.5068009848
 31
0
  0
LINE
  5
138
100
AcDbEntity
  8
SEMA2D
100
AcDbLine
370
9
 62
0
 48
0
  6
_SOLID
 10
1.2004029705
 20
2.5068009848
 30
0
 11
1.1998539324
 21
2.5062519467
 31
0
  0
LINE
  5
139
100
AcDbEntity
  8
SEMA2D
100
AcDbLine
370
9
 62
0
 48
0
  6
_SOLID
 10
1.1998539324
 20
2.5062519467
 30
0
 11
1.1996529705
 21
2.5055019467
 31
0
  0
LINE
  5
13A
100
AcDbEntity
  8
SEMA2D
100
AcDbLine
370
9
 62
0
 48
0
  6
_SOLID
 10
1.1996529705
 20
2.5055019467
 30
0
 11
1.1996529705
 21
2.5012166227
 31
0
  0
LINE
  5
13B
100
AcDbEntity
  8
SEMA2D
100
AcDbLine
370
9
 62
0
 48
0
  6
_SOLID
 10
1.1996529705
 20
2.5012166227
 30
0
 11
1.1999872516
 21
2.5002726421
 31
0
  0
LINE
  5
13C
100
AcDbEntity
  8
SEMA2D
100
AcDbLine
370
9
 62
0
 48
0
  6
_SOLID
 10
1.1999872516
 20
2.5002726421
 30
0
 11
1.200841103
 21
2.4997494013
 31
0
  0
LINE
  5
13D
100
AcDbEntity
  8
SEMA2D
100
AcDbLine
370
9
 62
0
 48
0
  6
_SOLID
 10
1.200841103
 20
2.4997494013
 30
0
 11
1.2035687939
 21
2.4991696127
 31
0
  0
LINE
  5
13E
100
AcDbEntity
  8
SEMA2D
100
AcDbLine
370
9
 62
0
 48
0
  6
_SOLID
 10
1.2035687939
 20
2.4991696127
 30
0
 11
1.2047072624
 21
2.4984719583
 31
0
  0
LINE
  5
13F
100
AcDbEntity
  8
SEMA2D
100
AcDbLine
370
9
 62
0
 48
0
  6
_SOLID
 10
1.2047072624
 20
2.4984719583
 30
0
 11
1.2051529705
 21
2.4972133175
 31
0
  0
LINE
  5
140
100
AcDbEntity
  8
SEMA2D
100
AcDbLine
370
9
 62
0
 48
0
  6
_SOLID
 10
1.2051529705
 20
2.4972133175
 30
0
 11
1.2051529705
 21
2.4831385713
 31
0
  0
LINE
  5
141
100
AcDbEntity
  8
SEMA2D
100
AcDbLine
370
9
 62
0
 48
0
  6
_SOLID
 10
1.2051529705
 20
2.4831385713
 30
0
 11
1.2045330305
 21
2.481312287
 31
0
  0
LINE
  5
142
100
AcDbEntity
  8
SEMA2D
100
AcDbLine
370
9
 62
0
 48
0
  6
_SOLID
 10
1.2045330305
 20
2.481312287
 30
0
 11
1.2029294276
 21
2.4802407938
 31
0
  0
LINE
  5
143
100
AcDbEntity
  8
SEMA2D
100
AcDbLine
370
9
 62
0
 48
0
  6
_SOLID
 10
1.2029294276
 20
2.4802407938
 30
0
 11
1.1997118277
 21
2.4793786405
 31
0
  0
LINE
  5
144
100
AcDbEntity
  8
SEMA2D
100
AcDbLine
370
9
 62
0
 48
0
  6
_SOLID
 10
1.1997118277
 20
2.4793786405
 30
0
 11
1.195366906
 21
2.4762250882
 31
0
  0
LINE
  5
145
100
AcDbEntity
  8
SEMA2D
100
AcDbLine
370
9
 62
0
 48
0
  6
_SOLID
 10
1.195366906
 20
2.4762250882
 30
0
 11
1.194243046
 21
2.4709753097
 31
0
  0
LINE
  5
146
100
AcDbEntity
  8
SEMA2D
100
AcDbLine
370
9
 62
0
 48
0
  6
_SOLID
 10
1.194243046
 20
2.4709753097
 30
0
 11
1.1969161284
 21
2.46631936
 31
0
  0
LINE
  5
147
100
AcDbEntity
  8
SEMA2D
100
AcDbLine
370
9
 62
0
 48
0
  6
_SOLID
 10
1.1969161284
 20
2.46631936
 30
0
 11
1.1976529705
 21
2.4647687368
 31
0
  0
LINE
  5
148
100
AcDbEntity
  8
SEMA2D
100
AcDbLine
370
9
 62
0
 48
0
  6
_SOLID
 10
1.1976529705
 20
2.4647687368
 30
0
 11
1.1976529705
 21
2.4603435482
 31
0
  0
LINE
  5
149
100
AcDbEntity
  8
SEMA2D
100
AcDbLine
370
9
 62
0
 48
0
  6
_SOLID
 10
1.1976529705
 20
2.4603435482
 30
0
 11
1.1979216329
 21
2.4594869225
 31
0
  0
LINE
  5
14A
100
AcDbEntity
  8
SEMA2D
100
AcDbLine
370
9
 62
0
 48
0
  6
_SOLID
 10
1.1979216329
 20
2.4594869225
 30
0
 11
1.1986313806
 21
2.4589371542
 31
0
  0
LINE
  5
14B
100
AcDbEntity
  8
SEMA2D
100
AcDbLine
370
9
 62
0
 48
0
  6
_SOLID
 10
1.1986313806
 20
2.4589371542
 30
0
 11
1.1995279705
 21
2.4588911794
 31
0
  0
LINE
  5
14C
100
AcDbEntity
  8
SEMA2D
100
AcDbLine
370
9
 62
0
 48
0
  6
_SOLID
 10
1.1995279705
 20
2.4588911794
 30
0
 11
1.2007779792
 21
2.4588911794
 31
0
  0
LINE
  5
14D
100
AcDbEntity
  8
SEMA2D
100
AcDbLine
370
9
 62
0
 48
0
  6
_SOLID
 10
1.2007779792
 20
2.4588911794
 30
0
 11
1.2010222869
 21
2.4588145549
 31
0
  0
LINE
  5
14E
100
AcDbEntity
  8
SEMA2D
100
AcDbLine
370
9
 62
0
 48
0
  6
_SOLID
 10
1.2010222869
 20
2.4588145549
 30
0
 11
1.2022051999
 21
2.4578982744
 31
0
  0
LINE
  5
14F
100
AcDbEntity
  8
SEMA2D
100
AcDbLine
370
9
 62
0
 48
0
  6
_SOLID
 10
1.2022051999
 20
2.4578982744
 30
0
 11
1.2026529705
 21
2.4564705649
 31
0
  0
LINE
  5
150
100
AcDbEntity
  8
SEMA2D
100
AcDbLine
370
9
 62
0
 48
0
  6
_SOLID
 10
1.2026529705
 20
2.4564705649
 30
0
 11
1.2026529705
 21
2.2464303738
 31
0
  0
LINE
  5
151
100
AcDbEntity
  8
SEMA2D
100
AcDbLine
370
9
 62
0
 48
0
  6
_SOLID
 10
1.2026529705
 20
2.2464303738
 30
0
 11
1.2025007296
 21
2.2456650069
 31
0
  0
LINE
  5
152
100
AcDbEntity
  8
SEMA2D
100
AcDbLine
370
9
 62
0
 48
0
  6
_SOLID
 10
1.2025007296
 20
2.2456650069
 30
0
 11
1.2020671841
 21
2.2450161602
 31
0
  0
LINE
  5
153
100
AcDbEntity
  8
SEMA2D
100
AcDbLine
370
9
 62
0
 48
0
  6
_SOLID
 10
1.2020671841
 20
2.2450161602
 30
0
 11
1.2010923103
 21
2.2440412865
 31
0
  0
LINE
  5
154
100
AcDbEntity
  8
SEMA2D
100
AcDbLine
370
9
 62
0
 48
0
  6
_SOLID
 10
1.2010923103
 20
2.2440412865
 30
0
 11
1.2006529705
 21
2.2429806263
 31
0
  0
LINE
  5
155
100
AcDbEntity
  8
SEMA2D
100
AcDbLine
370
9
 62
0
 48
0
  6
_SOLID
 10
1.2006529705
 20
2.2429806263
 30
0
 11
1.2006529705
 21
2.2412432939
 31
0
  0
LINE
  5
156
100
AcDbEntity
  8
SEMA2D
100
AcDbLine
370
9
 62
0
 48
0
  6
_SOLID
 10
1.2006529705
 20
2.2412432939
 30
0
 11
1.2036529705
 21
2.2398443709
 31
0
  0
LINE
  5
157
100
AcDbEntity
  8
SEMA2D
100
AcDbLine
370
9
 62
0
 48
0
  6
_SOLID
 10
1.2036529705
 20
2.2398443709
 30
0
 11
1.2036529705
 21
2.2341595224
 31
0
  0
LINE
  5
158
100
AcDbEntity
  8
SEMA2D
100
AcDbLine
370
9
 62
0
 48
0
  6
_SOLID
 10
1.2036529705
 20
2.2341595224
 30
0
 11
1.2006529705
 21
2.2327605995
 31
0
  0
LINE
  5
159
100
AcDbEntity
  8
SEMA2D
100
AcDbLine
370
9
 62
0
 48
0
  6
_SOLID
 10
1.2006529705
 20
2.2327605995
 30
0
 11
1.2006529705
 21
2.231023267
 31
0
  0
LINE
  5
15A
100
AcDbEntity
  8
SEMA2D
100
AcDbLine
370
9
 62
0
 48
0
  6
_SOLID
 10
1.2006529705
 20
2.231023267
 30
0
 11
1.2010923103
 21
2.2299626068
 31
0
  0
LINE
  5
15B
100
AcDbEntity
  8
SEMA2D
100
AcDbLine
370
9
 62
0
 48
0
  6
_SOLID
 10
1.2010923103
 20
2.2299626068
 30
0
 11
1.2020671841
 21
2.2289877331
 31
0
  0
LINE
  5
15C
100
AcDbEntity
  8
SEMA2D
100
AcDbLine
370
9
 62
0
 48
0
  6
_SOLID
 10
1.2020671841
 20
2.2289877331
 30
0
 11
1.2026529705
 21
2.2275735195
 31
0
  0
LINE
  5
15D
100
AcDbEntity
  8
SEMA2D
100
AcDbLine
370
9
 62
0
 48
0
  6
_SOLID
 10
1.2026529705
 20
2.2275735195
 30
0
 11
1.2026529705
 21
2.1880019467
 31
0
  0
LINE
  5
15E
100
AcDbEntity
  8
SEMA2D
100
AcDbLine
370
9
 62
0
 48
0
  6
_SOLID
 10
1.2026529705
 20
2.1880019467
 30
0
 11
1.2022510467
 21
2.1865019467
 31
0
  0
LINE
  5
15F
100
AcDbEntity
  8
SEMA2D
100
AcDbLine
370
9
 62
0
 48
0
  6
_SOLID
 10
1.2022510467
 20
2.1865019467
 30
0
 11
1.2011529705
 21
2.1854038705
 31
0
  0
LINE
  5
160
100
AcDbEntity
  8
SEMA2D
100
AcDbLine
370
9
 62
0
 48
0
  6
_SOLID
 10
1.2011529705
 20
2.1854038705
 30
0
 11
1.1991890187
 21
2.1850379949
 31
0
  0
LINE
  5
161
100
AcDbEntity
  8
SEMA2D
100
AcDbLine
370
9
 62
0
 48
0
  6
_SOLID
 10
1.1991890187
 20
2.1850379949
 30
0
 11
1.1991529705
 21
2.1850019467
 31
0
  0
LINE
  5
162
100
AcDbEntity
  8
SEMA2D
100
AcDbLine
370
9
 62
0
 48
0
  6
_SOLID
 10
1.1991529705
 20
2.1850019467
 30
0
 11
1.1981529705
 21
2.1847339975
 31
0
  0
LINE
  5
163
100
AcDbEntity
  8
SEMA2D
100
AcDbLine
370
9
 62
0
 48
0
  6
_SOLID
 10
1.1981529705
 20
2.1847339975
 30
0
 11
1.1974209197
 21
2.1840019467
 31
0
  0
LINE
  5
164
100
AcDbEntity
  8
SEMA2D
100
AcDbLine
370
9
 62
0
 48
0
  6
_SOLID
 10
1.1974209197
 20
2.1840019467
 30
0
 11
1.1971529705
 21
2.1830019467
 31
0
  0
LINE
  5
165
100
AcDbEntity
  8
SEMA2D
100
AcDbLine
370
9
 62
0
 48
0
  6
_SOLID
 10
1.1971529705
 20
2.1830019467
 30
0
 11
1.1971529705
 21
2.1810975434
 31
0
  0
LINE
  5
166
100
AcDbEntity
  8
SEMA2D
100
AcDbLine
370
9
 62
0
 48
0
  6
_SOLID
 10
1.1971529705
 20
2.1810975434
 30
0
 11
1.1966731879
 21
2.1789603408
 31
0
  0
LINE
  5
167
100
AcDbEntity
  8
SEMA2D
100
AcDbLine
370
9
 62
0
 48
0
  6
_SOLID
 10
1.1966731879
 20
2.1789603408
 30
0
 11
1.195002587
 21
2.1757009488
 31
0
  0
LINE
  5
168
100
AcDbEntity
  8
SEMA2D
100
AcDbLine
370
9
 62
0
 48
0
  6
_SOLID
 10
1.195002587
 20
2.1757009488
 30
0
 11
1.1947217109
 21
2.1735009019
 31
0
  0
LINE
  5
169
100
AcDbEntity
  8
SEMA2D
100
AcDbLine
370
9
 62
0
 48
0
  6
_SOLID
 10
1.1947217109
 20
2.1735009019
 30
0
 11
1.1940434877
 21
2.1707441125
 31
0
  0
LINE
  5
16A
100
AcDbEntity
  8
SEMA2D
100
AcDbLine
370
9
 62
0
 48
0
  6
_SOLID
 10
1.1940434877
 20
2.1707441125
 30
0
 11
1.1866282422
 21
2.1651141699
 31
0
  0
LINE
  5
16B
100
AcDbEntity
  8
SEMA2D
100
AcDbLine
370
9
 62
0
 48
0
  6
_SOLID
 10
1.1866282422
 20
2.1651141699
 30
0
 11
1.1784605826
 21
2.1568636624
 31
0
  0
LINE
  5
16C
100
AcDbEntity
  8
SEMA2D
100
AcDbLine
370
9
 62
0
 48
0
  6
_SOLID
 10
1.1784605826
 20
2.1568636624
 30
0
 11
1.1770288333
 21
2.1453427408
 31
0
  0
LINE
  5
16D
100
AcDbEntity
  8
SEMA2D
100
AcDbLine
370
9
 62
0
 48
0
  6
_SOLID
 10
1.1770288333
 20
2.1453427408
 30
0
 11
1.1829285913
 21
2.1353440211
 31
0
  0
LINE
  5
16E
100
AcDbEntity
  8
SEMA2D
100
AcDbLine
370
9
 62
0
 48
0
  6
_SOLID
 10
1.1829285913
 20
2.1353440211
 30
0
 11
1.1931157195
 21
2.1310677096
 31
0
  0
LINE
  5
16F
100
AcDbEntity
  8
SEMA2D
100
AcDbLine
370
9
 62
0
 48
0
  6
_SOLID
 10
1.1931157195
 20
2.1310677096
 30
0
 11
1.1931760822
 21
2.1310268947
 31
0
  0
LINE
  5
170
100
AcDbEntity
  8
SEMA2D
100
AcDbLine
370
9
 62
0
 48
0
  6
_SOLID
 10
1.1931760822
 20
2.1310268947
 30
0
 11
1.1937056021
 21
2.1310268947
 31
0
  0
LINE
  5
171
100
AcDbEntity
  8
SEMA2D
100
AcDbLine
370
9
 62
0
 48
0
  6
_SOLID
 10
1.1937056021
 20
2.1310268947
 30
0
 11
1.1943784468
 21
2.1307165279
 31
0
  0
LINE
  5
172
100
AcDbEntity
  8
SEMA2D
100
AcDbLine
370
9
 62
0
 48
0
  6
_SOLID
 10
1.1943784468
 20
2.1307165279
 30
0
 11
1.1946529705
 21
2.1300282807
 31
0
  0
LINE
  5
173
100
AcDbEntity
  8
SEMA2D
100
AcDbLine
370
9
 62
0
 48
0
  6
_SOLID
 10
1.1946529705
 20
2.1300282807
 30
0
 11
1.1946529705
 21
2.1290019467
 31
0
  0
LINE
  5
174
100
AcDbEntity
  8
SEMA2D
100
AcDbLine
370
9
 62
0
 48
0
  6
_SOLID
 10
1.1946529705
 20
2.1290019467
 30
0
 11
1.1986529705
 21
2.1290019467
 31
0
  0
LINE
  5
175
100
AcDbEntity
  8
SEMA2D
100
AcDbLine
370
9
 62
0
 48
0
  6
_SOLID
 10
1.1986529705
 20
2.1290019467
 30
0
 11
1.1986529705
 21
2.1300019467
 31
0
  0
LINE
  5
176
100
AcDbEntity
  8
SEMA2D
100
AcDbLine
370
9
 62
0
 48
0
  6
_SOLID
 10
1.1986529705
 20
2.1300019467
 30
0
 11
1.1987869451
 21
2.1305019467
 31
0
  0
LINE
  5
177
100
AcDbEntity
  8
SEMA2D
100
AcDbLine
370
9
 62
0
 48
0
  6
_SOLID
 10
1.1987869451
 20
2.1305019467
 30
0
 11
1.1991529705
 21
2.1308679721
 31
0
  0
LINE
  5
178
100
AcDbEntity
  8
SEMA2D
100
AcDbLine
370
9
 62
0
 48
0
  6
_SOLID
 10
1.1991529705
 20
2.1308679721
 30
0
 11
1.1996529705
 21
2.1310019467
 31
0
  0
LINE
  5
179
100
AcDbEntity
  8
SEMA2D
100
AcDbLine
370
9
 62
0
 48
0
  6
_SOLID
 10
1.1996529705
 20
2.1310019467
 30
0
 11
1.2001529705
 21
2.1310019467
 31
0
  0
LINE
  5
17A
100
AcDbEntity
  8
SEMA2D
100
AcDbLine
370
9
 62
0
 48
0
  6
_SOLID
 10
1.2001529705
 20
2.1310019467
 30
0
 11
1.2009029705
 21
2.1312029086
 31
0
  0
LINE
  5
17B
100
AcDbEntity
  8
SEMA2D
100
AcDbLine
370
9
 62
0
 48
0
  6
_SOLID
 10
1.2009029705
 20
2.1312029086
 30
0
 11
1.2014520086
 21
2.1317519467
 31
0
  0
LINE
  5
17C
100
AcDbEntity
  8
SEMA2D
100
AcDbLine
370
9
 62
0
 48
0
  6
_SOLID
 10
1.2014520086
 20
2.1317519467
 30
0
 11
1.2016529705
 21
2.1325019467
 31
0
  0
LINE
  5
17D
100
AcDbEntity
  8
SEMA2D
100
AcDbLine
370
9
 62
0
 48
0
  6
_SOLID
 10
1.2016529705
 20
2.1325019467
 30
0
 11
1.2016529705
 21
2.1371189054
 31
0
  0
LINE
  5
17E
100
AcDbEntity
  8
SEMA2D
100
AcDbLine
370
9
 62
0
 48
0
  6
_SOLID
 10
1.2016529705
 20
2.1371189054
 30
0
 11
1.2013430005
 21
2.1380320475
 31
0
  0
LINE
  5
17F
100
AcDbEntity
  8
SEMA2D
100
AcDbLine
370
9
 62
0
 48
0
  6
_SOLID
 10
1.2013430005
 20
2.1380320475
 30
0
 11
1.2005411991
 21
2.1385677941
 31
0
  0
LINE
  5
180
100
AcDbEntity
  8
SEMA2D
100
AcDbLine
370
9
 62
0
 48
0
  6
_SOLID
 10
1.2005411991
 20
2.1385677941
 30
0
 11
1.19806478
 21
2.1392313486
 31
0
  0
LINE
  5
181
100
AcDbEntity
  8
SEMA2D
100
AcDbLine
370
9
 62
0
 48
0
  6
_SOLID
 10
1.19806478
 20
2.1392313486
 30
0
 11
1.1927194371
 21
2.1428029926
 31
0
  0
LINE
  5
182
100
AcDbEntity
  8
SEMA2D
100
AcDbLine
370
9
 62
0
 48
0
  6
_SOLID
 10
1.1927194371
 20
2.1428029926
 30
0
 11
1.1906529705
 21
2.1488906069
 31
0
  0
LINE
  5
183
100
AcDbEntity
  8
SEMA2D
100
AcDbLine
370
9
 62
0
 48
0
  6
_SOLID
 10
1.1906529705
 20
2.1488906069
 30
0
 11
1.1906529705
 21
2.1510019467
 31
0
  0
LINE
  5
184
100
AcDbEntity
  8
SEMA2D
100
AcDbLine
370
9
 62
0
 48
0
  6
_SOLID
 10
1.1906529705
 20
2.1510019467
 30
0
 11
1.1923678737
 21
2.1566016941
 31
0
  0
LINE
  5
185
100
AcDbEntity
  8
SEMA2D
100
AcDbLine
370
9
 62
0
 48
0
  6
_SOLID
 10
1.1923678737
 20
2.1566016941
 30
0
 11
1.1969244047
 21
2.1602808366
 31
0
  0
LINE
  5
186
100
AcDbEntity
  8
SEMA2D
100
AcDbLine
370
9
 62
0
 48
0
  6
_SOLID
 10
1.1969244047
 20
2.1602808366
 30
0
 11
1.2137800995
 21
2.1667856626
 31
0
  0
LINE
  5
187
100
AcDbEntity
  8
SEMA2D
100
AcDbLine
370
9
 62
0
 48
0
  6
_SOLID
 10
1.2137800995
 20
2.1667856626
 30
0
 11
1.2151738935
 21
2.1678874688
 31
0
  0
LINE
  5
188
100
AcDbEntity
  8
SEMA2D
100
AcDbLine
370
9
 62
0
 48
0
  6
_SOLID
 10
1.2151738935
 20
2.1678874688
 30
0
 11
1.2157
 21
2.1695844811
 31
0
  0
LINE
  5
189
100
AcDbEntity
  8
SEMA2D
100
AcDbLine
370
9
 62
0
 48
0
  6
_SOLID
 10
1.2157
 20
2.1695844811
 30
0
 11
1.2157
 21
2.1727032547
 31
0
  0
LINE
  5
18A
100
AcDbEntity
  8
SEMA2D
100
AcDbLine
370
9
 62
0
 48
0
  6
_SOLID
 10
1.2157
 20
2.1727032547
 30
0
 11
1.2163369635
 21
2.174551513
 31
0
  0
LINE
  5
18B
100
AcDbEntity
  8
SEMA2D
100
AcDbLine
370
9
 62
0
 48
0
  6
_SOLID
 10
1.2163369635
 20
2.174551513
 30
0
 11
1.2179773724
 21
2.1756149225
 31
0
  0
LINE
  5
18C
100
AcDbEntity
  8
SEMA2D
100
AcDbLine
370
9
 62
0
 48
0
  6
_SOLID
 10
1.2179773724
 20
2.1756149225
 30
0
 11
1.2501706914
 21
2.1836044153
 31
0
  0
LINE
  5
18D
100
AcDbEntity
  8
SEMA2D
100
AcDbLine
370
9
 62
0
 48
0
  6
_SOLID
 10
1.2501706914
 20
2.1836044153
 30
0
 11
1.2512396772
 21
2.1843190777
 31
0
  0
LINE
  5
18E
100
AcDbEntity
  8
SEMA2D
100
AcDbLine
370
9
 62
0
 48
0
  6
_SOLID
 10
1.2512396772
 20
2.1843190777
 30
0
 11
1.2516529705
 21
2.1855366006
 31
0
  0
LINE
  5
18F
100
AcDbEntity
  8
SEMA2D
100
AcDbLine
370
9
 62
0
 48
0
  6
_SOLID
 10
1.2516529705
 20
2.1855366006
 30
0
 11
1.2516529705
 21
2.1904672927
 31
0
  0
LINE
  5
190
100
AcDbEntity
  8
SEMA2D
100
AcDbLine
370
9
 62
0
 48
0
  6
_SOLID
 10
1.2516529705
 20
2.1904672927
 30
0
 11
1.2512396772
 21
2.1916848156
 31
0
  0
LINE
  5
191
100
AcDbEntity
  8
SEMA2D
100
AcDbLine
370
9
 62
0
 48
0
  6
_SOLID
 10
1.2512396772
 20
2.1916848156
 30
0
 11
1.2501706086
 21
2.1923991444
 31
0
  0
LINE
  5
192
100
AcDbEntity
  8
SEMA2D
100
AcDbLine
370
9
 62
0
 48
0
  6
_SOLID
 10
1.2501706086
 20
2.1923991444
 30
0
 11
1.2189371998
 21
2.2000727412
 31
0
  0
LINE
  5
193
100
AcDbEntity
  8
SEMA2D
100
AcDbLine
370
9
 62
0
 48
0
  6
_SOLID
 10
1.2189371998
 20
2.2000727412
 30
0
 11
1.2172921113
 21
2.2011350636
 31
0
  0
LINE
  5
194
100
AcDbEntity
  8
SEMA2D
100
AcDbLine
370
9
 62
0
 48
0
  6
_SOLID
 10
1.2172921113
 20
2.2011350636
 30
0
 11
1.2166529705
 21
2.2029861022
 31
0
  0
LINE
  5
195
100
AcDbEntity
  8
SEMA2D
100
AcDbLine
370
9
 62
0
 48
0
  6
_SOLID
 10
1.2166529705
 20
2.2029861022
 30
0
 11
1.2166529705
 21
2.2334807346
 31
0
  0
LINE
  5
196
100
AcDbEntity
  8
SEMA2D
100
AcDbLine
370
9
 62
0
 48
0
  6
_SOLID
 10
1.2166529705
 20
2.2334807346
 30
0
 11
1.2056529705
 21
2.2340746739
 31
0
  0
LINE
  5
197
100
AcDbEntity
  8
SEMA2D
100
AcDbLine
370
9
 62
0
 48
0
  6
_SOLID
 10
1.2056529705
 20
2.2340746739
 30
0
 11
1.2056529705
 21
2.2399292194
 31
0
  0
LINE
  5
198
100
AcDbEntity
  8
SEMA2D
100
AcDbLine
370
9
 62
0
 48
0
  6
_SOLID
 10
1.2056529705
 20
2.2399292194
 30
0
 11
1.2166529705
 21
2.2405231588
 31
0
  0
LINE
  5
199
100
AcDbEntity
  8
SEMA2D
100
AcDbLine
370
9
 62
0
 48
0
  6
_SOLID
 10
1.2166529705
 20
2.2405231588
 30
0
 11
1.2166529705
 21
2.2826699365
 31
0
  0
LINE
  5
19A
100
AcDbEntity
  8
SEMA2D
100
AcDbLine
370
9
 62
0
 48
0
  6
_SOLID
 10
1.2166529705
 20
2.2826699365
 30
0
 11
1.2172824528
 21
2.2845085898
 31
0
  0
LINE
  5
19B
100
AcDbEntity
  8
SEMA2D
100
AcDbLine
370
9
 62
0
 48
0
  6
_SOLID
 10
1.2172824528
 20
2.2845085898
 30
0
 11
1.2189067345
 21
2.2855756433
 31
0
  0
LINE
  5
19C
100
AcDbEntity
  8
SEMA2D
100
AcDbLine
370
9
 62
0
 48
0
  6
_SOLID
 10
1.2189067345
 20
2.2855756433
 30
0
 11
1.2501706086
 21
2.2936047489
 31
0
  0
LINE
  5
19D
100
AcDbEntity
  8
SEMA2D
100
AcDbLine
370
9
 62
0
 48
0
  6
_SOLID
 10
1.2501706086
 20
2.2936047489
 30
0
 11
1.2512396772
 21
2.2943190777
 31
0
  0
LINE
  5
19E
100
AcDbEntity
  8
SEMA2D
100
AcDbLine
370
9
 62
0
 48
0
  6
_SOLID
 10
1.2512396772
 20
2.2943190777
 30
0
 11
1.2516529705
 21
2.2955366006
 31
0
  0
LINE
  5
19F
100
AcDbEntity
  8
SEMA2D
100
AcDbLine
370
9
 62
0
 48
0
  6
_SOLID
 10
1.2516529705
 20
2.2955366006
 30
0
 11
1.2516529705
 21
2.3004672927
 31
0
  0
LINE
  5
1A0
100
AcDbEntity
  8
SEMA2D
100
AcDbLine
370
9
 62
0
 48
0
  6
_SOLID
 10
1.2516529705
 20
2.3004672927
 30
0
 11
1.2512396772
 21
2.3016848156
 31
0
  0
LINE
  5
1A1
100
AcDbEntity
  8
SEMA2D
100
AcDbLine
370
9
 62
0
 48
0
  6
_SOLID
 10
1.2512396772
 20
2.3016848156
 30
0
 11
1.2501706086
 21
2.3023991444
 31
0
  0
LINE
  5
1A2
100
AcDbEntity
  8
SEMA2D
100
AcDbLine
370
9
 62
0
 48
0
  6
_SOLID
 10
1.2501706086
 20
2.3023991444
 30
0
 11
1.2189067345
 21
2.31042825
 31
0
  0
LINE
  5
1A3
100
AcDbEntity
  8
SEMA2D
100
AcDbLine
370
9
 62
0
 48
0
  6
_SOLID
 10
1.2189067345
 20
2.31042825
 30
0
 11
1.2172824528
 21
2.3114953035
 31
0
  0
LINE
  5
1A4
100
AcDbEntity
  8
SEMA2D
100
AcDbLine
370
9
 62
0
 48
0
  6
_SOLID
 10
1.2172824528
 20
2.3114953035
 30
0
 11
1.2166529705
 21
2.3133339568
 31
0
  0
LINE
  5
1A5
100
AcDbEntity
  8
SEMA2D
100
AcDbLine
370
9
 62
0
 48
0
  6
_SOLID
 10
1.2166529705
 20
2.3133339568
 30
0
 11
1.2166529705
 21
2.3966243569
 31
0
  0
LINE
  5
1A6
100
AcDbEntity
  8
SEMA2D
100
AcDbLine
370
9
 62
0
 48
0
  6
_SOLID
 10
1.2166529705
 20
2.3966243569
 30
0
 11
1.2172541774
 21
2.3984259649
 31
0
  0
LINE
  5
1A7
100
AcDbEntity
  8
SEMA2D
100
AcDbLine
370
9
 62
0
 48
0
  6
_SOLID
 10
1.2172541774
 20
2.3984259649
 30
0
 11
1.2188168315
 21
2.3995054802
 31
0
  0
LINE
  5
1A8
100
AcDbEntity
  8
SEMA2D
100
AcDbLine
370
9
 62
0
 48
0
  6
_SOLID
 10
1.2188168315
 20
2.3995054802
 30
0
 11
1.2501706086
 21
2.4086047489
 31
0
  0
LINE
  5
1A9
100
AcDbEntity
  8
SEMA2D
100
AcDbLine
370
9
 62
0
 48
0
  6
_SOLID
 10
1.2501706086
 20
2.4086047489
 30
0
 11
1.2512396772
 21
2.4093190777
 31
0
  0
LINE
  5
1AA
100
AcDbEntity
  8
SEMA2D
100
AcDbLine
370
9
 62
0
 48
0
  6
_SOLID
 10
1.2512396772
 20
2.4093190777
 30
0
 11
1.2516529705
 21
2.4105366006
 31
0
  0
LINE
  5
1AB
100
AcDbEntity
  8
SEMA2D
100
AcDbLine
370
9
 62
0
 48
0
  6
_SOLID
 10
1.2516529705
 20
2.4105366006
 30
0
 11
1.2516529705
 21
2.4154672927
 31
0
  0
LINE
  5
1AC
100
AcDbEntity
  8
SEMA2D
100
AcDbLine
370
9
 62
0
 48
0
  6
_SOLID
 10
1.2516529705
 20
2.4154672927
 30
0
 11
1.2512396772
 21
2.4166848156
 31
0
  0
LINE
  5
1AD
100
AcDbEntity
  8
SEMA2D
100
AcDbLine
370
9
 62
0
 48
0
  6
_SOLID
 10
1.2512396772
 20
2.4166848156
 30
0
 11
1.2501706086
 21
2.4173991444
 31
0
  0
LINE
  5
1AE
100
AcDbEntity
  8
SEMA2D
100
AcDbLine
370
9
 62
0
 48
0
  6
_SOLID
 10
1.2501706086
 20
2.4173991444
 30
0
 11
1.250219294
 21
2.4173356963
 31
0
  0
LINE
  5
1AF
100
AcDbEntity
  8
SEMA2D
100
AcDbLine
370
9
 62
0
 48
0
  6
_SOLID
 10
1.250219294
 20
2.4173356963
 30
0
 11
1.2208050619
 21
2.4260517002
 31
0
  0
LINE
  5
1B0
100
AcDbEntity
  8
SEMA2D
100
AcDbLine
370
9
 62
0
 48
0
  6
_SOLID
 10
1.2208050619
 20
2.4260517002
 30
0
 11
1.2192505003
 21
2.42713268
 31
0
  0
LINE
  5
1B1
100
AcDbEntity
  8
SEMA2D
100
AcDbLine
370
9
 62
0
 48
0
  6
_SOLID
 10
1.2192505003
 20
2.42713268
 30
0
 11
1.2186529705
 21
2.4289293817
 31
0
  0
LINE
  5
1B2
100
AcDbEntity
  8
SEMA2D
100
AcDbLine
370
9
 62
0
 48
0
  6
_SOLID
 10
1.2186529705
 20
2.4289293817
 30
0
 11
1.2186529705
 21
2.4838576423
 31
0
  0
LINE
  5
1B3
100
AcDbEntity
  8
SEMA2D
100
AcDbLine
370
9
 62
0
 48
0
  6
_SOLID
 10
1.2186529705
 20
2.4838576423
 30
0
 11
1.2192729105
 21
2.4856839266
 31
0
  0
LINE
  5
1B4
100
AcDbEntity
  8
SEMA2D
100
AcDbLine
370
9
 62
0
 48
0
  6
_SOLID
 10
1.2192729105
 20
2.4856839266
 30
0
 11
1.2208765134
 21
2.4867554198
 31
0
  0
LINE
  5
1B5
100
AcDbEntity
  8
SEMA2D
100
AcDbLine
370
9
 62
0
 48
0
  6
_SOLID
 10
1.2208765134
 20
2.4867554198
 30
0
 11
1.2505411991
 21
2.4947040485
 31
0
  0
LINE
  5
1B6
100
AcDbEntity
  8
SEMA2D
100
AcDbLine
370
9
 62
0
 48
0
  6
_SOLID
 10
1.2505411991
 20
2.4947040485
 30
0
 11
1.2513430005
 21
2.4952397951
 31
0
  0
LINE
  5
1B7
100
AcDbEntity
  8
SEMA2D
100
AcDbLine
370
9
 62
0
 48
0
  6
_SOLID
 10
1.2513430005
 20
2.4952397951
 30
0
 11
1.2516529705
 21
2.4961529372
 31
0
  0
LINE
  5
1B8
100
AcDbEntity
  8
SEMA2D
100
AcDbLine
370
9
 62
0
 48
0
  6
_SOLID
 10
1.2516529705
 20
2.4961529372
 30
0
 11
1.2516529705
 21
2.4999377252
 31
0
  0
LINE
  5
1B9
100
AcDbEntity
  8
SEMA2D
100
AcDbLine
370
9
 62
0
 48
0
  6
_SOLID
 10
1.2516529705
 20
2.4999377252
 30
0
 11
1.2513763446
 21
2.5008056859
 31
0
  0
LINE
  5
1BA
100
AcDbEntity
  8
SEMA2D
100
AcDbLine
370
9
 62
0
 48
0
  6
_SOLID
 10
1.2513763446
 20
2.5008056859
 30
0
 11
1.2506484961
 21
2.5013535127
 31
0
  0
LINE
  5
1BB
100
AcDbEntity
  8
SEMA2D
100
AcDbLine
370
9
 62
0
 48
0
  6
_SOLID
 10
1.2506484961
 20
2.5013535127
 30
0
 11
1.2507363743
 21
2.5012296501
 31
0
  0
LINE
  5
1BC
100
AcDbEntity
  8
SEMA2D
100
AcDbLine
370
9
 62
0
 48
0
  6
_SOLID
 10
1.2507363743
 20
2.5012296501
 30
0
 11
1.2371520143
 21
2.5070019467
 31
0
  0
LINE
  5
1BD
100
AcDbEntity
  8
SEMA2D
100
AcDbLine
370
9
 62
0
 48
0
  6
_SOLID
 10
1.2371520143
 20
2.5070019467
 30
0
 11
1.2153226201
 21
2.5070019467
 31
0
  0
LINE
  5
1BE
100
AcDbEntity
  8
SEMA2D
100
AcDbLine
370
9
 62
0
 48
0
  6
_SOLID
 10
1.2153226201
 20
2.5070019467
 30
0
 11
1.2148373878
 21
2.5073671646
 31
0
  0
LINE
  5
1BF
100
AcDbEntity
  8
SEMA2D
100
AcDbLine
370
9
 62
0
 48
0
  6
_SOLID
 10
1.2148373878
 20
2.5073671646
 30
0
 11
1.2146529705
 21
2.5079458051
 31
0
  0
LINE
  5
1C0
100
AcDbEntity
  8
SEMA2D
100
AcDbLine
370
9
 62
0
 48
0
  6
_SOLID
 10
1.2146529705
 20
2.5079458051
 30
0
 11
1.2146529705
 21
2.5090019467
 31
0
  0
LINE
  5
1C1
100
AcDbEntity
  8
SEMA2D
100
AcDbLine
370
9
 62
0
 48
0
  6
_SOLID
 10
1.2146529705
 20
2.5090019467
 30
0
 11
1.2106529705
 21
2.5090019467
 31
0
  0
LINE
  5
1C2
100
AcDbEntity
  8
SEMA2D
100
AcDbLine
370
9
 62
0
 48
0
  6
_SOLID
 10
1.2106529705
 20
2.5090019467
 30
0
 11
1.2106529705
 21
2.5080019467
 31
0
  0
LINE
  5
1C3
100
AcDbEntity
  8
SEMA2D
100
AcDbLine
370
9
 62
0
 48
0
  6
_SOLID
 10
1.2106529705
 20
2.5080019467
 30
0
 11
1.2105189959
 21
2.5075019467
 31
0
  0
LINE
  5
1C4
100
AcDbEntity
  8
SEMA2D
100
AcDbLine
370
9
 62
0
 48
0
  6
_SOLID
 10
1.2105189959
 20
2.5075019467
 30
0
 11
1.2101529705
 21
2.5071359213
 31
0
  0
LINE
  5
1C5
100
AcDbEntity
  8
SEMA2D
100
AcDbLine
370
9
 62
0
 48
0
  6
_SOLID
 10
1.2101529705
 20
2.5071359213
 30
0
 11
1.2096529705
 21
2.5070019467
 31
0
  0
LINE
  5
1C6
100
AcDbEntity
  8
SEMA2D
100
AcDbLine
370
9
 62
0
 48
0
  6
_SOLID
 10
1.2096529705
 20
2.5070019467
 30
0
 11
1.2011529705
 21
2.5070019467
 31
0
  0
LINE
  5
1C7
100
AcDbEntity
  8
SEMA2D
100
AcDbLine
370
9
 62
0
 48
0
  6
_SOLID
 10
1.2011529705
 20
2.5070019467
 30
0
 11
1.2004029705
 21
2.5068009848
 31
0
  0
LINE
  5
1C8
100
AcDbEntity
  8
SEMA2D
100
AcDbLine
370
9
 62
0
 48
0
  6
_SOLID
 10
1.2004029705
 20
2.5068009848
 30
0
 11
1.1998539324
 21
2.5062519467
 31
0
  0
LINE
  5
1C9
100
AcDbEntity
  8
SEMA2D
100
AcDbLine
370
9
 62
0
 48
0
  6
_SOLID
 10
1.1998539324
 20
2.5062519467
 30
0
 11
1.1996529705
 21
2.5055019467
 31
0
  0
LINE
  5
1CA
100
AcDbEntity
  8
SEMA2D
100
AcDbLine
370
9
 62
0
 48
0
  6
_SOLID
 10
1.2020671841
 20
2.2450161602
 30
0
 11
1.2020671841
 21
2.2464303738
 31
0
  0
LINE
  5
1CB
100
AcDbEntity
  8
SEMA2D
100
AcDbLine
370
9
 62
0
 48
0
  6
_SOLID
 10
1.2020671841
 20
2.2464303738
 30
0
 11
1.2026529705
 21
2.2464303738
 31
0
  0
LINE
  5
1CC
100
AcDbEntity
  8
SEMA2D
100
AcDbLine
370
9
 62
0
 48
0
  6
_SOLID
 10
1.2026529705
 20
2.2464303738
 30
0
 11
1.2020671841
 21
2.2450161602
 31
0
  0
LINE
  5
1CD
100
AcDbEntity
  8
SEMA2D
100
AcDbLine
370
9
 62
0
 48
0
  6
_SOLID
 10
1.2020671841
 20
2.2450161602
 30
0
 11
1.2020671841
 21
2.2464303738
 31
0
  0
LINE
  5
1CE
100
AcDbEntity
  8
SEMA2D
100
AcDbLine
370
9
 62
0
 48
0
  6
_SOLID
 10
1.2020671841
 20
2.2464303738
 30
0
 11
1.2026529705
 21
2.2464303738
 31
0
  0
LINE
  5
1CF
100
AcDbEntity
  8
SEMA2D
100
AcDbLine
370
9
 62
0
 48
0
  6
_SOLID
 10
1.2026529705
 20
2.2464303738
 30
0
 11
1.2020671841
 21
2.2450161602
 31
0
  0
LINE
  5
1D0
100
AcDbEntity
  8
SEMA2D
100
AcDbLine
370
9
 62
0
 48
0
  6
_SOLID
 10
1.2020671841
 20
2.2450161602
 30
0
 11
1.2020671841
 21
2.2464303738
 31
0
  0
LINE
  5
1D1
100
AcDbEntity
  8
SEMA2D
100
AcDbLine
370
9
 62
0
 48
0
  6
_SOLID
 10
1.2020671841
 20
2.2464303738
 30
0
 11
1.2026529705
 21
2.2464303738
 31
0
  0
LINE
  5
1D2
100
AcDbEntity
  8
SEMA2D
100
AcDbLine
370
9
 62
0
 48
0
  6
_SOLID
 10
1.2026529705
 20
2.2464303738
 30
0
 11
1.2020671841
 21
2.2450161602
 31
0
  0
LINE
  5
1D3
100
AcDbEntity
  8
SEMA2D
100
AcDbLine
370
9
 62
0
 48
0
  6
_SOLID
 10
1.5325291189
 20
2.5090019467
 30
0
 11
1.7525291189
 21
2.5090019467
 31
0
  0
LINE
  5
1D4
100
AcDbEntity
  8
SEMA2D
100
AcDbLine
370
9
 62
0
 48
0
  6
_SOLID
 10
1.5255844602
 20
2.1290019467
 30
0
 11
1.7595291189
 21
2.1290019467
 31
0
  0
LINE
  5
1D5
100
AcDbEntity
  8
SEMA2D
100
AcDbLine
370
9
 62
0
 48
0
  6
_SOLID
 10
1.5325291189
 20
2.1880019467
 30
0
 11
1.5325291189
 21
2.4549705649
 31
0
  0
LINE
  5
1D6
100
AcDbEntity
  8
SEMA2D
100
AcDbLine
370
9
 62
0
 48
0
  6
_SOLID
 10
1.5345291189
 20
2.1880019467
 30
0
 11
1.5345291189
 21
2.4564705649
 31
0
  0
LINE
  5
1D7
100
AcDbEntity
  8
SEMA2D
100
AcDbLine
370
9
 62
0
 48
0
  6
_SOLID
 10
1.6680618096
 20
2.1850019467
 30
0
 11
1.7585291189
 21
2.1850019467
 31
0
  0
LINE
  5
1D8
100
AcDbEntity
  8
SEMA2D
100
AcDbLine
370
9
 62
0
 48
0
  6
_SOLID
 10
1.6233255247
 20
2.1850019467
 30
0
 11
1.6613906093
 21
2.1850019467
 31
0
  0
LINE
  5
1D9
100
AcDbEntity
  8
SEMA2D
100
AcDbLine
370
9
 62
0
 48
0
  6
_SOLID
 10
1.5265291189
 20
2.1850019467
 30
0
 11
1.6166543244
 21
2.1850019467
 31
0
  0
LINE
  5
1DA
100
AcDbEntity
  8
SEMA2D
100
AcDbLine
370
9
 62
0
 48
0
  6
_SOLID
 10
1.5250844602
 20
2.1310019467
 30
0
 11
1.7595291189
 21
2.1310019467
 31
0
  0
LINE
  5
1DB
100
AcDbEntity
  8
SEMA2D
100
AcDbLine
370
9
 62
0
 48
0
  6
_SOLID
 10
1.5255291189
 20
2.1290019467
 30
0
 11
1.5255291189
 21
2.1310019467
 31
0
  0
ARC
  5
1DC
100
AcDbEntity
  8
SEMA2D
100
AcDbCircle
370
9
 62
0
 48
0
  6
_SOLID
 10
1.5250291189
 20
2.1490019467
 30
0
 40
0.018
100
AcDbArc
 50
125.616142705745
 51
271.591140268808
  0
LINE
  5
1DD
100
AcDbEntity
  8
SEMA2D
100
AcDbLine
370
9
 62
0
 48
0
  6
_SOLID
 10
1.5245291189
 20
2.1810975434
 30
0
 11
1.5245291189
 21
2.1830019467
 31
0
  0
LINE
  5
1DE
100
AcDbEntity
  8
SEMA2D
100
AcDbLine
370
9
 62
0
 48
0
  6
_SOLID
 10
1.5225291189
 20
2.1810975434
 30
0
 11
1.5225291189
 21
2.1830019467
 31
0
  0
LINE
  5
1DF
100
AcDbEntity
  8
SEMA2D
100
AcDbLine
370
9
 62
0
 48
0
  6
_SOLID
 10
1.5265291189
 20
2.1870019467
 30
0
 11
1.5315291189
 21
2.1870019467
 31
0
  0
ARC
  5
1E0
100
AcDbEntity
  8
SEMA2D
100
AcDbCircle
370
9
 62
0
 48
0
  6
_SOLID
 10
1.5015585641
 20
2.1832365725
 30
0
 40
0.0235143147
100
AcDbArc
 50
303.528635489329
 51
329.269967572766
  0
LINE
  5
1E1
100
AcDbEntity
  8
SEMA2D
100
AcDbLine
370
9
 62
0
 48
0
  6
_SOLID
 10
1.6711854384
 20
2.1800019467
 30
0
 11
1.7606506286
 21
2.1800019467
 31
0
  0
LINE
  5
1E2
100
AcDbEntity
  8
SEMA2D
100
AcDbLine
370
9
 62
0
 48
0
  6
_SOLID
 10
1.6199358377
 20
2.1800019467
 30
0
 11
1.6651399091
 21
2.1800019467
 31
0
  0
LINE
  5
1E3
100
AcDbEntity
  8
SEMA2D
100
AcDbLine
370
9
 62
0
 48
0
  6
_SOLID
 10
1.5244076092
 20
2.1800019467
 30
0
 11
1.6134781132
 21
2.1800019467
 31
0
  0
ARC
  5
1E4
100
AcDbEntity
  8
SEMA2D
100
AcDbCircle
370
9
 62
0
 48
0
  6
_SOLID
 10
1.4722672396
 20
2.2034434184
 30
0
 40
0.057278326
100
AcDbArc
 50
331.030433924326
 51
334.694761323495
  0
ARC
  5
1E5
100
AcDbEntity
  8
SEMA2D
100
AcDbCircle
370
9
 62
0
 48
0
  6
_SOLID
 10
1.519192352
 20
2.1727538899
 30
0
 40
0.003
100
AcDbArc
 50
329.269967572765
 51
14.4185823520516
  0
ARC
  5
1E6
100
AcDbEntity
  8
SEMA2D
100
AcDbCircle
370
9
 62
0
 48
0
  6
_SOLID
 10
1.5250033667
 20
2.1742479139
 30
0
 40
0.003
100
AcDbArc
 50
151.030433924329
 51
194.418582352052
  0
ARC
  5
1E7
100
AcDbEntity
  8
SEMA2D
100
AcDbCircle
370
9
 62
0
 48
0
  6
_SOLID
 10
1.5195291189
 20
2.1810975434
 30
0
 40
0.005
100
AcDbArc
 50
334.694761323494
 51
0
  0
LINE
  5
1E8
100
AcDbEntity
  8
SEMA2D
100
AcDbLine
370
9
 62
0
 48
0
  6
_SOLID
 10
1.6225291189
 20
2.1875019467
 30
0
 11
1.6225291189
 21
2.4564705649
 31
0
  0
LINE
  5
1E9
100
AcDbEntity
  8
SEMA2D
100
AcDbLine
370
9
 62
0
 48
0
  6
_SOLID
 10
1.6659439926
 20
2.4589705649
 30
0
 11
1.7520291189
 21
2.4589705649
 31
0
  0
LINE
  5
1EA
100
AcDbEntity
  8
SEMA2D
100
AcDbLine
370
9
 62
0
 48
0
  6
_SOLID
 10
1.622800897
 20
2.4589705649
 30
0
 11
1.6625090327
 21
2.4589705649
 31
0
  0
LINE
  5
1EB
100
AcDbEntity
  8
SEMA2D
100
AcDbLine
370
9
 62
0
 48
0
  6
_SOLID
 10
1.5330291189
 20
2.4589705649
 30
0
 11
1.618953742
 21
2.4589705649
 31
0
  0
LINE
  5
1EC
100
AcDbEntity
  8
SEMA2D
100
AcDbLine
370
9
 62
0
 48
0
  6
_SOLID
 10
1.5310291189
 20
2.5015019467
 30
0
 11
1.5310291189
 21
2.5055019467
 31
0
  0
LINE
  5
1ED
100
AcDbEntity
  8
SEMA2D
100
AcDbLine
370
9
 62
0
 48
0
  6
_SOLID
 10
1.5325291189
 20
2.5070019467
 30
0
 11
1.7525291189
 21
2.5070019467
 31
0
  0
LINE
  5
1EE
100
AcDbEntity
  8
SEMA2D
100
AcDbLine
370
9
 62
0
 48
0
  6
_SOLID
 10
1.6655317974
 20
2.5000019467
 30
0
 11
1.7526380794
 21
2.5000019467
 31
0
  0
LINE
  5
1EF
100
AcDbEntity
  8
SEMA2D
100
AcDbLine
370
9
 62
0
 48
0
  6
_SOLID
 10
1.6225291189
 20
2.5000019467
 30
0
 11
1.6625291189
 21
2.5000019467
 31
0
  0
LINE
  5
1F0
100
AcDbEntity
  8
SEMA2D
100
AcDbLine
370
9
 62
0
 48
0
  6
_SOLID
 10
1.5325291189
 20
2.5000019467
 30
0
 11
1.6199155308
 21
2.5000019467
 31
0
  0
LINE
  5
1F1
100
AcDbEntity
  8
SEMA2D
100
AcDbLine
370
9
 62
0
 48
0
  6
_SOLID
 10
1.5400291189
 20
2.4832725459
 30
0
 11
1.5400291189
 21
2.4969985057
 31
0
  0
LINE
  5
1F2
100
AcDbEntity
  8
SEMA2D
100
AcDbLine
370
9
 62
0
 48
0
  6
_SOLID
 10
1.5383074651
 20
2.4989790418
 30
0
 11
1.5323736802
 21
2.5000100221
 31
0
  0
LINE
  5
1F3
100
AcDbEntity
  8
SEMA2D
100
AcDbLine
370
9
 62
0
 48
0
  6
_SOLID
 10
1.537805576
 20
2.4803747684
 30
0
 11
1.5340879761
 21
2.4793786405
 31
0
  0
ARC
  5
1F4
100
AcDbEntity
  8
SEMA2D
100
AcDbCircle
370
9
 62
0
 48
0
  6
_SOLID
 10
1.5360291189
 20
2.4721341968
 30
0
 40
0.0075
100
AcDbArc
 50
104.999999999699
 51
230.833289281799
  0
LINE
  5
1F5
100
AcDbEntity
  8
SEMA2D
100
AcDbLine
370
9
 62
0
 48
0
  6
_SOLID
 10
1.5320291189
 20
2.4599705649
 30
0
 11
1.5320291189
 21
2.4647687368
 31
0
  0
ARC
  5
1F6
100
AcDbEntity
  8
SEMA2D
100
AcDbCircle
370
9
 62
0
 48
0
  6
_SOLID
 10
1.5330291189
 20
2.4599705649
 30
0
 40
0.001
100
AcDbArc
 50
180
 51
270
  0
ARC
  5
1F7
100
AcDbEntity
  8
SEMA2D
100
AcDbCircle
370
9
 62
0
 48
0
  6
_SOLID
 10
1.5300291189
 20
2.4647687368
 30
0
 40
0.002
100
AcDbArc
 50
0
 51
50.8332892817992
  0
LINE
  5
1F8
100
AcDbEntity
  8
SEMA2D
100
AcDbLine
370
9
 62
0
 48
0
  6
_SOLID
 10
1.5290291189
 20
2.5015019467
 30
0
 11
1.5290291189
 21
2.5055019467
 31
0
  0
LINE
  5
1F9
100
AcDbEntity
  8
SEMA2D
100
AcDbLine
370
9
 62
0
 48
0
  6
_SOLID
 10
1.5380291189
 20
2.4825052189
 30
0
 11
1.5380291189
 21
2.49699744
 31
0
  0
LINE
  5
1FA
100
AcDbEntity
  8
SEMA2D
100
AcDbLine
370
9
 62
0
 48
0
  6
_SOLID
 10
1.5380291189
 20
2.4825052189
 30
0
 11
1.533570338
 21
2.4813104921
 31
0
  0
ARC
  5
1FB
100
AcDbEntity
  8
SEMA2D
100
AcDbCircle
370
9
 62
0
 48
0
  6
_SOLID
 10
1.5360291189
 20
2.4721341968
 30
0
 40
0.0095
100
AcDbArc
 50
104.999999999698
 51
230.833289281799
  0
LINE
  5
1FC
100
AcDbEntity
  8
SEMA2D
100
AcDbLine
370
9
 62
0
 48
0
  6
_SOLID
 10
1.5300291189
 20
2.4599705649
 30
0
 11
1.5300291189
 21
2.4647687368
 31
0
  0
ARC
  5
1FD
100
AcDbEntity
  8
SEMA2D
100
AcDbCircle
370
9
 62
0
 48
0
  6
_SOLID
 10
1.5330291189
 20
2.4599705649
 30
0
 40
0.003
100
AcDbArc
 50
180
 51
270
  0
ARC
  5
1FE
100
AcDbEntity
  8
SEMA2D
100
AcDbCircle
370
9
 62
0
 48
0
  6
_SOLID
 10
1.5330291189
 20
2.4549705649
 30
0
 40
0.002
100
AcDbArc
 50
0
 51
90
  0
ARC
  5
1FF
100
AcDbEntity
  8
SEMA2D
100
AcDbCircle
370
9
 62
0
 48
0
  6
_SOLID
 10
1.5345291189
 20
2.4564705649
 30
0
 40
0.0025
100
AcDbArc
 50
0
 51
90
  0
ARC
  5
200
100
AcDbEntity
  8
SEMA2D
100
AcDbCircle
370
9
 62
0
 48
0
  6
_SOLID
 10
1.5195291189
 20
2.1810975434
 30
0
 40
0.003
100
AcDbArc
 50
334.694761323495
 51
0
  0
ARC
  5
201
100
AcDbEntity
  8
SEMA2D
100
AcDbCircle
370
9
 62
0
 48
0
  6
_SOLID
 10
1.4722672396
 20
2.2034434184
 30
0
 40
0.055278326
100
AcDbArc
 50
331.030433924325
 51
334.694761323495
  0
ARC
  5
202
100
AcDbEntity
  8
SEMA2D
100
AcDbCircle
370
9
 62
0
 48
0
  6
_SOLID
 10
1.5250033667
 20
2.1742479139
 30
0
 40
0.005
100
AcDbArc
 50
151.030433924325
 51
194.418582352054
  0
ARC
  5
203
100
AcDbEntity
  8
SEMA2D
100
AcDbCircle
370
9
 62
0
 48
0
  6
_SOLID
 10
1.519192352
 20
2.1727538899
 30
0
 40
0.001
100
AcDbArc
 50
329.269967572765
 51
14.4185823520434
  0
ARC
  5
204
100
AcDbEntity
  8
SEMA2D
100
AcDbCircle
370
9
 62
0
 48
0
  6
_SOLID
 10
1.5015585641
 20
2.1832365725
 30
0
 40
0.0215143147
100
AcDbArc
 50
303.52863548933
 51
329.269967572766
  0
ARC
  5
205
100
AcDbEntity
  8
SEMA2D
100
AcDbCircle
370
9
 62
0
 48
0
  6
_SOLID
 10
1.5250291189
 20
2.1490019467
 30
0
 40
0.02
100
AcDbArc
 50
125.616142705745
 51
271.591140268808
  0
ARC
  5
206
100
AcDbEntity
  8
SEMA2D
100
AcDbCircle
370
9
 62
0
 48
0
  6
_SOLID
 10
1.6200291189
 20
2.4564705649
 30
0
 40
0.0025
100
AcDbArc
 50
0
 51
63.6122000416079
  0
ARC
  5
207
100
AcDbEntity
  8
SEMA2D
100
AcDbCircle
370
9
 62
0
 48
0
  6
_SOLID
 10
1.6200291189
 20
2.1875019467
 30
0
 40
0.0025
100
AcDbArc
 50
270
 51
0
  0
ARC
  5
208
100
AcDbEntity
  8
SEMA2D
100
AcDbCircle
370
9
 62
0
 48
0
  6
_SOLID
 10
1.5325291189
 20
2.5015019467
 30
0
 40
0.0015
100
AcDbArc
 50
180
 51
270
  0
ARC
  5
209
100
AcDbEntity
  8
SEMA2D
100
AcDbCircle
370
9
 62
0
 48
0
  6
_SOLID
 10
1.5325291189
 20
2.5055019467
 30
0
 40
0.0015
100
AcDbArc
 50
90
 51
180
  0
ARC
  5
20A
100
AcDbEntity
  8
SEMA2D
100
AcDbCircle
370
9
 62
0
 48
0
  6
_SOLID
 10
1.5380291189
 20
2.4969985057
 30
0
 40
0.002
100
AcDbArc
 50
0
 51
81.9999999974035
  0
ARC
  5
20B
100
AcDbEntity
  8
SEMA2D
100
AcDbCircle
370
9
 62
0
 48
0
  6
_SOLID
 10
1.5370291189
 20
2.4832725459
 30
0
 40
0.003
100
AcDbArc
 50
284.999999999698
 51
0
  0
ARC
  5
20C
100
AcDbEntity
  8
SEMA2D
100
AcDbCircle
370
9
 62
0
 48
0
  6
_SOLID
 10
1.5370291189
 20
2.4832725459
 30
0
 40
0.001
100
AcDbArc
 50
284.999999999702
 51
0
  0
ARC
  5
20D
100
AcDbEntity
  8
SEMA2D
100
AcDbCircle
370
9
 62
0
 48
0
  6
_SOLID
 10
1.5325291189
 20
2.5015019467
 30
0
 40
0.0035
100
AcDbArc
 50
180
 51
262.701897421414
  0
ARC
  5
20E
100
AcDbEntity
  8
SEMA2D
100
AcDbCircle
370
9
 62
0
 48
0
  6
_SOLID
 10
1.5325291189
 20
2.5055019467
 30
0
 40
0.0035
100
AcDbArc
 50
90
 51
180
  0
LINE
  5
20F
100
AcDbEntity
  8
SEMA2D
100
AcDbLine
370
9
 62
0
 48
0
  6
_SOLID
 10
1.5380291189
 20
2.49699744
 30
0
 11
1.5320845077
 21
2.4980303014
 31
0
  0
ARC
  5
210
100
AcDbEntity
  8
SEMA2D
100
AcDbCircle
370
9
 62
0
 48
0
  6
_SOLID
 10
1.5265291189
 20
2.1830019467
 30
0
 40
0.002
100
AcDbArc
 50
90
 51
180
  0
ARC
  5
211
100
AcDbEntity
  8
SEMA2D
100
AcDbCircle
370
9
 62
0
 48
0
  6
_SOLID
 10
1.5315291189
 20
2.1880019467
 30
0
 40
0.003
100
AcDbArc
 50
270
 51
0
  0
ARC
  5
212
100
AcDbEntity
  8
SEMA2D
100
AcDbCircle
370
9
 62
0
 48
0
  6
_SOLID
 10
1.5315291189
 20
2.1880019467
 30
0
 40
0.001
100
AcDbArc
 50
270
 51
0
  0
ARC
  5
213
100
AcDbEntity
  8
SEMA2D
100
AcDbCircle
370
9
 62
0
 48
0
  6
_SOLID
 10
1.5265291189
 20
2.1830019467
 30
0
 40
0.004
100
AcDbArc
 50
90
 51
180
  0
LINE
  5
214
100
AcDbEntity
  8
SEMA2D
100
AcDbLine
370
9
 62
0
 48
0
  6
_SOLID
 10
1.7525291189
 20
2.1880019467
 30
0
 11
1.7525291189
 21
2.4549705649
 31
0
  0
LINE
  5
215
100
AcDbEntity
  8
SEMA2D
100
AcDbLine
370
9
 62
0
 48
0
  6
_SOLID
 10
1.7505291189
 20
2.1880019467
 30
0
 11
1.7505291189
 21
2.4564705649
 31
0
  0
LINE
  5
216
100
AcDbEntity
  8
SEMA2D
100
AcDbLine
370
9
 62
0
 48
0
  6
_SOLID
 10
1.7595291189
 20
2.1290019467
 30
0
 11
1.7595291189
 21
2.1310019467
 31
0
  0
ARC
  5
217
100
AcDbEntity
  8
SEMA2D
100
AcDbCircle
370
9
 62
0
 48
0
  6
_SOLID
 10
1.7600291189
 20
2.1490019467
 30
0
 40
0.018
100
AcDbArc
 50
268.408859731192
 51
54.3838572942551
  0
LINE
  5
218
100
AcDbEntity
  8
SEMA2D
100
AcDbLine
370
9
 62
0
 48
0
  6
_SOLID
 10
1.7605291189
 20
2.1810975434
 30
0
 11
1.7605291189
 21
2.1830019467
 31
0
  0
LINE
  5
219
100
AcDbEntity
  8
SEMA2D
100
AcDbLine
370
9
 62
0
 48
0
  6
_SOLID
 10
1.7625291189
 20
2.1810975434
 30
0
 11
1.7625291189
 21
2.1830019467
 31
0
  0
LINE
  5
21A
100
AcDbEntity
  8
SEMA2D
100
AcDbLine
370
9
 62
0
 48
0
  6
_SOLID
 10
1.7585291189
 20
2.1870019467
 30
0
 11
1.7535291189
 21
2.1870019467
 31
0
  0
ARC
  5
21B
100
AcDbEntity
  8
SEMA2D
100
AcDbCircle
370
9
 62
0
 48
0
  6
_SOLID
 10
1.7834996738
 20
2.1832365725
 30
0
 40
0.0235143147
100
AcDbArc
 50
210.730032427234
 51
236.471364510671
  0
ARC
  5
21C
100
AcDbEntity
  8
SEMA2D
100
AcDbCircle
370
9
 62
0
 48
0
  6
_SOLID
 10
1.8127909982
 20
2.2034434184
 30
0
 40
0.057278326
100
AcDbArc
 50
205.305238676505
 51
208.969566075674
  0
ARC
  5
21D
100
AcDbEntity
  8
SEMA2D
100
AcDbCircle
370
9
 62
0
 48
0
  6
_SOLID
 10
1.7658658858
 20
2.1727538899
 30
0
 40
0.003
100
AcDbArc
 50
165.581417647948
 51
210.730032427235
  0
ARC
  5
21E
100
AcDbEntity
  8
SEMA2D
100
AcDbCircle
370
9
 62
0
 48
0
  6
_SOLID
 10
1.7600548711
 20
2.1742479139
 30
0
 40
0.003
100
AcDbArc
 50
345.581417647948
 51
28.969566075671
  0
ARC
  5
21F
100
AcDbEntity
  8
SEMA2D
100
AcDbCircle
370
9
 62
0
 48
0
  6
_SOLID
 10
1.7655291189
 20
2.1810975434
 30
0
 40
0.005
100
AcDbArc
 50
180
 51
205.305238676506
  0
LINE
  5
220
100
AcDbEntity
  8
SEMA2D
100
AcDbLine
370
9
 62
0
 48
0
  6
_SOLID
 10
1.7540291189
 20
2.5015019467
 30
0
 11
1.7540291189
 21
2.5055019467
 31
0
  0
LINE
  5
221
100
AcDbEntity
  8
SEMA2D
100
AcDbLine
370
9
 62
0
 48
0
  6
_SOLID
 10
1.7450291189
 20
2.4832725459
 30
0
 11
1.7450291189
 21
2.4969985057
 31
0
  0
LINE
  5
222
100
AcDbEntity
  8
SEMA2D
100
AcDbLine
370
9
 62
0
 48
0
  6
_SOLID
 10
1.7467507727
 20
2.4989790418
 30
0
 11
1.7526845576
 21
2.5000100221
 31
0
  0
LINE
  5
223
100
AcDbEntity
  8
SEMA2D
100
AcDbLine
370
9
 62
0
 48
0
  6
_SOLID
 10
1.7472526618
 20
2.4803747684
 30
0
 11
1.7509702617
 21
2.4793786405
 31
0
  0
ARC
  5
224
100
AcDbEntity
  8
SEMA2D
100
AcDbCircle
370
9
 62
0
 48
0
  6
_SOLID
 10
1.7490291189
 20
2.4721341968
 30
0
 40
0.0075
100
AcDbArc
 50
309.166710718201
 51
75.0000000003011
  0
LINE
  5
225
100
AcDbEntity
  8
SEMA2D
100
AcDbLine
370
9
 62
0
 48
0
  6
_SOLID
 10
1.7530291189
 20
2.4599705649
 30
0
 11
1.7530291189
 21
2.4647687368
 31
0
  0
ARC
  5
226
100
AcDbEntity
  8
SEMA2D
100
AcDbCircle
370
9
 62
0
 48
0
  6
_SOLID
 10
1.7520291189
 20
2.4599705649
 30
0
 40
0.001
100
AcDbArc
 50
270
 51
0
  0
ARC
  5
227
100
AcDbEntity
  8
SEMA2D
100
AcDbCircle
370
9
 62
0
 48
0
  6
_SOLID
 10
1.7550291189
 20
2.4647687368
 30
0
 40
0.002
100
AcDbArc
 50
129.166710718201
 51
180
  0
LINE
  5
228
100
AcDbEntity
  8
SEMA2D
100
AcDbLine
370
9
 62
0
 48
0
  6
_SOLID
 10
1.7560291189
 20
2.5015019467
 30
0
 11
1.7560291189
 21
2.5055019467
 31
0
  0
LINE
  5
229
100
AcDbEntity
  8
SEMA2D
100
AcDbLine
370
9
 62
0
 48
0
  6
_SOLID
 10
1.7470291189
 20
2.4832725459
 30
0
 11
1.7470291189
 21
2.49699744
 31
0
  0
LINE
  5
22A
100
AcDbEntity
  8
SEMA2D
100
AcDbLine
370
9
 62
0
 48
0
  6
_SOLID
 10
1.7477702999
 20
2.48230662
 30
0
 11
1.7514878998
 21
2.4813104921
 31
0
  0
ARC
  5
22B
100
AcDbEntity
  8
SEMA2D
100
AcDbCircle
370
9
 62
0
 48
0
  6
_SOLID
 10
1.7490291189
 20
2.4721341968
 30
0
 40
0.0095
100
AcDbArc
 50
309.166710718201
 51
75.0000000003017
  0
LINE
  5
22C
100
AcDbEntity
  8
SEMA2D
100
AcDbLine
370
9
 62
0
 48
0
  6
_SOLID
 10
1.7550291189
 20
2.4599705649
 30
0
 11
1.7550291189
 21
2.4647687368
 31
0
  0
ARC
  5
22D
100
AcDbEntity
  8
SEMA2D
100
AcDbCircle
370
9
 62
0
 48
0
  6
_SOLID
 10
1.7520291189
 20
2.4599705649
 30
0
 40
0.003
100
AcDbArc
 50
270
 51
0
  0
ARC
  5
22E
100
AcDbEntity
  8
SEMA2D
100
AcDbCircle
370
9
 62
0
 48
0
  6
_SOLID
 10
1.7520291189
 20
2.4549705649
 30
0
 40
0.002
100
AcDbArc
 50
90
 51
180
  0
ARC
  5
22F
100
AcDbEntity
  8
SEMA2D
100
AcDbCircle
370
9
 62
0
 48
0
  6
_SOLID
 10
1.7505291189
 20
2.4564705649
 30
0
 40
0.0025
100
AcDbArc
 50
90
 51
180
  0
ARC
  5
230
100
AcDbEntity
  8
SEMA2D
100
AcDbCircle
370
9
 62
0
 48
0
  6
_SOLID
 10
1.7655291189
 20
2.1810975434
 30
0
 40
0.003
100
AcDbArc
 50
180
 51
205.305238676505
  0
ARC
  5
231
100
AcDbEntity
  8
SEMA2D
100
AcDbCircle
370
9
 62
0
 48
0
  6
_SOLID
 10
1.8127909982
 20
2.2034434184
 30
0
 40
0.055278326
100
AcDbArc
 50
205.305238676505
 51
208.969566075675
  0
ARC
  5
232
100
AcDbEntity
  8
SEMA2D
100
AcDbCircle
370
9
 62
0
 48
0
  6
_SOLID
 10
1.7600548711
 20
2.1742479139
 30
0
 40
0.005
100
AcDbArc
 50
345.581417647946
 51
28.9695660756755
  0
ARC
  5
233
100
AcDbEntity
  8
SEMA2D
100
AcDbCircle
370
9
 62
0
 48
0
  6
_SOLID
 10
1.7658658858
 20
2.1727538899
 30
0
 40
0.001
100
AcDbArc
 50
165.581417647957
 51
210.730032427235
  0
ARC
  5
234
100
AcDbEntity
  8
SEMA2D
100
AcDbCircle
370
9
 62
0
 48
0
  6
_SOLID
 10
1.7834996738
 20
2.1832365725
 30
0
 40
0.0215143147
100
AcDbArc
 50
210.730032427234
 51
236.47136451067
  0
ARC
  5
235
100
AcDbEntity
  8
SEMA2D
100
AcDbCircle
370
9
 62
0
 48
0
  6
_SOLID
 10
1.7600291189
 20
2.1490019467
 30
0
 40
0.02
100
AcDbArc
 50
268.408859731192
 51
54.3838572942552
  0
ARC
  5
236
100
AcDbEntity
  8
SEMA2D
100
AcDbCircle
370
9
 62
0
 48
0
  6
_SOLID
 10
1.7525291189
 20
2.5015019467
 30
0
 40
0.0015
100
AcDbArc
 50
270
 51
0
  0
ARC
  5
237
100
AcDbEntity
  8
SEMA2D
100
AcDbCircle
370
9
 62
0
 48
0
  6
_SOLID
 10
1.7525291189
 20
2.5055019467
 30
0
 40
0.0015
100
AcDbArc
 50
0
 51
90
  0
ARC
  5
238
100
AcDbEntity
  8
SEMA2D
100
AcDbCircle
370
9
 62
0
 48
0
  6
_SOLID
 10
1.7470291189
 20
2.4969985057
 30
0
 40
0.002
100
AcDbArc
 50
98.0000000025965
 51
180
  0
ARC
  5
239
100
AcDbEntity
  8
SEMA2D
100
AcDbCircle
370
9
 62
0
 48
0
  6
_SOLID
 10
1.7480291189
 20
2.4832725459
 30
0
 40
0.003
100
AcDbArc
 50
180
 51
255.000000000302
  0
ARC
  5
23A
100
AcDbEntity
  8
SEMA2D
100
AcDbCircle
370
9
 62
0
 48
0
  6
_SOLID
 10
1.7480291189
 20
2.4832725459
 30
0
 40
0.001
100
AcDbArc
 50
180
 51
255.000000000298
  0
ARC
  5
23B
100
AcDbEntity
  8
SEMA2D
100
AcDbCircle
370
9
 62
0
 48
0
  6
_SOLID
 10
1.7525291189
 20
2.5015019467
 30
0
 40
0.0035
100
AcDbArc
 50
277.298102578586
 51
0
  0
ARC
  5
23C
100
AcDbEntity
  8
SEMA2D
100
AcDbCircle
370
9
 62
0
 48
0
  6
_SOLID
 10
1.7525291189
 20
2.5055019467
 30
0
 40
0.0035
100
AcDbArc
 50
0
 51
90
  0
LINE
  5
23D
100
AcDbEntity
  8
SEMA2D
100
AcDbLine
370
9
 62
0
 48
0
  6
_SOLID
 10
1.7470291189
 20
2.49699744
 30
0
 11
1.7529737301
 21
2.4980303014
 31
0
  0
ARC
  5
23E
100
AcDbEntity
  8
SEMA2D
100
AcDbCircle
370
9
 62
0
 48
0
  6
_SOLID
 10
1.7585291189
 20
2.1830019467
 30
0
 40
0.002
100
AcDbArc
 50
0
 51
90
  0
ARC
  5
23F
100
AcDbEntity
  8
SEMA2D
100
AcDbCircle
370
9
 62
0
 48
0
  6
_SOLID
 10
1.7535291189
 20
2.1880019467
 30
0
 40
0.003
100
AcDbArc
 50
180
 51
270
  0
ARC
  5
240
100
AcDbEntity
  8
SEMA2D
100
AcDbCircle
370
9
 62
0
 48
0
  6
_SOLID
 10
1.7535291189
 20
2.1880019467
 30
0
 40
0.001
100
AcDbArc
 50
180
 51
270
  0
ARC
  5
241
100
AcDbEntity
  8
SEMA2D
100
AcDbCircle
370
9
 62
0
 48
0
  6
_SOLID
 10
1.7585291189
 20
2.1830019467
 30
0
 40
0.004
100
AcDbArc
 50
0
 51
90
  0
LINE
  5
242
100
AcDbEntity
  8
SEMA2D
100
AcDbLine
370
9
 62
0
 48
0
  6
_SOLID
 10
1.6210291189
 20
2.5015019467
 30
0
 11
1.6210291189
 21
2.5055019467
 31
0
  0
ARC
  5
243
100
AcDbEntity
  8
SEMA2D
100
AcDbCircle
370
9
 62
0
 48
0
  6
_SOLID
 10
1.6225291189
 20
2.5055019467
 30
0
 40
0.0015
100
AcDbArc
 50
90
 51
180
  0
ARC
  5
244
100
AcDbEntity
  8
SEMA2D
100
AcDbCircle
370
9
 62
0
 48
0
  6
_SOLID
 10
1.6225291189
 20
2.5015019467
 30
0
 40
0.0015
100
AcDbArc
 50
180
 51
270
  0
LINE
  5
245
100
AcDbEntity
  8
SEMA2D
100
AcDbLine
370
9
 62
0
 48
0
  6
_SOLID
 10
1.6255291189
 20
2.4828747684
 30
0
 11
1.6255291189
 21
2.4954705649
 31
0
  0
LINE
  5
246
100
AcDbEntity
  8
SEMA2D
100
AcDbLine
370
9
 62
0
 48
0
  6
_SOLID
 10
1.5416468556
 20
2.4979705649
 30
0
 11
1.7434850957
 21
2.4979705649
 31
0
  0
ARC
  5
247
100
AcDbEntity
  8
SEMA2D
100
AcDbCircle
370
9
 62
0
 48
0
  6
_SOLID
 10
1.6230291189
 20
2.4954705649
 30
0
 40
0.0025
100
AcDbArc
 50
0
 51
90
  0
LINE
  5
248
100
AcDbEntity
  8
SEMA2D
100
AcDbLine
370
9
 62
0
 48
0
  6
_SOLID
 10
1.6633334231
 20
2.4803747684
 30
0
 11
1.744910107
 21
2.4803747684
 31
0
  0
LINE
  5
249
100
AcDbEntity
  8
SEMA2D
100
AcDbLine
370
9
 62
0
 48
0
  6
_SOLID
 10
1.6262358569
 20
2.4803747684
 30
0
 11
1.6587992761
 21
2.4803747684
 31
0
  0
LINE
  5
24A
100
AcDbEntity
  8
SEMA2D
100
AcDbLine
370
9
 62
0
 48
0
  6
_SOLID
 10
1.5401068096
 20
2.4803747684
 30
0
 11
1.6215643115
 21
2.4803747684
 31
0
  0
LINE
  5
24B
100
AcDbEntity
  8
SEMA2D
100
AcDbLine
370
9
 62
0
 48
0
  6
_SOLID
 10
1.6667683829
 20
2.4656306474
 30
0
 11
1.7518590063
 21
2.4656306474
 31
0
  0
LINE
  5
24C
100
AcDbEntity
  8
SEMA2D
100
AcDbLine
370
9
 62
0
 48
0
  6
_SOLID
 10
1.6218391083
 20
2.4656306474
 30
0
 11
1.6631960247
 21
2.4656306474
 31
0
  0
LINE
  5
24D
100
AcDbEntity
  8
SEMA2D
100
AcDbLine
370
9
 62
0
 48
0
  6
_SOLID
 10
1.5332306826
 20
2.4656306474
 30
0
 11
1.6179919532
 21
2.4656306474
 31
0
  0
ARC
  5
24E
100
AcDbEntity
  8
SEMA2D
100
AcDbCircle
370
9
 62
0
 48
0
  6
_SOLID
 10
1.6240291189
 20
2.4721341968
 30
0
 40
0.0075
100
AcDbArc
 50
111.999999998442
 51
230.833289281799
  0
LINE
  5
24F
100
AcDbEntity
  8
SEMA2D
100
AcDbLine
370
9
 62
0
 48
0
  6
_SOLID
 10
1.6200291189
 20
2.4605016938
 30
0
 11
1.6200291189
 21
2.4647687368
 31
0
  0
ARC
  5
250
100
AcDbEntity
  8
SEMA2D
100
AcDbCircle
370
9
 62
0
 48
0
  6
_SOLID
 10
1.6180291189
 20
2.4647687368
 30
0
 40
0.002
100
AcDbArc
 50
0
 51
50.8332892817992
  0
LINE
  5
251
100
AcDbEntity
  8
SEMA2D
100
AcDbLine
370
9
 62
0
 48
0
  6
_SOLID
 10
1.6236534143
 20
2.4800714128
 30
0
 11
1.6212195695
 21
2.4790880757
 31
0
  0
ARC
  5
252
100
AcDbEntity
  8
SEMA2D
100
AcDbCircle
370
9
 62
0
 48
0
  6
_SOLID
 10
1.6225295945
 20
2.4828529644
 30
0
 40
0.003
100
AcDbArc
 50
291.99999999844
 51
2.49934436120802
  0
ARC
  5
253
100
AcDbEntity
  8
SEMA2D
100
AcDbCircle
370
9
 62
0
 48
0
  6
_SOLID
 10
1.6220291189
 20
2.4605016938
 30
0
 40
0.002
100
AcDbArc
 50
180
 51
243.612200041608
  0
LINE
  5
254
100
AcDbEntity
  8
SEMA2D
100
AcDbLine
370
9
 62
0
 48
0
  6
_SOLID
 10
1.6221330211
 20
2.4997068817
 30
0
 11
1.6237242525
 21
2.4981685308
 31
0
  0
LINE
  5
255
100
AcDbEntity
  8
SEMA2D
100
AcDbLine
370
9
 62
0
 48
0
  6
_SOLID
 10
1.6675291189
 20
2.1290019467
 30
0
 11
1.6675291189
 21
2.1310019467
 31
0
  0
LINE
  5
256
100
AcDbEntity
  8
SEMA2D
100
AcDbLine
370
9
 62
0
 48
0
  6
_SOLID
 10
1.6175291189
 20
2.1290019467
 30
0
 11
1.6175291189
 21
2.1310019467
 31
0
  0
LINE
  5
257
100
AcDbEntity
  8
SEMA2D
100
AcDbLine
370
9
 62
0
 48
0
  6
_SOLID
 10
1.6159291189
 20
2.1735428955
 30
0
 11
1.6159291189
 21
2.1782549479
 31
0
  0
LINE
  5
258
100
AcDbEntity
  8
SEMA2D
100
AcDbLine
370
9
 62
0
 48
0
  6
_SOLID
 10
1.6725362358
 20
2.1727538899
 30
0
 11
1.7624618142
 21
2.1727538899
 31
0
  0
LINE
  5
259
100
AcDbEntity
  8
SEMA2D
100
AcDbLine
370
9
 62
0
 48
0
  6
_SOLID
 10
1.6186650737
 20
2.1727538899
 30
0
 11
1.6662667471
 21
2.1727538899
 31
0
  0
LINE
  5
25A
100
AcDbEntity
  8
SEMA2D
100
AcDbLine
370
9
 62
0
 48
0
  6
_SOLID
 10
1.5216908307
 20
2.1727538899
 30
0
 11
1.6130921948
 21
2.1727538899
 31
0
  0
ARC
  5
25B
100
AcDbEntity
  8
SEMA2D
100
AcDbCircle
370
9
 62
0
 48
0
  6
_SOLID
 10
1.6450291189
 20
2.1490019467
 30
0
 40
0.035
100
AcDbArc
 50
162.065213611117
 51
195.544204462125
  0
LINE
  5
25C
100
AcDbEntity
  8
SEMA2D
100
AcDbLine
370
9
 62
0
 48
0
  6
_SOLID
 10
1.615686157
 20
2.172003224
 30
0
 11
1.6117298522
 21
2.1597796475
 31
0
  0
ARC
  5
25D
100
AcDbEntity
  8
SEMA2D
100
AcDbCircle
370
9
 62
0
 48
0
  6
_SOLID
 10
1.6257606391
 20
2.1436423117
 30
0
 40
0.015
100
AcDbArc
 50
195.544204462125
 51
237.425383081481
  0
ARC
  5
25E
100
AcDbEntity
  8
SEMA2D
100
AcDbCircle
370
9
 62
0
 48
0
  6
_SOLID
 10
1.6109291189
 20
2.1735428955
 30
0
 40
0.005
100
AcDbArc
 50
342.065213611117
 51
0
  0
ARC
  5
25F
100
AcDbEntity
  8
SEMA2D
100
AcDbCircle
370
9
 62
0
 48
0
  6
_SOLID
 10
1.6650291189
 20
2.1875019467
 30
0
 40
0.0025
100
AcDbArc
 50
180
 51
270
  0
LINE
  5
260
100
AcDbEntity
  8
SEMA2D
100
AcDbLine
370
9
 62
0
 48
0
  6
_SOLID
 10
1.6675291189
 20
2.1290019467
 30
0
 11
1.6675291189
 21
2.1310019467
 31
0
  0
LINE
  5
261
100
AcDbEntity
  8
SEMA2D
100
AcDbLine
370
9
 62
0
 48
0
  6
_SOLID
 10
1.6691291189
 20
2.1735428955
 30
0
 11
1.6691291189
 21
2.1782549479
 31
0
  0
ARC
  5
262
100
AcDbEntity
  8
SEMA2D
100
AcDbCircle
370
9
 62
0
 48
0
  6
_SOLID
 10
1.6400291189
 20
2.1490019467
 30
0
 40
0.035
100
AcDbArc
 50
344.455795537875
 51
17.934786388883
  0
LINE
  5
263
100
AcDbEntity
  8
SEMA2D
100
AcDbLine
370
9
 62
0
 48
0
  6
_SOLID
 10
1.6693720808
 20
2.172003224
 30
0
 11
1.6733283856
 21
2.1597796475
 31
0
  0
ARC
  5
264
100
AcDbEntity
  8
SEMA2D
100
AcDbCircle
370
9
 62
0
 48
0
  6
_SOLID
 10
1.6592975987
 20
2.1436423117
 30
0
 40
0.015
100
AcDbArc
 50
302.574616918519
 51
344.455795537875
  0
ARC
  5
265
100
AcDbEntity
  8
SEMA2D
100
AcDbCircle
370
9
 62
0
 48
0
  6
_SOLID
 10
1.6741291189
 20
2.1735428955
 30
0
 40
0.005
100
AcDbArc
 50
180
 51
197.934786388883
  0
LINE
  5
266
100
AcDbEntity
  8
SEMA2D
100
AcDbLine
370
9
 62
0
 48
0
  6
_SOLID
 10
1.6625291189
 20
2.1875019467
 30
0
 11
1.6625291189
 21
2.4564705649
 31
0
  0
ARC
  5
267
100
AcDbEntity
  8
SEMA2D
100
AcDbCircle
370
9
 62
0
 48
0
  6
_SOLID
 10
1.6650291189
 20
2.4564705649
 30
0
 40
0.0025
100
AcDbArc
 50
116.387799958392
 51
180
  0
LINE
  5
268
100
AcDbEntity
  8
SEMA2D
100
AcDbLine
370
9
 62
0
 48
0
  6
_SOLID
 10
1.6640291189
 20
2.5015019467
 30
0
 11
1.6640291189
 21
2.5055019467
 31
0
  0
ARC
  5
269
100
AcDbEntity
  8
SEMA2D
100
AcDbCircle
370
9
 62
0
 48
0
  6
_SOLID
 10
1.6625291189
 20
2.5055019467
 30
0
 40
0.0015
100
AcDbArc
 50
0
 51
90
  0
ARC
  5
26A
100
AcDbEntity
  8
SEMA2D
100
AcDbCircle
370
9
 62
0
 48
0
  6
_SOLID
 10
1.6625291189
 20
2.5015019467
 30
0
 40
0.0015
100
AcDbArc
 50
270
 51
0
  0
LINE
  5
26B
100
AcDbEntity
  8
SEMA2D
100
AcDbLine
370
9
 62
0
 48
0
  6
_SOLID
 10
1.6595291189
 20
2.4828747684
 30
0
 11
1.6595291189
 21
2.4954705649
 31
0
  0
ARC
  5
26C
100
AcDbEntity
  8
SEMA2D
100
AcDbCircle
370
9
 62
0
 48
0
  6
_SOLID
 10
1.6620291189
 20
2.4954705649
 30
0
 40
0.0025
100
AcDbArc
 50
90
 51
180
  0
ARC
  5
26D
100
AcDbEntity
  8
SEMA2D
100
AcDbCircle
370
9
 62
0
 48
0
  6
_SOLID
 10
1.6610291189
 20
2.4721341968
 30
0
 40
0.0075
100
AcDbArc
 50
309.166710718201
 51
68.000000001558
  0
LINE
  5
26E
100
AcDbEntity
  8
SEMA2D
100
AcDbLine
370
9
 62
0
 48
0
  6
_SOLID
 10
1.6650291189
 20
2.4605016938
 30
0
 11
1.6650291189
 21
2.4647687368
 31
0
  0
ARC
  5
26F
100
AcDbEntity
  8
SEMA2D
100
AcDbCircle
370
9
 62
0
 48
0
  6
_SOLID
 10
1.6670291189
 20
2.4647687368
 30
0
 40
0.002
100
AcDbArc
 50
129.166710718201
 51
180
  0
LINE
  5
270
100
AcDbEntity
  8
SEMA2D
100
AcDbLine
370
9
 62
0
 48
0
  6
_SOLID
 10
1.6614048235
 20
2.4800714128
 30
0
 11
1.6638386684
 21
2.4790880757
 31
0
  0
ARC
  5
271
100
AcDbEntity
  8
SEMA2D
100
AcDbCircle
370
9
 62
0
 48
0
  6
_SOLID
 10
1.6625286433
 20
2.4828529644
 30
0
 40
0.003
100
AcDbArc
 50
177.500655638792
 51
248.00000000156
  0
ARC
  5
272
100
AcDbEntity
  8
SEMA2D
100
AcDbCircle
370
9
 62
0
 48
0
  6
_SOLID
 10
1.6630291189
 20
2.4605016938
 30
0
 40
0.002
100
AcDbArc
 50
296.387799958392
 51
0
  0
LINE
  5
273
100
AcDbEntity
  8
SEMA2D
100
AcDbLine
370
9
 62
0
 48
0
  6
_SOLID
 10
1.6629252167
 20
2.4997068817
 30
0
 11
1.6613339853
 21
2.4981685308
 31
0
  0
ARC
  5
274
100
AcDbEntity
  8
SEMA2D
100
AcDbCircle
370
9
 62
0
 48
0
  6
_SOLID
 10
1.6215291189
 20
2.1820019467
 30
0
 40
0.003
100
AcDbArc
 50
90
 51
180
  0
ARC
  5
275
100
AcDbEntity
  8
SEMA2D
100
AcDbCircle
370
9
 62
0
 48
0
  6
_SOLID
 10
1.6635291189
 20
2.1820019467
 30
0
 40
0.003
100
AcDbArc
 50
0
 51
90
  0
ARC
  5
276
100
AcDbEntity
  8
SEMA2D
100
AcDbCircle
370
9
 62
0
 48
0
  6
_SOLID
 10
1.6165291189
 20
2.1820019467
 30
0
 40
0.002
100
AcDbArc
 50
290.487315113912
 51
0
  0
ARC
  5
277
100
AcDbEntity
  8
SEMA2D
100
AcDbCircle
370
9
 62
0
 48
0
  6
_SOLID
 10
1.6685291189
 20
2.1820019467
 30
0
 40
0.002
100
AcDbArc
 50
180
 51
249.512684886088
  0
ARC
  5
278
100
AcDbEntity
  8
SEMA2D
100
AcDbCircle
370
9
 62
0
 48
0
  6
_SOLID
 10
1.6179291189
 20
2.1782549479
 30
0
 40
0.002
100
AcDbArc
 50
110.487315113912
 51
180
  0
ARC
  5
279
100
AcDbEntity
  8
SEMA2D
100
AcDbCircle
370
9
 62
0
 48
0
  6
_SOLID
 10
1.6671291189
 20
2.1782549479
 30
0
 40
0.002
100
AcDbArc
 50
0
 51
69.5126848860877
  0
CIRCLE
  5
27A
100
AcDbEntity
  8
SEMA2D
100
AcDbCircle
370
9
 62
0
 48
0
  6
_SOLID
 10
1.6425291189
 20
2.2190019467
 30
0
 40
0.00475
  0
LINE
  5
27B
100
AcDbEntity
  8
SEMA2D
100
AcDbLine
370
9
 62
0
 48
0
  6
_SOLID
 10
1.3166529705
 20
2.1325019467
 30
0
 11
1.3166529705
 21
2.5055019467
 31
0
  0
LINE
  5
27C
100
AcDbEntity
  8
SEMA2D
100
AcDbLine
370
9
 62
0
 48
0
  6
_SOLID
 10
1.3136529705
 20
2.1290019467
 30
0
 11
1.1946529705
 21
2.1290019467
 31
0
  0
LINE
  5
27D
100
AcDbEntity
  8
SEMA2D
100
AcDbLine
370
9
 62
0
 48
0
  6
_SOLID
 10
1.3151529705
 20
2.1310019467
 30
0
 11
1.1996529705
 21
2.1310019467
 31
0
  0
LINE
  5
27E
100
AcDbEntity
  8
SEMA2D
100
AcDbLine
370
9
 62
0
 48
0
  6
_SOLID
 10
1.3136529705
 20
2.5090019467
 30
0
 11
1.2106529705
 21
2.5090019467
 31
0
  0
LINE
  5
27F
100
AcDbEntity
  8
SEMA2D
100
AcDbLine
370
9
 62
0
 48
0
  6
_SOLID
 10
1.2096529705
 20
2.5070019467
 30
0
 11
1.2011529705
 21
2.5070019467
 31
0
  0
LINE
  5
280
100
AcDbEntity
  8
SEMA2D
100
AcDbLine
370
9
 62
0
 48
0
  6
_SOLID
 10
1.3151529705
 20
2.5070019467
 30
0
 11
1.2153226201
 21
2.5070019467
 31
0
  0
LINE
  5
281
100
AcDbEntity
  8
SEMA2D
100
AcDbLine
370
9
 62
0
 48
0
  6
_SOLID
 10
1.1971529705
 20
2.1810975434
 30
0
 11
1.1971529705
 21
2.1830019467
 31
0
  0
ARC
  5
282
100
AcDbEntity
  8
SEMA2D
100
AcDbCircle
370
9
 62
0
 48
0
  6
_SOLID
 10
1.1448910912
 20
2.2034434184
 30
0
 40
0.057278326
100
AcDbArc
 50
331.030433924326
 51
334.694761323495
  0
ARC
  5
283
100
AcDbEntity
  8
SEMA2D
100
AcDbCircle
370
9
 62
0
 48
0
  6
_SOLID
 10
1.1918162035
 20
2.1727538899
 30
0
 40
0.003
100
AcDbArc
 50
317.938660979796
 51
14.4185823520516
  0
ARC
  5
284
100
AcDbEntity
  8
SEMA2D
100
AcDbCircle
370
9
 62
0
 48
0
  6
_SOLID
 10
1.1921529705
 20
2.1810975434
 30
0
 40
0.005
100
AcDbArc
 50
334.694761323494
 51
0
  0
ARC
  5
285
100
AcDbEntity
  8
SEMA2D
100
AcDbCircle
370
9
 62
0
 48
0
  6
_SOLID
 10
1.1996529705
 20
2.1880019467
 30
0
 40
0.003
100
AcDbArc
 50
270
 51
0
  0
LINE
  5
286
100
AcDbEntity
  8
SEMA2D
100
AcDbLine
370
9
 62
0
 48
0
  6
_SOLID
 10
1.1946529705
 20
2.1290019467
 30
0
 11
1.1946529705
 21
2.1300282807
 31
0
  0
LINE
  5
287
100
AcDbEntity
  8
SEMA2D
100
AcDbLine
370
9
 62
0
 48
0
  6
_SOLID
 10
1.2026529705
 20
2.2464303738
 30
0
 11
1.2026529705
 21
2.4564705649
 31
0
  0
LINE
  5
288
100
AcDbEntity
  8
SEMA2D
100
AcDbLine
370
9
 62
0
 48
0
  6
_SOLID
 10
1.2026529705
 20
2.1880019467
 30
0
 11
1.2026529705
 21
2.2275735195
 31
0
  0
ARC
  5
289
100
AcDbEntity
  8
SEMA2D
100
AcDbCircle
370
9
 62
0
 48
0
  6
_SOLID
 10
1.1754827864
 20
2.1874922577
 30
0
 40
0.025
100
AcDbArc
 50
296.475700999393
 51
317.938660979795
  0
LINE
  5
28A
100
AcDbEntity
  8
SEMA2D
100
AcDbLine
370
9
 62
0
 48
0
  6
_SOLID
 10
1.3136529705
 20
2.1300019467
 30
0
 11
1.3136529705
 21
2.1290019467
 31
0
  0
LINE
  5
28B
100
AcDbEntity
  8
SEMA2D
100
AcDbLine
370
9
 62
0
 48
0
  6
_SOLID
 10
1.1986529705
 20
2.1290019467
 30
0
 11
1.1986529705
 21
2.1300019467
 31
0
  0
LINE
  5
28C
100
AcDbEntity
  8
SEMA2D
100
AcDbLine
370
9
 62
0
 48
0
  6
_SOLID
 10
1.2016529705
 20
2.1371189054
 30
0
 11
1.2016529705
 21
2.1325019467
 31
0
  0
LINE
  5
28D
100
AcDbEntity
  8
SEMA2D
100
AcDbLine
370
9
 62
0
 48
0
  6
_SOLID
 10
1.3151529705
 20
2.1380019467
 30
0
 11
1.2013655042
 21
2.1380019467
 31
0
  0
LINE
  5
28E
100
AcDbEntity
  8
SEMA2D
100
AcDbLine
370
9
 62
0
 48
0
  6
_SOLID
 10
1.2166529705
 20
2.3133339568
 30
0
 11
1.2166529705
 21
2.3966243569
 31
0
  0
ARC
  5
28F
100
AcDbEntity
  8
SEMA2D
100
AcDbCircle
370
9
 62
0
 48
0
  6
_SOLID
 10
1.2196529705
 20
2.3133339568
 30
0
 40
0.003
100
AcDbArc
 50
180
 51
255.596720973215
  0
ARC
  5
290
100
AcDbEntity
  8
SEMA2D
100
AcDbCircle
370
9
 62
0
 48
0
  6
_SOLID
 10
1.2196529705
 20
2.3966243569
 30
0
 40
0.003
100
AcDbArc
 50
106.183407184872
 51
180
  0
LINE
  5
291
100
AcDbEntity
  8
SEMA2D
100
AcDbLine
370
9
 62
0
 48
0
  6
_SOLID
 10
1.2166529705
 20
2.2029861022
 30
0
 11
1.2166529705
 21
2.2826699365
 31
0
  0
ARC
  5
292
100
AcDbEntity
  8
SEMA2D
100
AcDbCircle
370
9
 62
0
 48
0
  6
_SOLID
 10
1.2196529705
 20
2.2029861022
 30
0
 40
0.003
100
AcDbArc
 50
180
 51
256.196650913106
  0
ARC
  5
293
100
AcDbEntity
  8
SEMA2D
100
AcDbCircle
370
9
 62
0
 48
0
  6
_SOLID
 10
1.2196529705
 20
2.2826699365
 30
0
 40
0.003
100
AcDbArc
 50
104.403279026786
 51
180
  0
LINE
  5
294
100
AcDbEntity
  8
SEMA2D
100
AcDbLine
370
9
 62
0
 48
0
  6
_SOLID
 10
1.2186529705
 20
2.4289293817
 30
0
 11
1.2186529705
 21
2.4838576423
 31
0
  0
ARC
  5
295
100
AcDbEntity
  8
SEMA2D
100
AcDbCircle
370
9
 62
0
 48
0
  6
_SOLID
 10
1.2216529705
 20
2.4289293817
 30
0
 40
0.003
100
AcDbArc
 50
180
 51
253.582395054898
  0
ARC
  5
296
100
AcDbEntity
  8
SEMA2D
100
AcDbCircle
370
9
 62
0
 48
0
  6
_SOLID
 10
1.2216529705
 20
2.4838576423
 30
0
 40
0.003
100
AcDbArc
 50
105.000000184612
 51
180
  0
LINE
  5
297
100
AcDbEntity
  8
SEMA2D
100
AcDbLine
370
9
 62
0
 48
0
  6
_SOLID
 10
1.3136529705
 20
2.1610019467
 30
0
 11
1.2006529705
 21
2.1610019467
 31
0
  0
LINE
  5
298
100
AcDbEntity
  8
SEMA2D
100
AcDbLine
370
9
 62
0
 48
0
  6
_SOLID
 10
1.1906529705
 20
2.1488906069
 30
0
 11
1.1906529705
 21
2.1510019467
 31
0
  0
LINE
  5
299
100
AcDbEntity
  8
SEMA2D
100
AcDbLine
370
9
 62
0
 48
0
  6
_SOLID
 10
1.19806478
 20
2.1392313486
 30
0
 11
1.200541199
 21
2.1385677941
 31
0
  0
ARC
  5
29A
100
AcDbEntity
  8
SEMA2D
100
AcDbCircle
370
9
 62
0
 48
0
  6
_SOLID
 10
1.2006529705
 20
2.1488906069
 30
0
 40
0.01
100
AcDbArc
 50
180
 51
255.000000000302
  0
ARC
  5
29B
100
AcDbEntity
  8
SEMA2D
100
AcDbCircle
370
9
 62
0
 48
0
  6
_SOLID
 10
1.2006529705
 20
2.1510019467
 30
0
 40
0.01
100
AcDbArc
 50
111.891898235115
 51
180
  0
LINE
  5
29C
100
AcDbEntity
  8
SEMA2D
100
AcDbLine
370
9
 62
0
 48
0
  6
_SOLID
 10
1.2516529705
 20
2.1855366006
 30
0
 11
1.2516529705
 21
2.1904672927
 31
0
  0
LINE
  5
29D
100
AcDbEntity
  8
SEMA2D
100
AcDbLine
370
9
 62
0
 48
0
  6
_SOLID
 10
1.2189371998
 20
2.2000727412
 30
0
 11
1.2501706086
 21
2.1923991444
 31
0
  0
LINE
  5
29E
100
AcDbEntity
  8
SEMA2D
100
AcDbLine
370
9
 62
0
 48
0
  6
_SOLID
 10
1.2179773724
 20
2.1756149225
 30
0
 11
1.2501681411
 21
2.1836041366
 31
0
  0
ARC
  5
29F
100
AcDbEntity
  8
SEMA2D
100
AcDbCircle
370
9
 62
0
 48
0
  6
_SOLID
 10
1.2187
 20
2.1727032547
 30
0
 40
0.003
100
AcDbArc
 50
103.938240140903
 51
180
  0
LINE
  5
2A0
100
AcDbEntity
  8
SEMA2D
100
AcDbLine
370
9
 62
0
 48
0
  6
_SOLID
 10
1.2516529705
 20
2.2955366006
 30
0
 11
1.2516529705
 21
2.3004672927
 31
0
  0
LINE
  5
2A1
100
AcDbEntity
  8
SEMA2D
100
AcDbLine
370
9
 62
0
 48
0
  6
_SOLID
 10
1.2189067345
 20
2.3104282501
 30
0
 11
1.2501706086
 21
2.3023991444
 31
0
  0
LINE
  5
2A2
100
AcDbEntity
  8
SEMA2D
100
AcDbLine
370
9
 62
0
 48
0
  6
_SOLID
 10
1.2189067345
 20
2.2855756432
 30
0
 11
1.2501706086
 21
2.293604749
 31
0
  0
LINE
  5
2A3
100
AcDbEntity
  8
SEMA2D
100
AcDbLine
370
9
 62
0
 48
0
  6
_SOLID
 10
1.2516529705
 20
2.4105366006
 30
0
 11
1.2516529705
 21
2.4154672927
 31
0
  0
LINE
  5
2A4
100
AcDbEntity
  8
SEMA2D
100
AcDbLine
370
9
 62
0
 48
0
  6
_SOLID
 10
1.2208050619
 20
2.4260517002
 30
0
 11
1.2502655312
 21
2.4173711754
 31
0
  0
LINE
  5
2A5
100
AcDbEntity
  8
SEMA2D
100
AcDbLine
370
9
 62
0
 48
0
  6
_SOLID
 10
1.2188168315
 20
2.3995054803
 30
0
 11
1.2502706078
 21
2.40863377
 31
0
  0
LINE
  5
2A6
100
AcDbEntity
  8
SEMA2D
100
AcDbLine
370
9
 62
0
 48
0
  6
_SOLID
 10
1.2516529705
 20
2.4961529372
 30
0
 11
1.2516529705
 21
2.4999377252
 31
0
  0
LINE
  5
2A7
100
AcDbEntity
  8
SEMA2D
100
AcDbLine
370
9
 62
0
 48
0
  6
_SOLID
 10
1.2106529705
 20
2.5080019467
 30
0
 11
1.2106529705
 21
2.5090019467
 31
0
  0
LINE
  5
2A8
100
AcDbEntity
  8
SEMA2D
100
AcDbLine
370
9
 62
0
 48
0
  6
_SOLID
 10
1.2146529705
 20
2.5079458051
 30
0
 11
1.2146529705
 21
2.5090019467
 31
0
  0
LINE
  5
2A9
100
AcDbEntity
  8
SEMA2D
100
AcDbLine
370
9
 62
0
 48
0
  6
_SOLID
 10
1.2508135775
 20
2.5012844243
 30
0
 11
1.2371520143
 21
2.5070019467
 31
0
  0
LINE
  5
2AA
100
AcDbEntity
  8
SEMA2D
100
AcDbLine
370
9
 62
0
 48
0
  6
_SOLID
 10
1.2208765134
 20
2.4867554198
 30
0
 11
1.2509031257
 21
2.4948010264
 31
0
  0
LINE
  5
2AB
100
AcDbEntity
  8
SEMA2D
100
AcDbLine
370
9
 62
0
 48
0
  6
_SOLID
 10
1.3136529705
 20
2.5080019467
 30
0
 11
1.3136529705
 21
2.5090019467
 31
0
  0
LINE
  5
2AC
100
AcDbEntity
  8
SEMA2D
100
AcDbLine
370
9
 62
0
 48
0
  6
_SOLID
 10
1.1996529705
 20
2.5012166227
 30
0
 11
1.1996529705
 21
2.5055019467
 31
0
  0
LINE
  5
2AD
100
AcDbEntity
  8
SEMA2D
100
AcDbLine
370
9
 62
0
 48
0
  6
_SOLID
 10
1.2051529705
 20
2.4831385713
 30
0
 11
1.2051529705
 21
2.4972133175
 31
0
  0
LINE
  5
2AE
100
AcDbEntity
  8
SEMA2D
100
AcDbLine
370
9
 62
0
 48
0
  6
_SOLID
 10
1.2008411029
 20
2.4997494013
 30
0
 11
1.2035687939
 21
2.4991696127
 31
0
  0
LINE
  5
2AF
100
AcDbEntity
  8
SEMA2D
100
AcDbLine
370
9
 62
0
 48
0
  6
_SOLID
 10
1.2029294276
 20
2.4802407938
 30
0
 11
1.1997118276
 21
2.4793786405
 31
0
  0
LINE
  5
2B0
100
AcDbEntity
  8
SEMA2D
100
AcDbLine
370
9
 62
0
 48
0
  6
_SOLID
 10
1.1976529705
 20
2.4603435482
 30
0
 11
1.1976529705
 21
2.4647687368
 31
0
  0
ARC
  5
2B1
100
AcDbEntity
  8
SEMA2D
100
AcDbCircle
370
9
 62
0
 48
0
  6
_SOLID
 10
1.1956529705
 20
2.4647687368
 30
0
 40
0.002
100
AcDbArc
 50
0
 51
50.8332892817992
  0
ARC
  5
2B2
100
AcDbEntity
  8
SEMA2D
100
AcDbCircle
370
9
 62
0
 48
0
  6
_SOLID
 10
1.2001529705
 20
2.4564705649
 30
0
 40
0.0025
100
AcDbArc
 50
0
 51
104.477512185244
  0
ARC
  5
2B3
100
AcDbEntity
  8
SEMA2D
100
AcDbCircle
370
9
 62
0
 48
0
  6
_SOLID
 10
1.2021529705
 20
2.4831385713
 30
0
 40
0.003
100
AcDbArc
 50
284.999999999698
 51
0
  0
ARC
  5
2B4
100
AcDbEntity
  8
SEMA2D
100
AcDbCircle
370
9
 62
0
 48
0
  6
_SOLID
 10
1.3178861627
 20
2.4679705649
 30
0
 40
0.018
100
AcDbArc
 50
93.9284499385035
 51
265.584470499217
  0
ARC
  5
2B5
100
AcDbEntity
  8
SEMA2D
100
AcDbCircle
370
9
 62
0
 48
0
  6
_SOLID
 10
1.2031529705
 20
2.4972133175
 30
0
 40
0.002
100
AcDbArc
 50
0
 51
78.0000000005911
  0
ARC
  5
2B6
100
AcDbEntity
  8
SEMA2D
100
AcDbCircle
370
9
 62
0
 48
0
  6
_SOLID
 10
1.2096529705
 20
2.5080019467
 30
0
 40
0.001
100
AcDbArc
 50
270
 51
0
  0
ARC
  5
2B7
100
AcDbEntity
  8
SEMA2D
100
AcDbCircle
370
9
 62
0
 48
0
  6
_SOLID
 10
1.2156529705
 20
2.5079458051
 30
0
 40
0.001
100
AcDbArc
 50
180
 51
250.709953782971
  0
LINE
  5
2B8
100
AcDbEntity
  8
SEMA2D
100
AcDbLine
370
9
 62
0
 48
0
  6
_SOLID
 10
1.1996529705
 20
2.1850019467
 30
0
 11
1.1991529705
 21
2.1850019467
 31
0
  0
LINE
  5
2B9
100
AcDbEntity
  8
SEMA2D
100
AcDbLine
370
9
 62
0
 48
0
  6
_SOLID
 10
1.2214542656
 20
2.2370019467
 30
0
 11
1.1959643158
 21
2.2370019467
 31
0
  0
LINE
  5
2BA
100
AcDbEntity
  8
SEMA2D
100
AcDbLine
370
9
 62
0
 48
0
  6
_SOLID
 10
1.2175982769
 20
2.2370019467
 30
0
 11
1.2014925831
 21
2.2370019467
 31
0
  0
LINE
  5
2BB
100
AcDbEntity
  8
SEMA2D
100
AcDbLine
370
9
 62
0
 48
0
  6
_SOLID
 10
1.2166529705
 20
2.2405231588
 30
0
 11
1.2056529705
 21
2.2399292194
 31
0
  0
LINE
  5
2BC
100
AcDbEntity
  8
SEMA2D
100
AcDbLine
370
9
 62
0
 48
0
  6
_SOLID
 10
1.2166529705
 20
2.2334807346
 30
0
 11
1.2056529705
 21
2.2340746739
 31
0
  0
LINE
  5
2BD
100
AcDbEntity
  8
SEMA2D
100
AcDbLine
370
9
 62
0
 48
0
  6
_SOLID
 10
1.2006529705
 20
2.231023267
 30
0
 11
1.2006529705
 21
2.2429806263
 31
0
  0
LINE
  5
2BE
100
AcDbEntity
  8
SEMA2D
100
AcDbLine
370
9
 62
0
 48
0
  6
_SOLID
 10
1.2036529705
 20
2.2341595224
 30
0
 11
1.2036529705
 21
2.2398443709
 31
0
  0
LINE
  5
2BF
100
AcDbEntity
  8
SEMA2D
100
AcDbLine
370
9
 62
0
 48
0
  6
_SOLID
 10
1.2006529705
 20
2.2412432939
 30
0
 11
1.2036529705
 21
2.2398443709
 31
0
  0
LINE
  5
2C0
100
AcDbEntity
  8
SEMA2D
100
AcDbLine
370
9
 62
0
 48
0
  6
_SOLID
 10
1.2006529705
 20
2.2327605995
 30
0
 11
1.2036529705
 21
2.2341595224
 31
0
  0
LINE
  5
2C1
100
AcDbEntity
  8
SEMA2D
100
AcDbLine
370
9
 62
0
 48
0
  6
_SOLID
 10
1.202067184
 20
2.2289877331
 30
0
 11
1.2010923103
 21
2.2299626068
 31
0
  0
LINE
  5
2C2
100
AcDbEntity
  8
SEMA2D
100
AcDbLine
370
9
 62
0
 48
0
  6
_SOLID
 10
1.2010923103
 20
2.2440412865
 30
0
 11
1.202067184
 21
2.2450161602
 31
0
  0
LINE
  5
2C3
100
AcDbEntity
  8
SEMA2D
100
AcDbLine
370
9
 62
0
 48
0
  6
_SOLID
 10
1.2056529705
 20
2.2340746739
 30
0
 11
1.2056529705
 21
2.2399292194
 31
0
  0
ARC
  5
2C4
100
AcDbEntity
  8
SEMA2D
100
AcDbCircle
370
9
 62
0
 48
0
  6
_SOLID
 10
1.2006529705
 20
2.2275735195
 30
0
 40
0.002
100
AcDbArc
 50
0
 51
44.9999999999955
  0
ARC
  5
2C5
100
AcDbEntity
  8
SEMA2D
100
AcDbCircle
370
9
 62
0
 48
0
  6
_SOLID
 10
1.2006529705
 20
2.2464303738
 30
0
 40
0.002
100
AcDbArc
 50
315.000000000004
 51
0
  0
ARC
  5
2C6
100
AcDbEntity
  8
SEMA2D
100
AcDbCircle
370
9
 62
0
 48
0
  6
_SOLID
 10
1.2021529705
 20
2.2429806263
 30
0
 40
0.0015
100
AcDbArc
 50
134.999999999994
 51
180
  0
ARC
  5
2C7
100
AcDbEntity
  8
SEMA2D
100
AcDbCircle
370
9
 62
0
 48
0
  6
_SOLID
 10
1.2021529705
 20
2.231023267
 30
0
 40
0.0015
100
AcDbArc
 50
180
 51
225.000000000006
  0
ARC
  5
2C8
100
AcDbEntity
  8
SEMA2D
100
AcDbCircle
370
9
 62
0
 48
0
  6
_SOLID
 10
1.1936529705
 20
2.1300282807
 30
0
 40
0.001
100
AcDbArc
 50
0
 51
90
  0
ARC
  5
2C9
100
AcDbEntity
  8
SEMA2D
100
AcDbCircle
370
9
 62
0
 48
0
  6
_SOLID
 10
1.1996529705
 20
2.1300019467
 30
0
 40
0.001
100
AcDbArc
 50
90
 51
180
  0
ARC
  5
2CA
100
AcDbEntity
  8
SEMA2D
100
AcDbCircle
370
9
 62
0
 48
0
  6
_SOLID
 10
1.3146529705
 20
2.1300019467
 30
0
 40
0.001
100
AcDbArc
 50
90
 51
180
  0
ARC
  5
2CB
100
AcDbEntity
  8
SEMA2D
100
AcDbCircle
370
9
 62
0
 48
0
  6
_SOLID
 10
1.3151529705
 20
2.1325019467
 30
0
 40
0.0015
100
AcDbArc
 50
270
 51
0
  0
ARC
  5
2CC
100
AcDbEntity
  8
SEMA2D
100
AcDbCircle
370
9
 62
0
 48
0
  6
_SOLID
 10
1.3151529705
 20
2.1365019467
 30
0
 40
0.0015
100
AcDbArc
 50
0
 51
90
  0
ARC
  5
2CD
100
AcDbEntity
  8
SEMA2D
100
AcDbCircle
370
9
 62
0
 48
0
  6
_SOLID
 10
1.3151529705
 20
2.5055019467
 30
0
 40
0.0015
100
AcDbArc
 50
0
 51
90
  0
ARC
  5
2CE
100
AcDbEntity
  8
SEMA2D
100
AcDbCircle
370
9
 62
0
 48
0
  6
_SOLID
 10
1.3146529705
 20
2.5080019467
 30
0
 40
0.001
100
AcDbArc
 50
180
 51
270
  0
LINE
  5
2CF
100
AcDbEntity
  8
SEMA2D
100
AcDbLine
370
9
 62
0
 48
0
  6
_SOLID
 10
1.2516529705
 20
2.5580019464
 30
0
 11
1.3166529705
 21
2.5580019464
 31
0
  0
MTEXT
  5
2D1
100
AcDbEntity
  8
SEMATEXT
100
AcDbMText
370
9
 62
0
 10
1.27967736156481
 20
2.56256706751389
 30
0
 40
0.008
  1
{\fArial Narrow;65}
 50
0
 41
0
  7
STANDARD
 71
7
  0
LINE
  5
2D6
100
AcDbEntity
  8
SEMA2D
100
AcDbLine
370
9
 62
0
 48
0
  6
_SOLID
 10
1.2516529705
 20
2.5580019464
 30
0
 11
1.2516529705
 21
2.5650019464
 31
0
  0
LINE
  5
2D7
100
AcDbEntity
  8
SEMA2D
100
AcDbLine
370
9
 62
0
 48
0
  6
_SOLID
 10
1.2516529705
 20
2.5580019464
 30
0
 11
1.2516529705
 21
2.5510019464
 31
0
  0
LINE
  5
2D8
100
AcDbEntity
  8
SEMA2D
100
AcDbLine
370
9
 62
0
 48
0
  6
_SOLID
 10
1.2516529705
 20
2.5580019464
 30
0
 11
1.25771514832649
 21
2.5615019464
 31
0
  0
LINE
  5
2D9
100
AcDbEntity
  8
SEMA2D
100
AcDbLine
370
9
 62
0
 48
0
  6
_SOLID
 10
1.2516529705
 20
2.5580019464
 30
0
 11
1.24559079267351
 21
2.5545019464
 31
0
  0
LINE
  5
2DA
100
AcDbEntity
  8
SEMA2D
100
AcDbLine
370
9
 62
0
 48
0
  6
_DOT
 10
1.2516529705
 20
2.5090019467
 30
0
 11
1.2516529705
 21
2.5580019464
 31
0
  0
LINE
  5
2DB
100
AcDbEntity
  8
SEMA2D
100
AcDbLine
370
9
 62
0
 48
0
  6
_SOLID
 10
1.3166529705
 20
2.5580019464
 30
0
 11
1.3166529705
 21
2.5650019464
 31
0
  0
LINE
  5
2DC
100
AcDbEntity
  8
SEMA2D
100
AcDbLine
370
9
 62
0
 48
0
  6
_SOLID
 10
1.3166529705
 20
2.5580019464
 30
0
 11
1.3166529705
 21
2.5510019464
 31
0
  0
LINE
  5
2DD
100
AcDbEntity
  8
SEMA2D
100
AcDbLine
370
9
 62
0
 48
0
  6
_SOLID
 10
1.3166529705
 20
2.5580019464
 30
0
 11
1.32271514832649
 21
2.5615019464
 31
0
  0
LINE
  5
2DE
100
AcDbEntity
  8
SEMA2D
100
AcDbLine
370
9
 62
0
 48
0
  6
_SOLID
 10
1.3166529705
 20
2.5580019464
 30
0
 11
1.31059079267351
 21
2.5545019464
 31
0
  0
LINE
  5
2DF
100
AcDbEntity
  8
SEMA2D
100
AcDbLine
370
9
 62
0
 48
0
  6
_DOT
 10
1.3166529705
 20
2.5090019467
 30
0
 11
1.3166529705
 21
2.5580019464
 31
0
  0
LINE
  5
2E0
100
AcDbEntity
  8
SEMA2D
100
AcDbLine
370
9
 62
0
 48
0
  6
_SOLID
 10
1.1969244047
 20
2.1602808366
 30
0
 11
1.2137800995
 21
2.1667856626
 31
0
  0
LINE
  5
2E1
100
AcDbEntity
  8
SEMA2D
100
AcDbLine
370
9
 62
0
 48
0
  6
_SOLID
 10
1.2157
 20
2.1695844811
 30
0
 11
1.2157
 21
2.1727032547
 31
0
  0
LINE
  5
2E2
100
AcDbEntity
  8
SEMA2D
100
AcDbLine
370
9
 62
0
 48
0
  6
_SOLID
 10
1.5135291189
 20
2.0089021415
 30
0
 11
1.5436795771
 21
2.0089021415
 31
0
  0
LINE
  5
2E3
100
AcDbEntity
  8
SEMA2D
100
AcDbLine
370
9
 62
0
 48
0
  6
_SOLID
 10
1.5100291189
 20
2.0059021415
 30
0
 11
1.5100291189
 21
2.0019021415
 31
0
  0
LINE
  5
2E4
100
AcDbEntity
  8
SEMA2D
100
AcDbLine
370
9
 62
0
 48
0
  6
_SOLID
 10
1.6236550309
 20
1.8989021421
 30
0
 11
1.6425291189
 21
1.8989021421
 31
0
  0
LINE
  5
2E5
100
AcDbEntity
  8
SEMA2D
100
AcDbLine
370
9
 62
0
 48
0
  6
_SOLID
 10
1.6097121525
 20
1.8739021421
 30
0
 11
1.6425291189
 21
1.8739021421
 31
0
  0
ARC
  5
2E6
100
AcDbEntity
  8
SEMA2D
100
AcDbCircle
370
9
 62
0
 48
0
  6
_SOLID
 10
1.6132022593
 20
2.013279343
 30
0
 40
0.0678145546
100
AcDbArc
 50
185.240981303028
 51
245.212082072848
  0
LINE
  5
2E7
100
AcDbEntity
  8
SEMA2D
100
AcDbLine
370
9
 62
0
 48
0
  6
_SOLID
 10
1.5100291189
 20
2.0059021415
 30
0
 11
1.5305300132
 21
2.0059021415
 31
0
  0
LINE
  5
2E8
100
AcDbEntity
  8
SEMA2D
100
AcDbLine
370
9
 62
0
 48
0
  6
_SOLID
 10
1.5100291189
 20
2.0019021415
 30
0
 11
1.5266269154
 21
2.0019021415
 31
0
  0
LINE
  5
2E9
100
AcDbEntity
  8
SEMA2D
100
AcDbLine
370
9
 62
0
 48
0
  6
_SOLID
 10
1.6217621627
 20
1.9299021421
 30
0
 11
1.6425291189
 21
1.9299021421
 31
0
  0
LINE
  5
2EA
100
AcDbEntity
  8
SEMA2D
100
AcDbLine
370
9
 62
0
 48
0
  6
_SOLID
 10
1.5100291189
 20
2.0059021415
 30
0
 11
1.5100291189
 21
2.0019021415
 31
0
  0
LINE
  5
2EB
100
AcDbEntity
  8
SEMA2D
100
AcDbLine
370
9
 62
0
 48
0
  6
_SOLID
 10
1.5120291189
 20
2.0074021415
 30
0
 11
1.5120291189
 21
2.0069021415
 31
0
  0
ARC
  5
2EC
100
AcDbEntity
  8
SEMA2D
100
AcDbCircle
370
9
 62
0
 48
0
  6
_SOLID
 10
1.6105291189
 20
2.0059021415
 30
0
 40
0.0985811848
100
AcDbArc
 50
182.878047767414
 51
244.539538563426
  0
ARC
  5
2ED
100
AcDbEntity
  8
SEMA2D
100
AcDbCircle
370
9
 62
0
 48
0
  6
_SOLID
 10
1.560599728
 20
1.8665229222
 30
0
 40
0.048
100
AcDbArc
 50
10.8118451113678
 51
58.937827944477
  0
ARC
  5
2EE
100
AcDbEntity
  8
SEMA2D
100
AcDbCircle
370
9
 62
0
 48
0
  6
_SOLID
 10
1.4821726087
 20
1.7363185177
 30
0
 40
0.2
100
AcDbArc
 50
58.9378279444769
 51
64.5395385634256
  0
ARC
  5
2EF
100
AcDbEntity
  8
SEMA2D
100
AcDbCircle
370
9
 62
0
 48
0
  6
_SOLID
 10
1.6097121525
 20
1.8759021415
 30
0
 40
0.002
100
AcDbArc
 50
190.811845111366
 51
270
  0
ARC
  5
2F0
100
AcDbEntity
  8
SEMA2D
100
AcDbCircle
370
9
 62
0
 48
0
  6
_SOLID
 10
1.6104182025
 20
2.0073660052
 30
0
 40
0.0768834715
100
AcDbArc
 50
180.364892517719
 51
245.091812020432
  0
ARC
  5
2F1
100
AcDbEntity
  8
SEMA2D
100
AcDbCircle
370
9
 62
0
 48
0
  6
_SOLID
 10
1.4821726087
 20
1.7363185177
 30
0
 40
0.2229753
100
AcDbArc
 50
59.6825534918446
 51
64.5395385634256
  0
ARC
  5
2F2
100
AcDbEntity
  8
SEMA2D
100
AcDbCircle
370
9
 62
0
 48
0
  6
_SOLID
 10
1.5560079357
 20
1.8693172211
 30
0
 40
0.0709753
100
AcDbArc
 50
27.078619674423
 51
56.9378279409935
  0
ARC
  5
2F3
100
AcDbEntity
  8
SEMA2D
100
AcDbCircle
370
9
 62
0
 48
0
  6
_SOLID
 10
1.6236550309
 20
1.9039021415
 30
0
 40
0.005
100
AcDbArc
 50
207.078619674423
 51
270
  0
ARC
  5
2F4
100
AcDbEntity
  8
SEMA2D
100
AcDbCircle
370
9
 62
0
 48
0
  6
_SOLID
 10
1.4821726087
 20
1.7363185177
 30
0
 40
0.2385812
100
AcDbArc
 50
56.1774851697194
 51
64.5487015508592
  0
ARC
  5
2F5
100
AcDbEntity
  8
SEMA2D
100
AcDbCircle
370
9
 62
0
 48
0
  6
_SOLID
 10
1.5954904067
 20
1.9054468171
 30
0
 40
0.035
100
AcDbArc
 50
356.510798408569
 51
56.1774851697195
  0
LINE
  5
2F6
100
AcDbEntity
  8
SEMA2D
100
AcDbLine
370
9
 62
0
 48
0
  6
_SOLID
 10
1.6311322266
 20
1.9139021421
 30
0
 11
1.6425291189
 21
1.9139021421
 31
0
  0
ARC
  5
2F7
100
AcDbEntity
  8
SEMA2D
100
AcDbCircle
370
9
 62
0
 48
0
  6
_SOLID
 10
1.6217621627
 20
1.9329021415
 30
0
 40
0.003
100
AcDbArc
 50
226.261980219834
 51
270
  0
LINE
  5
2F8
100
AcDbEntity
  8
SEMA2D
100
AcDbLine
370
9
 62
0
 48
0
  6
_SOLID
 10
1.6614032069
 20
1.8989021421
 30
0
 11
1.6425291189
 21
1.8989021421
 31
0
  0
LINE
  5
2F9
100
AcDbEntity
  8
SEMA2D
100
AcDbLine
370
9
 62
0
 48
0
  6
_SOLID
 10
1.6753460853
 20
1.8739021421
 30
0
 11
1.6425291189
 21
1.8739021421
 31
0
  0
LINE
  5
2FA
100
AcDbEntity
  8
SEMA2D
100
AcDbLine
370
9
 62
0
 48
0
  6
_SOLID
 10
1.6632960751
 20
1.9299021421
 30
0
 11
1.6425291189
 21
1.9299021421
 31
0
  0
LINE
  5
2FB
100
AcDbEntity
  8
SEMA2D
100
AcDbLine
370
9
 62
0
 48
0
  6
_SOLID
 10
1.6539260112
 20
1.9139021421
 30
0
 11
1.6425291189
 21
1.9139021421
 31
0
  0
ARC
  5
2FC
100
AcDbEntity
  8
SEMA2D
100
AcDbCircle
370
9
 62
0
 48
0
  6
_SOLID
 10
1.6104275716
 20
2.007392658
 30
0
 40
0.0799114603
100
AcDbArc
 50
181.068748550495
 51
245.073365568423
  0
ARC
  5
2FD
100
AcDbEntity
  8
SEMA2D
100
AcDbCircle
370
9
 62
0
 48
0
  6
_SOLID
 10
1.4821726087
 20
1.7363185177
 30
0
 40
0.2199753
100
AcDbArc
 50
59.6825534918445
 51
64.5395385634256
  0
ARC
  5
2FE
100
AcDbEntity
  8
SEMA2D
100
AcDbCircle
370
9
 62
0
 48
0
  6
_SOLID
 10
1.5560079357
 20
1.8693172211
 30
0
 40
0.0679753
100
AcDbArc
 50
27.078619674423
 51
56.9378279409934
  0
ARC
  5
2FF
100
AcDbEntity
  8
SEMA2D
100
AcDbCircle
370
9
 62
0
 48
0
  6
_SOLID
 10
1.6236550309
 20
1.9039021415
 30
0
 40
0.008
100
AcDbArc
 50
207.078619674423
 51
270
  0
LINE
  5
300
100
AcDbEntity
  8
SEMA2D
100
AcDbLine
370
9
 62
0
 48
0
  6
_SOLID
 10
1.6236550309
 20
1.8959021421
 30
0
 11
1.6425291189
 21
1.8959021421
 31
0
  0
LINE
  5
301
100
AcDbEntity
  8
SEMA2D
100
AcDbLine
370
9
 62
0
 48
0
  6
_SOLID
 10
1.6614032069
 20
1.8959021421
 30
0
 11
1.6425291189
 21
1.8959021421
 31
0
  0
ARC
  5
302
100
AcDbEntity
  8
SEMA2D
100
AcDbCircle
370
9
 62
0
 48
0
  6
_SOLID
 10
1.6104645293
 20
2.0075000907
 30
0
 40
0.0840242973
100
AcDbArc
 50
183.82004519942
 51
245.056393688357
  0
ARC
  5
303
100
AcDbEntity
  8
SEMA2D
100
AcDbCircle
370
9
 62
0
 48
0
  6
_SOLID
 10
1.4821726087
 20
1.7363185177
 30
0
 40
0.2159753
100
AcDbArc
 50
59.6825534918445
 51
64.5395385634256
  0
ARC
  5
304
100
AcDbEntity
  8
SEMA2D
100
AcDbCircle
370
9
 62
0
 48
0
  6
_SOLID
 10
1.5560079357
 20
1.8693172211
 30
0
 40
0.0639753
100
AcDbArc
 50
27.078619674423
 51
56.9378279409934
  0
ARC
  5
305
100
AcDbEntity
  8
SEMA2D
100
AcDbCircle
370
9
 62
0
 48
0
  6
_SOLID
 10
1.6236550309
 20
1.9039021415
 30
0
 40
0.012
100
AcDbArc
 50
207.078619674423
 51
270
  0
LINE
  5
306
100
AcDbEntity
  8
SEMA2D
100
AcDbLine
370
9
 62
0
 48
0
  6
_SOLID
 10
1.6236550309
 20
1.8919021421
 30
0
 11
1.6425291189
 21
1.8919021421
 31
0
  0
LINE
  5
307
100
AcDbEntity
  8
SEMA2D
100
AcDbLine
370
9
 62
0
 48
0
  6
_SOLID
 10
1.6614032069
 20
1.8919021421
 30
0
 11
1.6425291189
 21
1.8919021421
 31
0
  0
ARC
  5
308
100
AcDbEntity
  8
SEMA2D
100
AcDbCircle
370
9
 62
0
 48
0
  6
_SOLID
 10
1.5135291189
 20
2.0074021415
 30
0
 40
0.0015
100
AcDbArc
 50
90
 51
180
  0
ARC
  5
309
100
AcDbEntity
  8
SEMA2D
100
AcDbCircle
370
9
 62
0
 48
0
  6
_SOLID
 10
1.5110291189
 20
2.0069021415
 30
0
 40
0.001
100
AcDbArc
 50
270
 51
0
  0
ARC
  5
30A
100
AcDbEntity
  8
SEMA2D
100
AcDbCircle
370
9
 62
0
 48
0
  6
_SOLID
 10
1.511073539
 20
2.0009021415
 30
0
 40
0.001
100
AcDbArc
 50
2.87804776741394
 51
90
  0
ARC
  5
30B
100
AcDbEntity
  8
SEMA2D
100
AcDbCircle
370
9
 62
0
 48
0
  6
_SOLID
 10
1.5315364563
 20
2.0069021415
 30
0
 40
0.002
100
AcDbArc
 50
-0.738312109246914
 51
90
  0
LINE
  5
30C
100
AcDbEntity
  8
SEMA2D
100
AcDbLine
370
9
 62
0
 48
0
  6
_SOLID
 10
1.6193505179
 20
1.8977069638
 30
0
 11
1.6197682594
 21
1.8986402301
 31
0
  0
LINE
  5
30D
100
AcDbEntity
  8
SEMA2D
100
AcDbLine
370
9
 62
0
 48
0
  6
_SOLID
 10
1.6096808433
 20
1.8761041724
 30
0
 11
1.6172239643
 21
1.8929560806
 31
0
  0
ARC
  5
30E
100
AcDbEntity
  8
SEMA2D
100
AcDbCircle
370
9
 62
0
 48
0
  6
_SOLID
 10
1.5436795771
 20
2.0069021415
 30
0
 40
0.002
100
AcDbArc
 50
5.24098130302775
 51
90
  0
LINE
  5
30F
100
AcDbEntity
  8
SEMA2D
100
AcDbLine
370
9
 62
0
 48
0
  6
_SOLID
 10
1.7715291189
 20
2.0089021421
 30
0
 11
1.7413786607
 21
2.0089021421
 31
0
  0
LINE
  5
310
100
AcDbEntity
  8
SEMA2D
100
AcDbLine
370
9
 62
0
 48
0
  6
_SOLID
 10
1.7750291189
 20
2.0059021421
 30
0
 11
1.7750291189
 21
2.0019021421
 31
0
  0
ARC
  5
311
100
AcDbEntity
  8
SEMA2D
100
AcDbCircle
370
9
 62
0
 48
0
  6
_SOLID
 10
1.6718559785
 20
2.0132793436
 30
0
 40
0.0678145546
100
AcDbArc
 50
294.787917927152
 51
354.759018696971
  0
LINE
  5
312
100
AcDbEntity
  8
SEMA2D
100
AcDbLine
370
9
 62
0
 48
0
  6
_SOLID
 10
1.7750291189
 20
2.0059021421
 30
0
 11
1.7545282246
 21
2.0059021421
 31
0
  0
LINE
  5
313
100
AcDbEntity
  8
SEMA2D
100
AcDbLine
370
9
 62
0
 48
0
  6
_SOLID
 10
1.7750291189
 20
2.0019021421
 30
0
 11
1.7584313224
 21
2.0019021421
 31
0
  0
LINE
  5
314
100
AcDbEntity
  8
SEMA2D
100
AcDbLine
370
9
 62
0
 48
0
  6
_SOLID
 10
1.7750291189
 20
2.0059021421
 30
0
 11
1.7750291189
 21
2.0019021421
 31
0
  0
LINE
  5
315
100
AcDbEntity
  8
SEMA2D
100
AcDbLine
370
9
 62
0
 48
0
  6
_SOLID
 10
1.7730291189
 20
2.0074021421
 30
0
 11
1.7730291189
 21
2.0069021421
 31
0
  0
ARC
  5
316
100
AcDbEntity
  8
SEMA2D
100
AcDbCircle
370
9
 62
0
 48
0
  6
_SOLID
 10
1.6745291189
 20
2.0059021421
 30
0
 40
0.0985811848
100
AcDbArc
 50
295.460461436574
 51
357.121952232586
  0
ARC
  5
317
100
AcDbEntity
  8
SEMA2D
100
AcDbCircle
370
9
 62
0
 48
0
  6
_SOLID
 10
1.7244585098
 20
1.8665229228
 30
0
 40
0.048
100
AcDbArc
 50
121.062172055523
 51
169.188154888632
  0
ARC
  5
318
100
AcDbEntity
  8
SEMA2D
100
AcDbCircle
370
9
 62
0
 48
0
  6
_SOLID
 10
1.8028856291
 20
1.7363185183
 30
0
 40
0.2
100
AcDbArc
 50
115.460461436574
 51
121.062172055523
  0
ARC
  5
319
100
AcDbEntity
  8
SEMA2D
100
AcDbCircle
370
9
 62
0
 48
0
  6
_SOLID
 10
1.6753460853
 20
1.8759021421
 30
0
 40
0.002
100
AcDbArc
 50
270
 51
349.188154888634
  0
ARC
  5
31A
100
AcDbEntity
  8
SEMA2D
100
AcDbCircle
370
9
 62
0
 48
0
  6
_SOLID
 10
1.6746400353
 20
2.0073660058
 30
0
 40
0.0768834715
100
AcDbArc
 50
294.908187979568
 51
359.63510748228
  0
ARC
  5
31B
100
AcDbEntity
  8
SEMA2D
100
AcDbCircle
370
9
 62
0
 48
0
  6
_SOLID
 10
1.8028856291
 20
1.7363185183
 30
0
 40
0.2229753
100
AcDbArc
 50
115.460461436574
 51
120.317446508155
  0
ARC
  5
31C
100
AcDbEntity
  8
SEMA2D
100
AcDbCircle
370
9
 62
0
 48
0
  6
_SOLID
 10
1.7290503021
 20
1.8693172217
 30
0
 40
0.0709753
100
AcDbArc
 50
123.062172059007
 51
152.921380325577
  0
ARC
  5
31D
100
AcDbEntity
  8
SEMA2D
100
AcDbCircle
370
9
 62
0
 48
0
  6
_SOLID
 10
1.6614032069
 20
1.9039021421
 30
0
 40
0.005
100
AcDbArc
 50
270
 51
332.921380325577
  0
ARC
  5
31E
100
AcDbEntity
  8
SEMA2D
100
AcDbCircle
370
9
 62
0
 48
0
  6
_SOLID
 10
1.8028856291
 20
1.7363185183
 30
0
 40
0.2385812
100
AcDbArc
 50
115.451298449141
 51
123.822514830281
  0
ARC
  5
31F
100
AcDbEntity
  8
SEMA2D
100
AcDbCircle
370
9
 62
0
 48
0
  6
_SOLID
 10
1.6895678311
 20
1.9054468177
 30
0
 40
0.035
100
AcDbArc
 50
123.82251483028
 51
183.489201591431
  0
ARC
  5
320
100
AcDbEntity
  8
SEMA2D
100
AcDbCircle
370
9
 62
0
 48
0
  6
_SOLID
 10
1.6632960751
 20
1.9329021421
 30
0
 40
0.003
100
AcDbArc
 50
270
 51
313.738019780166
  0
ARC
  5
321
100
AcDbEntity
  8
SEMA2D
100
AcDbCircle
370
9
 62
0
 48
0
  6
_SOLID
 10
1.6746306662
 20
2.0073926586
 30
0
 40
0.0799114603
100
AcDbArc
 50
294.926634431577
 51
358.931251449505
  0
ARC
  5
322
100
AcDbEntity
  8
SEMA2D
100
AcDbCircle
370
9
 62
0
 48
0
  6
_SOLID
 10
1.8028856291
 20
1.7363185183
 30
0
 40
0.2199753
100
AcDbArc
 50
115.460461436574
 51
120.317446508155
  0
ARC
  5
323
100
AcDbEntity
  8
SEMA2D
100
AcDbCircle
370
9
 62
0
 48
0
  6
_SOLID
 10
1.7290503021
 20
1.8693172217
 30
0
 40
0.0679753
100
AcDbArc
 50
123.062172059007
 51
152.921380325577
  0
ARC
  5
324
100
AcDbEntity
  8
SEMA2D
100
AcDbCircle
370
9
 62
0
 48
0
  6
_SOLID
 10
1.6614032069
 20
1.9039021421
 30
0
 40
0.008
100
AcDbArc
 50
270
 51
332.921380325577
  0
ARC
  5
325
100
AcDbEntity
  8
SEMA2D
100
AcDbCircle
370
9
 62
0
 48
0
  6
_SOLID
 10
1.6745937085
 20
2.0075000913
 30
0
 40
0.0840242973
100
AcDbArc
 50
294.943606311643
 51
356.17995480058
  0
ARC
  5
326
100
AcDbEntity
  8
SEMA2D
100
AcDbCircle
370
9
 62
0
 48
0
  6
_SOLID
 10
1.8028856291
 20
1.7363185183
 30
0
 40
0.2159753
100
AcDbArc
 50
115.460461436574
 51
120.317446508155
  0
ARC
  5
327
100
AcDbEntity
  8
SEMA2D
100
AcDbCircle
370
9
 62
0
 48
0
  6
_SOLID
 10
1.7290503021
 20
1.8693172217
 30
0
 40
0.0639753
100
AcDbArc
 50
123.062172059007
 51
152.921380325577
  0
ARC
  5
328
100
AcDbEntity
  8
SEMA2D
100
AcDbCircle
370
9
 62
0
 48
0
  6
_SOLID
 10
1.6614032069
 20
1.9039021421
 30
0
 40
0.012
100
AcDbArc
 50
270
 51
332.921380325577
  0
ARC
  5
329
100
AcDbEntity
  8
SEMA2D
100
AcDbCircle
370
9
 62
0
 48
0
  6
_SOLID
 10
1.7715291189
 20
2.0074021421
 30
0
 40
0.0015
100
AcDbArc
 50
0
 51
90
  0
ARC
  5
32A
100
AcDbEntity
  8
SEMA2D
100
AcDbCircle
370
9
 62
0
 48
0
  6
_SOLID
 10
1.7740291189
 20
2.0069021421
 30
0
 40
0.001
100
AcDbArc
 50
180
 51
270
  0
ARC
  5
32B
100
AcDbEntity
  8
SEMA2D
100
AcDbCircle
370
9
 62
0
 48
0
  6
_SOLID
 10
1.7739846988
 20
2.0009021421
 30
0
 40
0.001
100
AcDbArc
 50
90
 51
177.121952232586
  0
ARC
  5
32C
100
AcDbEntity
  8
SEMA2D
100
AcDbCircle
370
9
 62
0
 48
0
  6
_SOLID
 10
1.7535217815
 20
2.0069021421
 30
0
 40
0.002
100
AcDbArc
 50
90
 51
180.738312109247
  0
LINE
  5
32D
100
AcDbEntity
  8
SEMA2D
100
AcDbLine
370
9
 62
0
 48
0
  6
_SOLID
 10
1.6657077199
 20
1.8977069644
 30
0
 11
1.6652899784
 21
1.8986402307
 31
0
  0
LINE
  5
32E
100
AcDbEntity
  8
SEMA2D
100
AcDbLine
370
9
 62
0
 48
0
  6
_SOLID
 10
1.6753773945
 20
1.876104173
 30
0
 11
1.6678342735
 21
1.8929560812
 31
0
  0
ARC
  5
32F
100
AcDbEntity
  8
SEMA2D
100
AcDbCircle
370
9
 62
0
 48
0
  6
_SOLID
 10
1.7413786607
 20
2.0069021421
 30
0
 40
0.002
100
AcDbArc
 50
90
 51
174.759018696972
  0
LINE
  5
330
100
AcDbEntity
  8
SEMA2D
100
AcDbLine
370
9
 62
0
 48
0
  6
_DASHDOT
 10
1.6425291189
 20
2.0089019464
 30
0
 11
1.6425291189
 21
1.8882006225
 31
0
  0
LINE
  5
331
100
AcDbEntity
  8
SEMA2D
100
AcDbLine
370
9
 62
0
 48
0
  6
_DASHDOT
 10
1.5099175161
 20
2.0089019088
 30
0
 11
1.7751407196
 21
2.008901984
 31
0
  0
LINE
  5
332
100
AcDbEntity
  8
SEMA2D
100
AcDbLine
370
9
 62
0
 48
0
  6
_DASHDOT
 10
1.6425291189
 20
2.1290019467
 30
0
 11
1.6425291189
 21
2.5080019464
 31
0
  0
LINE
  5
333
100
AcDbEntity
  8
SEMA2D
100
AcDbLine
370
9
 62
0
 48
0
  6
_DASHDOT
 10
1.5325291189
 20
2.3064519464
 30
0
 11
1.7525291189
 21
2.3064519464
 31
0
  0
LINE
  5
334
100
AcDbEntity
  8
SEMA2D
100
AcDbLine
370
9
 62
0
 48
0
  6
_SOLID
 10
1.1766529705
 20
2.0790019467
 30
0
 11
1.3166529705
 21
2.0790019467
 31
0
  0
MTEXT
  5
335
100
AcDbEntity
  8
SEMATEXT
100
AcDbMText
370
9
 62
0
 10
1.24217736156481
 20
2.08356706781389
 30
0
 40
0.008
  1
{\fArial Narrow;14}
 50
0
 41
0
  7
STANDARD
 71
7
  0
LINE
  5
339
100
AcDbEntity
  8
SEMA2D
100
AcDbLine
370
9
 62
0
 48
0
  6
_SOLID
 10
1.1766529705
 20
2.0790019467
 30
0
 11
1.1766529705
 21
2.0860019467
 31
0
  0
LINE
  5
33A
100
AcDbEntity
  8
SEMA2D
100
AcDbLine
370
9
 62
0
 48
0
  6
_SOLID
 10
1.1766529705
 20
2.0790019467
 30
0
 11
1.1766529705
 21
2.0720019467
 31
0
  0
LINE
  5
33B
100
AcDbEntity
  8
SEMA2D
100
AcDbLine
370
9
 62
0
 48
0
  6
_SOLID
 10
1.1766529705
 20
2.0790019467
 30
0
 11
1.18271514832649
 21
2.0825019467
 31
0
  0
LINE
  5
33C
100
AcDbEntity
  8
SEMA2D
100
AcDbLine
370
9
 62
0
 48
0
  6
_SOLID
 10
1.1766529705
 20
2.0790019467
 30
0
 11
1.17059079267351
 21
2.0755019467
 31
0
  0
LINE
  5
33D
100
AcDbEntity
  8
SEMA2D
100
AcDbLine
370
9
 62
0
 48
0
  6
_DOT
 10
1.1766529705
 20
2.1290019467
 30
0
 11
1.1766529705
 21
2.0790019467
 31
0
  0
LINE
  5
33E
100
AcDbEntity
  8
SEMA2D
100
AcDbLine
370
9
 62
0
 48
0
  6
_SOLID
 10
1.3166529705
 20
2.0790019467
 30
0
 11
1.3166529705
 21
2.0860019467
 31
0
  0
LINE
  5
33F
100
AcDbEntity
  8
SEMA2D
100
AcDbLine
370
9
 62
0
 48
0
  6
_SOLID
 10
1.3166529705
 20
2.0790019467
 30
0
 11
1.3166529705
 21
2.0720019467
 31
0
  0
LINE
  5
340
100
AcDbEntity
  8
SEMA2D
100
AcDbLine
370
9
 62
0
 48
0
  6
_SOLID
 10
1.3166529705
 20
2.0790019467
 30
0
 11
1.32271514832649
 21
2.0825019467
 31
0
  0
LINE
  5
341
100
AcDbEntity
  8
SEMA2D
100
AcDbLine
370
9
 62
0
 48
0
  6
_SOLID
 10
1.3166529705
 20
2.0790019467
 30
0
 11
1.31059079267351
 21
2.0755019467
 31
0
  0
LINE
  5
342
100
AcDbEntity
  8
SEMA2D
100
AcDbLine
370
9
 62
0
 48
0
  6
_DOT
 10
1.3166529705
 20
2.1290019467
 30
0
 11
1.3166529705
 21
2.0790019467
 31
0
  0
LINE
  5
343
100
AcDbEntity
  8
SEMA2D
100
AcDbLine
370
9
 62
0
 48
0
  6
_SOLID
 10
1.5045291189
 20
2.0790019467
 30
0
 11
1.7805291189
 21
2.0790019467
 31
0
  0
MTEXT
  5
344
100
AcDbEntity
  8
SEMATEXT
100
AcDbMText
370
9
 62
0
 10
1.63581570549722
 20
2.08356706781389
 30
0
 40
0.008
  1
{\fArial Narrow;276}
 50
0
 41
0
  7
STANDARD
 71
7
  0
LINE
  5
348
100
AcDbEntity
  8
SEMA2D
100
AcDbLine
370
9
 62
0
 48
0
  6
_SOLID
 10
1.5045291189
 20
2.0790019467
 30
0
 11
1.5045291189
 21
2.0860019467
 31
0
  0
LINE
  5
349
100
AcDbEntity
  8
SEMA2D
100
AcDbLine
370
9
 62
0
 48
0
  6
_SOLID
 10
1.5045291189
 20
2.0790019467
 30
0
 11
1.5045291189
 21
2.0720019467
 31
0
  0
LINE
  5
34A
100
AcDbEntity
  8
SEMA2D
100
AcDbLine
370
9
 62
0
 48
0
  6
_SOLID
 10
1.5045291189
 20
2.0790019467
 30
0
 11
1.51059129672649
 21
2.0825019467
 31
0
  0
LINE
  5
34B
100
AcDbEntity
  8
SEMA2D
100
AcDbLine
370
9
 62
0
 48
0
  6
_SOLID
 10
1.5045291189
 20
2.0790019467
 30
0
 11
1.49846694107351
 21
2.0755019467
 31
0
  0
LINE
  5
34C
100
AcDbEntity
  8
SEMA2D
100
AcDbLine
370
9
 62
0
 48
0
  6
_DOT
 10
1.5045291189
 20
2.1300019467
 30
0
 11
1.5045291189
 21
2.0790019467
 31
0
  0
LINE
  5
34D
100
AcDbEntity
  8
SEMA2D
100
AcDbLine
370
9
 62
0
 48
0
  6
_SOLID
 10
1.7805291189
 20
2.0790019467
 30
0
 11
1.7805291189
 21
2.0860019467
 31
0
  0
LINE
  5
34E
100
AcDbEntity
  8
SEMA2D
100
AcDbLine
370
9
 62
0
 48
0
  6
_SOLID
 10
1.7805291189
 20
2.0790019467
 30
0
 11
1.7805291189
 21
2.0720019467
 31
0
  0
LINE
  5
34F
100
AcDbEntity
  8
SEMA2D
100
AcDbLine
370
9
 62
0
 48
0
  6
_SOLID
 10
1.7805291189
 20
2.0790019467
 30
0
 11
1.78659129672649
 21
2.0825019467
 31
0
  0
LINE
  5
350
100
AcDbEntity
  8
SEMA2D
100
AcDbLine
370
9
 62
0
 48
0
  6
_SOLID
 10
1.7805291189
 20
2.0790019467
 30
0
 11
1.77446694107351
 21
2.0755019467
 31
0
  0
LINE
  5
351
100
AcDbEntity
  8
SEMA2D
100
AcDbLine
370
9
 62
0
 48
0
  6
_DOT
 10
1.7805291189
 20
2.1300019467
 30
0
 11
1.7805291189
 21
2.0790019467
 31
0
  0
LINE
  5
352
100
AcDbEntity
  8
SEMA2D
100
AcDbLine
370
9
 62
0
 48
0
  6
_SOLID
 10
1.3666529705
 20
2.1290019467
 30
0
 11
1.3666529705
 21
2.5090019467
 31
0
  0
MTEXT
  5
353
100
AcDbEntity
  8
SEMATEXT
100
AcDbMText
370
9
 62
0
 10
1.36208784938611
 20
2.31303446811975
 30
0
 40
0.008
  1
{\fArial Narrow;38}
 50
90
 41
0
  7
STANDARD
 71
7
  0
LINE
  5
357
100
AcDbEntity
  8
SEMA2D
100
AcDbLine
370
9
 62
0
 48
0
  6
_SOLID
 10
1.3666529705
 20
2.1290019467
 30
0
 11
1.3596529705
 21
2.1290019467
 31
0
  0
LINE
  5
358
100
AcDbEntity
  8
SEMA2D
100
AcDbLine
370
9
 62
0
 48
0
  6
_SOLID
 10
1.3666529705
 20
2.1290019467
 30
0
 11
1.3736529705
 21
2.1290019467
 31
0
  0
LINE
  5
359
100
AcDbEntity
  8
SEMA2D
100
AcDbLine
370
9
 62
0
 48
0
  6
_SOLID
 10
1.3666529705
 20
2.1290019467
 30
0
 11
1.3631529705
 21
2.13506412452649
 31
0
  0
LINE
  5
35A
100
AcDbEntity
  8
SEMA2D
100
AcDbLine
370
9
 62
0
 48
0
  6
_SOLID
 10
1.3666529705
 20
2.1290019467
 30
0
 11
1.3701529705
 21
2.12293976887351
 31
0
  0
LINE
  5
35B
100
AcDbEntity
  8
SEMA2D
100
AcDbLine
370
9
 62
0
 48
0
  6
_DOT
 10
1.3166529705
 20
2.1290019467
 30
0
 11
1.3666529705
 21
2.1290019467
 31
0
  0
LINE
  5
35C
100
AcDbEntity
  8
SEMA2D
100
AcDbLine
370
9
 62
0
 48
0
  6
_SOLID
 10
1.3666529705
 20
2.5090019467
 30
0
 11
1.3596529705
 21
2.5090019467
 31
0
  0
LINE
  5
35D
100
AcDbEntity
  8
SEMA2D
100
AcDbLine
370
9
 62
0
 48
0
  6
_SOLID
 10
1.3666529705
 20
2.5090019467
 30
0
 11
1.3736529705
 21
2.5090019467
 31
0
  0
LINE
  5
35E
100
AcDbEntity
  8
SEMA2D
100
AcDbLine
370
9
 62
0
 48
0
  6
_SOLID
 10
1.3666529705
 20
2.5090019467
 30
0
 11
1.3631529705
 21
2.51506412452649
 31
0
  0
LINE
  5
35F
100
AcDbEntity
  8
SEMA2D
100
AcDbLine
370
9
 62
0
 48
0
  6
_SOLID
 10
1.3666529705
 20
2.5090019467
 30
0
 11
1.3701529705
 21
2.50293976887351
 31
0
  0
LINE
  5
360
100
AcDbEntity
  8
SEMA2D
100
AcDbLine
370
9
 62
0
 48
0
  6
_DOT
 10
1.3166529705
 20
2.5090019467
 30
0
 11
1.3666529705
 21
2.5090019467
 31
0
  0
LINE
  5
361
100
AcDbEntity
  8
SEMA2D
100
AcDbLine
370
9
 62
0
 48
0
  6
_SOLID
 10
1.8805291189
 20
2.1290096583
 30
0
 11
1.8805291189
 21
2.5090019467
 31
0
  0
MTEXT
  5
362
100
AcDbEntity
  8
SEMATEXT
100
AcDbMText
370
9
 62
0
 10
1.87596399778611
 20
2.31303832391975
 30
0
 40
0.008
  1
{\fArial Narrow;38}
 50
90
 41
0
  7
STANDARD
 71
7
  0
LINE
  5
366
100
AcDbEntity
  8
SEMA2D
100
AcDbLine
370
9
 62
0
 48
0
  6
_SOLID
 10
1.8805291189
 20
2.1290096583
 30
0
 11
1.8735291189
 21
2.1290096583
 31
0
  0
LINE
  5
367
100
AcDbEntity
  8
SEMA2D
100
AcDbLine
370
9
 62
0
 48
0
  6
_SOLID
 10
1.8805291189
 20
2.1290096583
 30
0
 11
1.8875291189
 21
2.1290096583
 31
0
  0
LINE
  5
368
100
AcDbEntity
  8
SEMA2D
100
AcDbLine
370
9
 62
0
 48
0
  6
_SOLID
 10
1.8805291189
 20
2.1290096583
 30
0
 11
1.8770291189
 21
2.13507183612649
 31
0
  0
LINE
  5
369
100
AcDbEntity
  8
SEMA2D
100
AcDbLine
370
9
 62
0
 48
0
  6
_SOLID
 10
1.8805291189
 20
2.1290096583
 30
0
 11
1.8840291189
 21
2.12294748047351
 31
0
  0
LINE
  5
36A
100
AcDbEntity
  8
SEMA2D
100
AcDbLine
370
9
 62
0
 48
0
  6
_DOT
 10
1.8305291189
 20
2.1290096583
 30
0
 11
1.8805291189
 21
2.1290096583
 31
0
  0
LINE
  5
36B
100
AcDbEntity
  8
SEMA2D
100
AcDbLine
370
9
 62
0
 48
0
  6
_SOLID
 10
1.8805291189
 20
2.5090019467
 30
0
 11
1.8735291189
 21
2.5090019467
 31
0
  0
LINE
  5
36C
100
AcDbEntity
  8
SEMA2D
100
AcDbLine
370
9
 62
0
 48
0
  6
_SOLID
 10
1.8805291189
 20
2.5090019467
 30
0
 11
1.8875291189
 21
2.5090019467
 31
0
  0
LINE
  5
36D
100
AcDbEntity
  8
SEMA2D
100
AcDbLine
370
9
 62
0
 48
0
  6
_SOLID
 10
1.8805291189
 20
2.5090019467
 30
0
 11
1.8770291189
 21
2.51506412452649
 31
0
  0
LINE
  5
36E
100
AcDbEntity
  8
SEMA2D
100
AcDbLine
370
9
 62
0
 48
0
  6
_SOLID
 10
1.8805291189
 20
2.5090019467
 30
0
 11
1.8840291189
 21
2.50293976887351
 31
0
  0
LINE
  5
36F
100
AcDbEntity
  8
SEMA2D
100
AcDbLine
370
9
 62
0
 48
0
  6
_DOT
 10
1.8305291189
 20
2.5090019467
 30
0
 11
1.8805291189
 21
2.5090019467
 31
0
  0
LINE
  5
370
100
AcDbEntity
  8
SEMA2D
100
AcDbLine
370
9
 62
0
 48
0
  6
_SOLID
 10
1.4545291189
 20
2.1290096583
 30
0
 11
1.4545291189
 21
2.4790096583
 31
0
  0
MTEXT
  5
371
100
AcDbEntity
  8
SEMATEXT
100
AcDbMText
370
9
 62
0
 10
1.44996399778611
 20
2.29804217971975
 30
0
 40
0.008
  1
{\fArial Narrow;35}
 50
90
 41
0
  7
STANDARD
 71
7
  0
LINE
  5
375
100
AcDbEntity
  8
SEMA2D
100
AcDbLine
370
9
 62
0
 48
0
  6
_SOLID
 10
1.4545291189
 20
2.1290096583
 30
0
 11
1.4475291189
 21
2.1290096583
 31
0
  0
LINE
  5
376
100
AcDbEntity
  8
SEMA2D
100
AcDbLine
370
9
 62
0
 48
0
  6
_SOLID
 10
1.4545291189
 20
2.1290096583
 30
0
 11
1.4615291189
 21
2.1290096583
 31
0
  0
LINE
  5
377
100
AcDbEntity
  8
SEMA2D
100
AcDbLine
370
9
 62
0
 48
0
  6
_SOLID
 10
1.4545291189
 20
2.1290096583
 30
0
 11
1.4510291189
 21
2.13507183612649
 31
0
  0
LINE
  5
378
100
AcDbEntity
  8
SEMA2D
100
AcDbLine
370
9
 62
0
 48
0
  6
_SOLID
 10
1.4545291189
 20
2.1290096583
 30
0
 11
1.4580291189
 21
2.12294748047351
 31
0
  0
LINE
  5
379
100
AcDbEntity
  8
SEMA2D
100
AcDbLine
370
9
 62
0
 48
0
  6
_DOT
 10
1.5045291189
 20
2.1290096583
 30
0
 11
1.4545291189
 21
2.1290096583
 31
0
  0
LINE
  5
37A
100
AcDbEntity
  8
SEMA2D
100
AcDbLine
370
9
 62
0
 48
0
  6
_SOLID
 10
1.4545291189
 20
2.4790096583
 30
0
 11
1.4475291189
 21
2.4790096583
 31
0
  0
LINE
  5
37B
100
AcDbEntity
  8
SEMA2D
100
AcDbLine
370
9
 62
0
 48
0
  6
_SOLID
 10
1.4545291189
 20
2.4790096583
 30
0
 11
1.4615291189
 21
2.4790096583
 31
0
  0
LINE
  5
37C
100
AcDbEntity
  8
SEMA2D
100
AcDbLine
370
9
 62
0
 48
0
  6
_SOLID
 10
1.4545291189
 20
2.4790096583
 30
0
 11
1.4510291189
 21
2.48507183612649
 31
0
  0
LINE
  5
37D
100
AcDbEntity
  8
SEMA2D
100
AcDbLine
370
9
 62
0
 48
0
  6
_SOLID
 10
1.4545291189
 20
2.4790096583
 30
0
 11
1.4580291189
 21
2.47294748047351
 31
0
  0
LINE
  5
37E
100
AcDbEntity
  8
SEMA2D
100
AcDbLine
370
9
 62
0
 48
0
  6
_DOT
 10
1.5045291189
 20
2.4790096583
 30
0
 11
1.4545291189
 21
2.4790096583
 31
0
  0
LINE
  5
37F
100
AcDbEntity
  8
SEMA2D
100
AcDbLine
370
9
 62
0
 48
0
  6
_SOLID
 10
1.54567120871237
 20
2.0339018385
 30
0
 11
1.73967120871237
 21
2.0339018935
 31
0
  0
MTEXT
  5
380
100
AcDbEntity
  8
SEMATEXT
100
AcDbMText
370
9
 62
0
 10
1.63595779401535
 20
2.0384669852106
 30
0
 40
0.008
  1
{\fArial Narrow;194}
 50
1.62436481332406E-5
 41
0
  7
STANDARD
 71
7
  0
LINE
  5
384
100
AcDbEntity
  8
SEMA2D
100
AcDbLine
370
9
 62
0
 48
0
  6
_SOLID
 10
1.54567120871237
 20
2.0339018385
 30
0
 11
1.54567120672784
 21
2.0409018385
 31
0
  0
LINE
  5
385
100
AcDbEntity
  8
SEMA2D
100
AcDbLine
370
9
 62
0
 48
0
  6
_SOLID
 10
1.54567120871237
 20
2.0339018385
 30
0
 11
1.54567121069691
 21
2.0269018385
 31
0
  0
LINE
  5
386
100
AcDbEntity
  8
SEMA2D
100
AcDbLine
370
9
 62
0
 48
0
  6
_SOLID
 10
1.54567120871237
 20
2.0339018385
 30
0
 11
1.55173338554659
 21
2.03740184021866
 31
0
  0
LINE
  5
387
100
AcDbEntity
  8
SEMA2D
100
AcDbLine
370
9
 62
0
 48
0
  6
_SOLID
 10
1.54567120871237
 20
2.0339018385
 30
0
 11
1.53960903187815
 21
2.03040183678134
 31
0
  0
LINE
  5
388
100
AcDbEntity
  8
SEMA2D
100
AcDbLine
370
9
 62
0
 48
0
  6
_DOT
 10
1.5456712158
 20
2.0089018385
 30
0
 11
1.54567120871237
 21
2.0339018385
 31
0
  0
LINE
  5
389
100
AcDbEntity
  8
SEMA2D
100
AcDbLine
370
9
 62
0
 48
0
  6
_SOLID
 10
1.73967120871237
 20
2.0339018935
 30
0
 11
1.73967120672784
 21
2.0409018935
 31
0
  0
LINE
  5
38A
100
AcDbEntity
  8
SEMA2D
100
AcDbLine
370
9
 62
0
 48
0
  6
_SOLID
 10
1.73967120871237
 20
2.0339018935
 30
0
 11
1.73967121069691
 21
2.0269018935
 31
0
  0
LINE
  5
38B
100
AcDbEntity
  8
SEMA2D
100
AcDbLine
370
9
 62
0
 48
0
  6
_SOLID
 10
1.73967120871237
 20
2.0339018935
 30
0
 11
1.74573338554659
 21
2.03740189521866
 31
0
  0
LINE
  5
38C
100
AcDbEntity
  8
SEMA2D
100
AcDbLine
370
9
 62
0
 48
0
  6
_SOLID
 10
1.73967120871237
 20
2.0339018935
 30
0
 11
1.73360903187815
 21
2.03040189178134
 31
0
  0
LINE
  5
38D
100
AcDbEntity
  8
SEMA2D
100
AcDbLine
370
9
 62
0
 48
0
  6
_DOT
 10
1.7396712158
 20
2.0089018935
 30
0
 11
1.73967120871237
 21
2.0339018935
 31
0
  0
LINE
  5
38E
100
AcDbEntity
  8
SEMA2D
100
AcDbLine
370
9
 62
0
 48
0
  6
_SOLID
 10
1.8305291189
 20
2.1290019467
 30
0
 11
1.8305291189
 21
2.2190019467
 31
0
  0
MTEXT
  5
38F
100
AcDbEntity
  8
SEMATEXT
100
AcDbMText
370
9
 62
0
 10
1.82596399778611
 20
2.17101820740987
 30
0
 40
0.008
  1
{\fArial Narrow;9}
 50
90
 41
0
  7
STANDARD
 71
7
  0
LINE
  5
393
100
AcDbEntity
  8
SEMA2D
100
AcDbLine
370
9
 62
0
 48
0
  6
_SOLID
 10
1.8305291189
 20
2.1290019467
 30
0
 11
1.8235291189
 21
2.1290019467
 31
0
  0
LINE
  5
394
100
AcDbEntity
  8
SEMA2D
100
AcDbLine
370
9
 62
0
 48
0
  6
_SOLID
 10
1.8305291189
 20
2.1290019467
 30
0
 11
1.8375291189
 21
2.1290019467
 31
0
  0
LINE
  5
395
100
AcDbEntity
  8
SEMA2D
100
AcDbLine
370
9
 62
0
 48
0
  6
_SOLID
 10
1.8305291189
 20
2.1290019467
 30
0
 11
1.8270291189
 21
2.13506412452649
 31
0
  0
LINE
  5
396
100
AcDbEntity
  8
SEMA2D
100
AcDbLine
370
9
 62
0
 48
0
  6
_SOLID
 10
1.8305291189
 20
2.1290019467
 30
0
 11
1.8340291189
 21
2.12293976887351
 31
0
  0
LINE
  5
397
100
AcDbEntity
  8
SEMA2D
100
AcDbLine
370
9
 62
0
 48
0
  6
_DOT
 10
1.7805291189
 20
2.1290019467
 30
0
 11
1.8305291189
 21
2.1290019467
 31
0
  0
LINE
  5
398
100
AcDbEntity
  8
SEMA2D
100
AcDbLine
370
9
 62
0
 48
0
  6
_SOLID
 10
1.8305291189
 20
2.2190019467
 30
0
 11
1.8235291189
 21
2.2190019467
 31
0
  0
LINE
  5
399
100
AcDbEntity
  8
SEMA2D
100
AcDbLine
370
9
 62
0
 48
0
  6
_SOLID
 10
1.8305291189
 20
2.2190019467
 30
0
 11
1.8375291189
 21
2.2190019467
 31
0
  0
LINE
  5
39A
100
AcDbEntity
  8
SEMA2D
100
AcDbLine
370
9
 62
0
 48
0
  6
_SOLID
 10
1.8305291189
 20
2.2190019467
 30
0
 11
1.8270291189
 21
2.22506412452649
 31
0
  0
LINE
  5
39B
100
AcDbEntity
  8
SEMA2D
100
AcDbLine
370
9
 62
0
 48
0
  6
_SOLID
 10
1.8305291189
 20
2.2190019467
 30
0
 11
1.8340291189
 21
2.21293976887351
 31
0
  0
LINE
  5
39C
100
AcDbEntity
  8
SEMA2D
100
AcDbLine
370
9
 62
0
 48
0
  6
_DOT
 10
1.7805291189
 20
2.2190019467
 30
0
 11
1.8305291189
 21
2.2190019467
 31
0
  0
MTEXT
  5
39D
100
AcDbEntity
  8
SEMATEXT
100
AcDbMText
370
9
 62
0
 10
1.4495646239
 20
2.3205
 30
0
 40
0.008
  1
{\fArial Narrow;= Decklänge}
 50
90
 41
0
  7
STANDARD
 71
7
  0
LINE
  5
3A1
100
AcDbEntity
  8
SEMA2D
100
AcDbLine
370
9
 62
0
 48
0
  6
_SOLID
 10
1.5325291189
 20
2.3264519464
 30
0
 11
1.7525291189
 21
2.3264519464
 31
0
  0
MTEXT
  5
3A2
100
AcDbEntity
  8
SEMATEXT
100
AcDbMText
370
9
 62
0
 10
1.63805350996481
 20
2.33101706751389
 30
0
 40
0.008
  1
{\fArial Narrow;22}
 50
0
 41
0
  7
STANDARD
 71
7
  0
LINE
  5
3A6
100
AcDbEntity
  8
SEMA2D
100
AcDbLine
370
9
 62
0
 48
0
  6
_SOLID
 10
1.5325291189
 20
2.3264519464
 30
0
 11
1.5325291189
 21
2.3334519464
 31
0
  0
LINE
  5
3A7
100
AcDbEntity
  8
SEMA2D
100
AcDbLine
370
9
 62
0
 48
0
  6
_SOLID
 10
1.5325291189
 20
2.3264519464
 30
0
 11
1.5325291189
 21
2.3194519464
 31
0
  0
LINE
  5
3A8
100
AcDbEntity
  8
SEMA2D
100
AcDbLine
370
9
 62
0
 48
0
  6
_SOLID
 10
1.5325291189
 20
2.3264519464
 30
0
 11
1.53859129672649
 21
2.3299519464
 31
0
  0
LINE
  5
3A9
100
AcDbEntity
  8
SEMA2D
100
AcDbLine
370
9
 62
0
 48
0
  6
_SOLID
 10
1.5325291189
 20
2.3264519464
 30
0
 11
1.52646694107351
 21
2.3229519464
 31
0
  0
LINE
  5
3AA
100
AcDbEntity
  8
SEMA2D
100
AcDbLine
370
9
 62
0
 48
0
  6
_DOT
 10
1.5325291189
 20
2.3064519464
 30
0
 11
1.5325291189
 21
2.3264519464
 31
0
  0
LINE
  5
3AB
100
AcDbEntity
  8
SEMA2D
100
AcDbLine
370
9
 62
0
 48
0
  6
_SOLID
 10
1.7525291189
 20
2.3264519464
 30
0
 11
1.7525291189
 21
2.3334519464
 31
0
  0
LINE
  5
3AC
100
AcDbEntity
  8
SEMA2D
100
AcDbLine
370
9
 62
0
 48
0
  6
_SOLID
 10
1.7525291189
 20
2.3264519464
 30
0
 11
1.7525291189
 21
2.3194519464
 31
0
  0
LINE
  5
3AD
100
AcDbEntity
  8
SEMA2D
100
AcDbLine
370
9
 62
0
 48
0
  6
_SOLID
 10
1.7525291189
 20
2.3264519464
 30
0
 11
1.75859129672649
 21
2.3299519464
 31
0
  0
LINE
  5
3AE
100
AcDbEntity
  8
SEMA2D
100
AcDbLine
370
9
 62
0
 48
0
  6
_SOLID
 10
1.7525291189
 20
2.3264519464
 30
0
 11
1.74646694107351
 21
2.3229519464
 31
0
  0
LINE
  5
3AF
100
AcDbEntity
  8
SEMA2D
100
AcDbLine
370
9
 62
0
 48
0
  6
_DOT
 10
1.7525291189
 20
2.3064519464
 30
0
 11
1.7525291189
 21
2.3264519464
 31
0
  0
VIEWPORT
  5
3C7
100
AcDbEntity
 67
1
  8
0
100
AcDbViewport
370
-1
 48
0
 10
0
 20
0
 30
0
 40
-2E20
 41
-2E20
 68
1
 69
1
 12
0
 22
0
 32
0
 16
0
 26
0
 36
1
 17
0
 27
0
 37
0
 42
50
 43
0
 44
0
 45
-2E20
 51
0
 90
32800
340
0
  0
ENDSEC
  0
SECTION
  2
OBJECTS
  0
DICTIONARY
  5
3C8
100
AcDbDictionary
  3
ACAD_GROUP
350
3C9
  3
ACAD_MATERIAL
350
3CA
  3
ACAD_WIPEOUT_VARS
350
3CB
  3
ACAD_MLINESTYLE
350
3CC
  3
ACAD_LAYOUT
350
3CD
  0
DICTIONARY
  5
3C9
100
AcDbDictionary
  0
DICTIONARY
  5
3CA
100
AcDbDictionary
  0
WIPEOUTVARIABLES
  5
3CB
100
AcDbWipeoutVariables
 70
1
  0
DICTIONARY
  5
3CC
100
AcDbDictionary
  3
STANDARD
350
3CE
  0
MLINESTYLE
  5
3CE
100
AcDbMlineStyle
  2
STANDARD
 70
0
  3

 62
256
 51
90
 52
90
 71
2
 49
0.5
 62
256
  6
ByLayer
 49
-0.5
 62
256
  6
ByLayer
  0
DICTIONARY
  5
3CD
100
AcDbDictionary
  3
Model
350
3B0
  3
Layout1
350
3B1
  0
LAYOUT
  5
3B0
100
AcDbPlotSettings
100
AcDbLayout
  1
Model
 70
1
 71
1
 10
1.17059079267351
 20
1.8739021415
 11
1.8875291189
 21
2.57076824560004
 12
0
 22
0
 32
0
 14
1.17059079267351
 24
1.8739021415
 34
0
 15
1.8875291189
 25
2.57076824560004
 35
0
146
0
 13
0
 23
0
 33
0
 16
1
 26
0
 36
0
 17
0
 27
1
 37
0
 76
0
330
3B5
  0
LAYOUT
  5
3B1
100
AcDbPlotSettings
100
AcDbLayout
  1
Layout1
 70
1
 71
2
 10
1E20
 20
1E20
 11
-1E20
 21
-1E20
 12
0
 22
0
 32
0
 14
1E20
 24
1E20
 34
1E20
 15
-1E20
 25
-1E20
 35
-1E20
146
0
 13
0
 23
0
 33
0
 16
1
 26
0
 36
0
 17
0
 27
1
 37
0
 76
0
330
3B6
  0
ENDSEC
  0
EOF
