  0
SECTION
  2
HEADER
  9
$ACADVER
  1
AC1015
  9
$HANDSEED
  5
2E0
  9
$LIMMIN
 10
-14.2725353240967
 20
0.11609623581171
  9
$LIMMAX
 10
15.1624946594238
 20
0.958950638771057
  9
$MEASUREMENT
 70
1
  0
ENDSEC
  0
SECTION
  2
TABLES
  0
TABLE
  2
VPORT
  5
  1
100
AcDbSymbolTable
  0
ENDTAB
  0
TABLE
  2
LTYPE
  5
  2
100
AcDbSymbolTable
  0
LTYPE
  5
  3
100
AcDbSymbolTableRecord
100
AcDbLinetypeTableRecord
  2
BYBLOCK
 70
     0
  0
LTYPE
  5
  4
100
AcDbSymbolTableRecord
100
AcDbLinetypeTableRecord
  2
BYLAYER
 70
     0
  0
LTYPE
  5
20
100
AcDbSymbolTableRecord
100
AcDbLinetypeTableRecord
  2
_SOLID
  3

 70
0
 72
65
 73
2
 40
5
 49
5
 74
0
 49
0
 74
0
  0
LTYPE
  5
21
100
AcDbSymbolTableRecord
100
AcDbLinetypeTableRecord
  2
_DASH
  3

 70
0
 72
65
 73
2
 40
7
 49
5
 74
0
 49
-2
 74
0
  0
LTYPE
  5
22
100
AcDbSymbolTableRecord
100
AcDbLinetypeTableRecord
  2
_DOT
  3

 70
0
 72
65
 73
2
 40
4
 49
2
 74
0
 49
-2
 74
0
  0
LTYPE
  5
23
100
AcDbSymbolTableRecord
100
AcDbLinetypeTableRecord
  2
_DASHDOT
  3

 70
0
 72
65
 73
4
 40
11
 49
5
 74
0
 49
-2
 74
0
 49
2
 74
0
 49
-2
 74
0
  0
LTYPE
  5
24
100
AcDbSymbolTableRecord
100
AcDbLinetypeTableRecord
  2
_DASHDOTDOT
  3

 70
0
 72
65
 73
6
 40
15
 49
5
 74
0
 49
-2
 74
0
 49
2
 74
0
 49
-2
 74
0
 49
2
 74
0
 49
-2
 74
0
  0
LTYPE
  5
25
100
AcDbSymbolTableRecord
100
AcDbLinetypeTableRecord
  2
ISO128-20-02
  3

 70
0
 72
65
 73
2
 40
15
 49
12
 74
0
 49
-3
 74
0
  0
LTYPE
  5
26
100
AcDbSymbolTableRecord
100
AcDbLinetypeTableRecord
  2
ISO128-20-03
  3

 70
0
 72
65
 73
2
 40
30
 49
12
 74
0
 49
-18
 74
0
  0
LTYPE
  5
27
100
AcDbSymbolTableRecord
100
AcDbLinetypeTableRecord
  2
ISO128-20-04
  3

 70
0
 72
65
 73
4
 40
30
 49
24
 74
0
 49
-3
 74
0
 49
0
 74
0
 49
-3
 74
0
  0
LTYPE
  5
28
100
AcDbSymbolTableRecord
100
AcDbLinetypeTableRecord
  2
ISO128-20-05
  3

 70
0
 72
65
 73
6
 40
33
 49
24
 74
0
 49
-3
 74
0
 49
0
 74
0
 49
-3
 74
0
 49
0
 74
0
 49
-3
 74
0
  0
LTYPE
  5
29
100
AcDbSymbolTableRecord
100
AcDbLinetypeTableRecord
  2
ISO128-20-06
  3

 70
0
 72
65
 73
8
 40
36
 49
24
 74
0
 49
-3
 74
0
 49
0
 74
0
 49
-3
 74
0
 49
0
 74
0
 49
-3
 74
0
 49
0
 74
0
 49
-3
 74
0
  0
LTYPE
  5
2A
100
AcDbSymbolTableRecord
100
AcDbLinetypeTableRecord
  2
ISO128-20-07
  3

 70
0
 72
65
 73
2
 40
3
 49
0
 74
0
 49
-3
 74
0
  0
LTYPE
  5
2B
100
AcDbSymbolTableRecord
100
AcDbLinetypeTableRecord
  2
ISO128-20-08
  3

 70
0
 72
65
 73
4
 40
36
 49
24
 74
0
 49
-3
 74
0
 49
6
 74
0
 49
-3
 74
0
  0
LTYPE
  5
2C
100
AcDbSymbolTableRecord
100
AcDbLinetypeTableRecord
  2
ISO128-20-09
  3

 70
0
 72
65
 73
6
 40
45
 49
24
 74
0
 49
-3
 74
0
 49
6
 74
0
 49
-3
 74
0
 49
6
 74
0
 49
-3
 74
0
  0
LTYPE
  5
2D
100
AcDbSymbolTableRecord
100
AcDbLinetypeTableRecord
  2
ISO128-20-10
  3

 70
0
 72
65
 73
4
 40
18
 49
12
 74
0
 49
-3
 74
0
 49
0
 74
0
 49
-3
 74
0
  0
LTYPE
  5
2E
100
AcDbSymbolTableRecord
100
AcDbLinetypeTableRecord
  2
ISO128-20-11
  3

 70
0
 72
65
 73
6
 40
33
 49
12
 74
0
 49
-3
 74
0
 49
12
 74
0
 49
-3
 74
0
 49
0
 74
0
 49
-3
 74
0
  0
LTYPE
  5
2F
100
AcDbSymbolTableRecord
100
AcDbLinetypeTableRecord
  2
ISO128-20-12
  3

 70
0
 72
65
 73
6
 40
21
 49
12
 74
0
 49
-3
 74
0
 49
0
 74
0
 49
-3
 74
0
 49
0
 74
0
 49
-3
 74
0
  0
LTYPE
  5
30
100
AcDbSymbolTableRecord
100
AcDbLinetypeTableRecord
  2
ISO128-20-13
  3

 70
0
 72
65
 73
8
 40
36
 49
12
 74
0
 49
-3
 74
0
 49
12
 74
0
 49
-3
 74
0
 49
0
 74
0
 49
-3
 74
0
 49
0
 74
0
 49
-3
 74
0
  0
LTYPE
  5
31
100
AcDbSymbolTableRecord
100
AcDbLinetypeTableRecord
  2
ISO128-20-14
  3

 70
0
 72
65
 73
8
 40
24
 49
12
 74
0
 49
-3
 74
0
 49
0
 74
0
 49
-3
 74
0
 49
0
 74
0
 49
-3
 74
0
 49
0
 74
0
 49
-3
 74
0
  0
LTYPE
  5
32
100
AcDbSymbolTableRecord
100
AcDbLinetypeTableRecord
  2
ISO128-20-15
  3

 70
0
 72
65
 73
10
 40
39
 49
12
 74
0
 49
-3
 74
0
 49
12
 74
0
 49
-3
 74
0
 49
0
 74
0
 49
-3
 74
0
 49
0
 74
0
 49
-3
 74
0
 49
0
 74
0
 49
-3
 74
0
  0
ENDTAB
  0
TABLE
  2
LAYER
  5
 1A
330
  0
100
AcDbSymbolTable
  0
LAYER
  5
2DC
330
 1A
100
AcDbSymbolTableRecord
100
AcDbLayerTableRecord
  2
0
 70
0
 62
7
  6
Continuous
370
-3
390
 19
  0
LAYER
  5
2DD
330
 1A
100
AcDbSymbolTableRecord
100
AcDbLayerTableRecord
  2
SEMA2D
 70
0
 62
7
  6
Continuous
370
-3
390
 19
  0
LAYER
  5
2DE
330
 1A
100
AcDbSymbolTableRecord
100
AcDbLayerTableRecord
  2
SEMATEXT
 70
0
 62
7
  6
Continuous
370
-3
390
 19
  0
ENDTAB
  0
TABLE
  2
STYLE
  5
  5
100
AcDbSymbolTable
  0
STYLE
  5
  6
100
AcDbSymbolTableRecord
100
AcDbTextStyleTableRecord
  2
STANDARD
 70
     0
 40
0.0
 41
1.0
 50
0.0
 71
     0
 42
10.0
  3
txt
  4

  0
ENDTAB
  0
TABLE
  2
VIEW
  5
  7
100
AcDbSymbolTable
  0
ENDTAB
  0
TABLE
  2
UCS
  5
  8
100
AcDbSymbolTable
  0
ENDTAB
  0
TABLE
  2
APPID
  5
  9
100
AcDbSymbolTable
  0
APPID
  5
  A
100
AcDbSymbolTableRecord
100
AcDbRegAppTableRecord
  2
ACAD
 70
0
  0
ENDTAB
  0
TABLE
  2
DIMSTYLE
  5
  B
100
AcDbSymbolTable
 70
     1
100
AcDbDimStyleTable
 71
     0
  0
DIMSTYLE
105
 1B
330
B
100
AcDbSymbolTableRecord
100
AcDbDimStyleTableRecord
  2
STANDARD
 70
    0
340
  6
  0
ENDTAB
  0
TABLE
  2
BLOCK_RECORD
  5
  C
100
AcDbSymbolTable
  0
BLOCK_RECORD
  5
  D
100
AcDbSymbolTableRecord
100
AcDbBlockTableRecord
  2
*MODEL_SPACE
  0
BLOCK_RECORD
  5
  E
100
AcDbSymbolTableRecord
100
AcDbBlockTableRecord
  2
*PAPER_SPACE
  0
ENDTAB
  0
ENDSEC
  0
SECTION
  2
BLOCKS
  0
BLOCK
  5
  F
330
  D
100
AcDbEntity
  8
0
100
AcDbBlockBegin
  2
*MODEL_SPACE
 70
     0
  0
ENDBLK
  5
 10
100
AcDbEntity
  8
0
100
AcDbBlockEnd
  0
BLOCK
  5
 11
330
  E
100
AcDbEntity
  8
0
100
AcDbBlockBegin
  2
*PAPER_SPACE
 70
     0
  0
ENDBLK
  5
 12
100
AcDbEntity
  8
0
100
AcDbBlockEnd
  0
ENDSEC
  0
SECTION
  2
ENTITIES
  0
LINE
  5
33
100
AcDbEntity
  8
SEMA2D
100
AcDbLine
 62
7
  6
_SOLID
370
9
 10
-0.867498636245727
 20
0.796586275100708
 11
-0.855485796928406
 21
0.796586275100708
  0
LINE
  5
34
100
AcDbEntity
  8
SEMA2D
100
AcDbLine
 62
7
  6
_SOLID
370
9
 10
-0.63905668258667
 20
0.824275612831116
 11
-0.640000939369202
 21
0.830994188785553
  0
LINE
  5
35
100
AcDbEntity
  8
SEMA2D
100
AcDbLine
 62
7
  6
_SOLID
370
9
 10
-0.63905668258667
 20
0.824275612831116
 11
-0.63905668258667
 21
0.820584297180176
  0
LINE
  5
36
100
AcDbEntity
  8
SEMA2D
100
AcDbLine
 62
7
  6
_SOLID
370
9
 10
-0.639979779720306
 20
0.820584297180176
 11
-0.641053676605225
 21
0.812943398952484
  0
LINE
  5
37
100
AcDbEntity
  8
SEMA2D
100
AcDbLine
 62
7
  6
_SOLID
370
9
 10
-0.777291178703308
 20
0.831057846546173
 11
-0.833066999912262
 21
0.831057846546173
  0
LINE
  5
38
100
AcDbEntity
  8
SEMA2D
100
AcDbLine
 62
7
  6
_SOLID
370
9
 10
-0.698408782482147
 20
0.831057846546173
 11
-0.754184663295746
 21
0.831057846546173
  0
LINE
  5
39
100
AcDbEntity
  8
SEMA2D
100
AcDbLine
 62
7
  6
_SOLID
370
9
 10
-0.844087183475494
 20
0.831194221973419
 11
-0.86886465549469
 21
0.831194221973419
  0
LINE
  5
3A
100
AcDbEntity
  8
SEMA2D
100
AcDbLine
 62
7
  6
_SOLID
370
9
 10
-0.771803379058838
 20
0.83258330821991
 11
-0.838712990283966
 21
0.83258330821991
  0
LINE
  5
3B
100
AcDbEntity
  8
SEMA2D
100
AcDbLine
 62
7
  6
_SOLID
370
9
 10
-0.692762851715088
 20
0.83258330821991
 11
-0.759672462940216
 21
0.83258330821991
  0
LINE
  5
3C
100
AcDbEntity
  8
SEMA2D
100
AcDbLine
 62
7
  6
_SOLID
370
9
 10
-0.737745583057404
 20
0.806842029094696
 11
-0.726459622383118
 21
0.818127989768982
  0
LINE
  5
3D
100
AcDbEntity
  8
SEMA2D
100
AcDbLine
 62
7
  6
_SOLID
370
9
 10
-0.732328653335571
 20
0.805732309818268
 11
-0.719627022743225
 21
0.818434000015259
  0
LINE
  5
3E
100
AcDbEntity
  8
SEMA2D
100
AcDbLine
 62
7
  6
_SOLID
370
9
 10
-0.726600706577301
 20
0.798407077789307
 11
-0.692424476146698
 21
0.83258330821991
  0
LINE
  5
3F
100
AcDbEntity
  8
SEMA2D
100
AcDbLine
 62
7
  6
_SOLID
370
9
 10
-0.727935373783112
 20
0.803598999977112
 11
-0.710843622684479
 21
0.820690810680389
  0
LINE
  5
40
100
AcDbEntity
  8
SEMA2D
100
AcDbLine
 62
7
  6
_SOLID
370
9
 10
-0.696202337741852
 20
0.83104532957077
 11
-0.69598913192749
 21
0.83102810382843
  0
LINE
  5
41
100
AcDbEntity
  8
SEMA2D
100
AcDbLine
 62
7
  6
_SOLID
370
9
 10
-0.723570168018341
 20
0.783186495304108
 11
-0.727160632610321
 21
0.796586275100708
  0
LINE
  5
42
100
AcDbEntity
  8
SEMA2D
100
AcDbLine
 62
7
  6
_SOLID
370
9
 10
-0.842292904853821
 20
0.83258330821991
 11
-0.838736832141876
 21
0.83258330821991
  0
LINE
  5
43
100
AcDbEntity
  8
SEMA2D
100
AcDbLine
 62
7
  6
_SOLID
370
9
 10
-0.842298746109009
 20
0.83258330821991
 11
-0.86886465549469
 21
0.83258330821991
  0
LINE
  5
44
100
AcDbEntity
  8
SEMA2D
100
AcDbLine
 62
7
  6
_SOLID
370
9
 10
-0.7717564702034
 20
0.83258330821991
 11
-0.759719729423523
 21
0.83258330821991
  0
LINE
  5
45
100
AcDbEntity
  8
SEMA2D
100
AcDbLine
 62
7
  6
_SOLID
370
9
 10
-0.69253420829773
 20
0.83258330821991
 11
-0.641828954219818
 21
0.83258330821991
  0
LINE
  5
46
100
AcDbEntity
  8
SEMA2D
100
AcDbLine
 62
7
  6
_SOLID
370
9
 10
-0.670974552631378
 20
0.814584791660309
 11
-0.688540816307068
 21
0.814584791660309
  0
LINE
  5
47
100
AcDbEntity
  8
SEMA2D
100
AcDbLine
 62
7
  6
_SOLID
370
9
 10
-0.648475050926209
 20
0.814584791660309
 11
-0.66316419839859
 21
0.814584791660309
  0
LINE
  5
48
100
AcDbEntity
  8
SEMA2D
100
AcDbLine
 62
7
  6
_SOLID
370
9
 10
-0.867992639541626
 20
0.815046310424805
 11
-0.86754697561264
 21
0.815046310424805
  0
LINE
  5
49
100
AcDbEntity
  8
SEMA2D
100
AcDbLine
 62
7
  6
_SOLID
370
9
 10
-0.867467701435089
 20
0.815046310424805
 11
-0.866779029369354
 21
0.815046310424805
  0
LINE
  5
4A
100
AcDbEntity
  8
SEMA2D
100
AcDbLine
 62
7
  6
_SOLID
370
9
 10
-0.659184694290161
 20
0.817353785037994
 11
-0.651695191860199
 21
0.817353785037994
  0
LINE
  5
4B
100
AcDbEntity
  8
SEMA2D
100
AcDbLine
 62
7
  6
_SOLID
370
9
 10
-0.891945779323578
 20
0.816892325878143
 11
-0.888583242893219
 21
0.816892325878143
  0
LINE
  5
4C
100
AcDbEntity
  8
SEMA2D
100
AcDbLine
 62
7
  6
_SOLID
370
9
 10
-0.63905668258667
 20
0.820584297180176
 11
-0.639979779720306
 21
0.820584297180176
  0
LINE
  5
4D
100
AcDbEntity
  8
SEMA2D
100
AcDbLine
 62
7
  6
_SOLID
370
9
 10
-0.683891296386719
 20
0.819199800491333
 11
-0.673170864582062
 21
0.819199800491333
  0
LINE
  5
4E
100
AcDbEntity
  8
SEMA2D
100
AcDbLine
 62
7
  6
_SOLID
370
9
 10
-0.747301995754242
 20
0.810338795185089
 11
-0.737402677536011
 21
0.820238053798676
  0
LINE
  5
4F
100
AcDbEntity
  8
SEMA2D
100
AcDbLine
 62
7
  6
_SOLID
370
9
 10
-0.742700517177582
 20
0.808413624763489
 11
-0.732275009155273
 21
0.818839192390442
  0
LINE
  5
50
100
AcDbEntity
  8
SEMA2D
100
AcDbLine
 62
7
  6
_SOLID
370
9
 10
-0.690763354301453
 20
0.798202037811279
 11
-0.690632164478302
 21
0.799232482910156
  0
LINE
  5
51
100
AcDbEntity
  8
SEMA2D
100
AcDbLine
 62
7
  6
_SOLID
370
9
 10
-0.688472092151642
 20
0.81514573097229
 11
-0.690320074558258
 21
0.800053954124451
  0
LINE
  5
52
100
AcDbEntity
  8
SEMA2D
100
AcDbLine
 62
7
  6
_SOLID
370
9
 10
-0.702161848545074
 20
0.804707288742065
 11
-0.700746476650238
 21
0.798048496246338
  0
LINE
  5
53
100
AcDbEntity
  8
SEMA2D
100
AcDbLine
 62
7
  6
_SOLID
370
9
 10
-0.667468547821045
 20
0.811853051185608
 11
-0.646738350391388
 21
0.83258330821991
  0
LINE
  5
54
100
AcDbEntity
  8
SEMA2D
100
AcDbLine
 62
7
  6
_SOLID
370
9
 10
-0.698149442672729
 20
0.800021409988403
 11
-0.698904097080231
 21
0.805391252040863
  0
LINE
  5
55
100
AcDbEntity
  8
SEMA2D
100
AcDbLine
 62
7
  6
_SOLID
370
9
 10
-0.663595616817474
 20
0.814096033573151
 11
-0.664038240909576
 21
0.812657415866852
  0
LINE
  5
56
100
AcDbEntity
  8
SEMA2D
100
AcDbLine
 62
7
  6
_SOLID
370
9
 10
-0.667678773403168
 20
0.811392843723297
 11
-0.668678522109985
 21
0.815641820430756
  0
LINE
  5
57
100
AcDbEntity
  8
SEMA2D
100
AcDbLine
 62
7
  6
_SOLID
370
9
 10
-0.669575393199921
 20
0.813793420791626
 11
-0.669333577156067
 21
0.812774181365967
  0
LINE
  5
58
100
AcDbEntity
  8
SEMA2D
100
AcDbLine
 62
7
  6
_SOLID
370
9
 10
-0.64948183298111
 20
0.816786587238312
 11
-0.639418482780457
 21
0.826849937438965
  0
LINE
  5
59
100
AcDbEntity
  8
SEMA2D
100
AcDbLine
 62
7
  6
_SOLID
370
9
 10
-0.655441224575043
 20
0.817353785037994
 11
-0.640643656253815
 21
0.832151412963867
  0
LINE
  5
5A
100
AcDbEntity
  8
SEMA2D
100
AcDbLine
 62
7
  6
_SOLID
370
9
 10
-0.646898746490478
 20
0.812843084335327
 11
-0.64011424779892
 21
0.819627583026886
  0
LINE
  5
5B
100
AcDbEntity
  8
SEMA2D
100
AcDbLine
 62
7
  6
_SOLID
370
9
 10
-0.720895528793335
 20
0.781818330287933
 11
-0.720895528793335
 21
0.783186495304108
  0
LINE
  5
5C
100
AcDbEntity
  8
SEMA2D
100
AcDbLine
 62
7
  6
_SOLID
370
9
 10
-0.727197647094727
 20
0.801792502403259
 11
-0.726548612117767
 21
0.798111736774445
  0
LINE
  5
5D
100
AcDbEntity
  8
SEMA2D
100
AcDbLine
 62
7
  6
_SOLID
370
9
 10
-0.719549655914307
 20
0.798111736774445
 11
-0.718803763389587
 21
0.802342057228088
  0
LINE
  5
5E
100
AcDbEntity
  8
SEMA2D
100
AcDbLine
 62
7
  6
_SOLID
370
9
 10
-0.711604237556457
 20
0.806877017021179
 11
-0.685897886753082
 21
0.83258330821991
  0
LINE
  5
5F
100
AcDbEntity
  8
SEMA2D
100
AcDbLine
 62
7
  6
_SOLID
370
9
 10
-0.721894919872284
 20
0.796586275100708
 11
-0.719374179840088
 21
0.799107015132904
  0
LINE
  5
60
100
AcDbEntity
  8
SEMA2D
100
AcDbLine
 62
7
  6
_SOLID
370
9
 10
-0.702663898468018
 20
0.809290707111359
 11
-0.679371297359466
 21
0.83258330821991
  0
LINE
  5
61
100
AcDbEntity
  8
SEMA2D
100
AcDbLine
 62
7
  6
_SOLID
370
9
 10
-0.728847742080689
 20
0.798175394535065
 11
-0.730118632316589
 21
0.805382966995239
  0
LINE
  5
62
100
AcDbEntity
  8
SEMA2D
100
AcDbLine
 62
7
  6
_SOLID
370
9
 10
-0.720895528793335
 20
0.783186495304108
 11
-0.724485993385315
 21
0.796586275100708
  0
LINE
  5
63
100
AcDbEntity
  8
SEMA2D
100
AcDbLine
 62
7
  6
_SOLID
370
9
 10
-0.703359603881836
 20
0.781818330287933
 11
-0.703359603881836
 21
0.783186495304108
  0
LINE
  5
64
100
AcDbEntity
  8
SEMA2D
100
AcDbLine
 62
7
  6
_SOLID
370
9
 10
-0.700135767459869
 20
0.795218050479889
 11
-0.703359603881836
 21
0.783186495304108
  0
LINE
  5
65
100
AcDbEntity
  8
SEMA2D
100
AcDbLine
 62
7
  6
_SOLID
370
9
 10
-0.669096291065216
 20
0.816751897335053
 11
-0.653264939785004
 21
0.83258330821991
  0
LINE
  5
66
100
AcDbEntity
  8
SEMA2D
100
AcDbLine
 62
7
  6
_SOLID
370
9
 10
-0.697461128234863
 20
0.795218110084534
 11
-0.70068496465683
 21
0.783186495304108
  0
LINE
  5
67
100
AcDbEntity
  8
SEMA2D
100
AcDbLine
 62
7
  6
_SOLID
370
9
 10
-0.69823944568634
 20
0.800661981105804
 11
-0.689130187034607
 21
0.809771180152893
  0
LINE
  5
68
100
AcDbEntity
  8
SEMA2D
100
AcDbLine
 62
7
  6
_SOLID
370
9
 10
-0.6991286277771
 20
0.806299388408661
 11
-0.672844707965851
 21
0.83258330821991
  0
LINE
  5
69
100
AcDbEntity
  8
SEMA2D
100
AcDbLine
 62
7
  6
_SOLID
370
9
 10
-0.679701626300812
 20
0.819199800491333
 11
-0.666318118572235
 21
0.83258330821991
  0
LINE
  5
6A
100
AcDbEntity
  8
SEMA2D
100
AcDbLine
 62
7
  6
_SOLID
370
9
 10
-0.693942487239838
 20
0.798432290554047
 11
-0.69004088640213
 21
0.802333891391754
  0
LINE
  5
6B
100
AcDbEntity
  8
SEMA2D
100
AcDbLine
 62
7
  6
_SOLID
370
9
 10
-0.771012246608734
 20
0.81441742181778
 11
-0.759466111660004
 21
0.81441742181778
  0
LINE
  5
6C
100
AcDbEntity
  8
SEMA2D
100
AcDbLine
 62
7
  6
_SOLID
370
9
 10
-0.894767582416534
 20
0.803970277309418
 11
-0.894767582416534
 21
0.807661592960358
  0
LINE
  5
6D
100
AcDbEntity
  8
SEMA2D
100
AcDbLine
 62
7
  6
_SOLID
370
9
 10
-0.894773662090302
 20
0.807661592960358
 11
-0.894773662090302
 21
0.803970277309418
  0
LINE
  5
6E
100
AcDbEntity
  8
SEMA2D
100
AcDbLine
 62
7
  6
_SOLID
370
9
 10
-0.78193336725235
 20
0.782263517379761
 11
-0.785771131515503
 21
0.796586275100708
  0
LINE
  5
6F
100
AcDbEntity
  8
SEMA2D
100
AcDbLine
 62
7
  6
_SOLID
370
9
 10
-0.828117251396179
 20
0.783186495304108
 11
-0.845653235912323
 21
0.783186495304108
  0
LINE
  5
70
100
AcDbEntity
  8
SEMA2D
100
AcDbLine
 62
7
  6
_SOLID
370
9
 10
-0.779258728027344
 20
0.782263517379761
 11
-0.783096492290497
 21
0.796586275100708
  0
LINE
  5
71
100
AcDbEntity
  8
SEMA2D
100
AcDbLine
 62
7
  6
_SOLID
370
9
 10
-0.778256952762604
 20
0.812016844749451
 11
-0.758016884326935
 21
0.832256853580475
  0
LINE
  5
72
100
AcDbEntity
  8
SEMA2D
100
AcDbLine
 62
7
  6
_SOLID
370
9
 10
-0.779258728027344
 20
0.780895292758942
 11
-0.779258728027344
 21
0.782263517379761
  0
LINE
  5
73
100
AcDbEntity
  8
SEMA2D
100
AcDbLine
 62
7
  6
_SOLID
370
9
 10
-0.891201972961426
 20
0.796586275100708
 11
-0.692594885826111
 21
0.796586275100708
  0
LINE
  5
74
100
AcDbEntity
  8
SEMA2D
100
AcDbLine
 62
7
  6
_SOLID
370
9
 10
-0.807234704494476
 20
0.798111736774445
 11
-0.80663001537323
 21
0.801540970802307
  0
LINE
  5
75
100
AcDbEntity
  8
SEMA2D
100
AcDbLine
 62
7
  6
_SOLID
370
9
 10
-0.815074563026428
 20
0.802880883216858
 11
-0.814233660697937
 21
0.798111736774445
  0
LINE
  5
76
100
AcDbEntity
  8
SEMA2D
100
AcDbLine
 62
7
  6
_SOLID
370
9
 10
-0.803709030151367
 20
0.805131375789642
 11
-0.804935574531555
 21
0.798175394535065
  0
LINE
  5
77
100
AcDbEntity
  8
SEMA2D
100
AcDbLine
 62
7
  6
_SOLID
370
9
 10
-0.817016780376434
 20
0.805889964103699
 11
-0.804769992828369
 21
0.818136751651764
  0
LINE
  5
78
100
AcDbEntity
  8
SEMA2D
100
AcDbLine
 62
7
  6
_SOLID
370
9
 10
-0.821928262710571
 20
0.807505071163177
 11
-0.811086058616638
 21
0.818347275257111
  0
LINE
  5
79
100
AcDbEntity
  8
SEMA2D
100
AcDbLine
 62
7
  6
_SOLID
370
9
 10
-0.821852147579193
 20
0.796586275100708
 11
-0.825442612171173
 21
0.783186495304108
  0
LINE
  5
7A
100
AcDbEntity
  8
SEMA2D
100
AcDbLine
 62
7
  6
_SOLID
370
9
 10
-0.820442318916321
 20
0.807388424873352
 11
-0.818817794322968
 21
0.798175394535065
  0
LINE
  5
7B
100
AcDbEntity
  8
SEMA2D
100
AcDbLine
 62
7
  6
_SOLID
370
9
 10
-0.844054222106934
 20
0.798432290554047
 11
-0.837738633155823
 21
0.804747879505158
  0
LINE
  5
7C
100
AcDbEntity
  8
SEMA2D
100
AcDbLine
 62
7
  6
_SOLID
370
9
 10
-0.826695203781128
 20
0.809264719486237
 11
-0.816560506820679
 21
0.819399416446686
  0
LINE
  5
7D
100
AcDbEntity
  8
SEMA2D
100
AcDbLine
 62
7
  6
_SOLID
370
9
 10
-0.831125140190125
 20
0.811361372470856
 11
-0.821423351764679
 21
0.821063160896301
  0
LINE
  5
7E
100
AcDbEntity
  8
SEMA2D
100
AcDbLine
 62
7
  6
_SOLID
370
9
 10
-0.702468037605286
 20
0.781818330287933
 11
-0.721787095069885
 21
0.781818330287933
  0
LINE
  5
7F
100
AcDbEntity
  8
SEMA2D
100
AcDbLine
 62
7
  6
_SOLID
370
9
 10
-0.788154423236847
 20
0.808645904064178
 11
-0.764217019081116
 21
0.83258330821991
  0
LINE
  5
80
100
AcDbEntity
  8
SEMA2D
100
AcDbLine
 62
7
  6
_SOLID
370
9
 10
-0.827225744724274
 20
0.781818330287933
 11
-0.846544742584228
 21
0.781818330287933
  0
LINE
  5
81
100
AcDbEntity
  8
SEMA2D
100
AcDbLine
 62
7
  6
_SOLID
370
9
 10
-0.703359603881836
 20
0.783186495304108
 11
-0.720895528793335
 21
0.783186495304108
  0
LINE
  5
82
100
AcDbEntity
  8
SEMA2D
100
AcDbLine
 62
7
  6
_SOLID
370
9
 10
-0.769292593002319
 20
0.782263517379761
 11
-0.779258728027344
 21
0.782263517379761
  0
LINE
  5
83
100
AcDbEntity
  8
SEMA2D
100
AcDbLine
 62
7
  6
_SOLID
370
9
 10
-0.813124597072601
 20
0.7967289686203
 11
-0.786636650562286
 21
0.823216915130615
  0
LINE
  5
84
100
AcDbEntity
  8
SEMA2D
100
AcDbLine
 62
7
  6
_SOLID
370
9
 10
-0.814838409423828
 20
0.801541686058044
 11
-0.797055780887604
 21
0.819324314594269
  0
LINE
  5
85
100
AcDbEntity
  8
SEMA2D
100
AcDbLine
 62
7
  6
_SOLID
370
9
 10
-0.768401026725769
 20
0.780895292758942
 11
-0.780150294303894
 21
0.780895292758942
  0
LINE
  5
86
100
AcDbEntity
  8
SEMA2D
100
AcDbLine
 62
7
  6
_SOLID
370
9
 10
-0.79728627204895
 20
0.806040704250336
 11
-0.770743668079376
 21
0.83258330821991
  0
LINE
  5
87
100
AcDbEntity
  8
SEMA2D
100
AcDbLine
 62
7
  6
_SOLID
370
9
 10
-0.788553655147553
 20
0.822856187820435
 11
-0.788548946380615
 21
0.822668254375458
  0
LINE
  5
88
100
AcDbEntity
  8
SEMA2D
100
AcDbLine
 62
7
  6
_SOLID
370
9
 10
-0.646407067775726
 20
0.811354279518127
 11
-0.642881691455841
 21
0.811354279518127
  0
LINE
  5
89
100
AcDbEntity
  8
SEMA2D
100
AcDbLine
 62
7
  6
_SOLID
370
9
 10
-0.667537450790405
 20
0.811354279518127
 11
-0.665802597999573
 21
0.811354279518127
  0
LINE
  5
8A
100
AcDbEntity
  8
SEMA2D
100
AcDbLine
 62
7
  6
_SOLID
370
9
 10
-0.882089555263519
 20
0.808585286140442
 11
-0.87471216917038
 21
0.808585286140442
  0
LINE
  5
8B
100
AcDbEntity
  8
SEMA2D
100
AcDbLine
 62
7
  6
_SOLID
370
9
 10
-0.860827445983887
 20
0.808585286140442
 11
-0.851365506649017
 21
0.808585286140442
  0
LINE
  5
8C
100
AcDbEntity
  8
SEMA2D
100
AcDbLine
 62
7
  6
_SOLID
370
9
 10
-0.875429451465607
 20
0.81273877620697
 11
-0.885917246341705
 21
0.81273877620697
  0
LINE
  5
8D
100
AcDbEntity
  8
SEMA2D
100
AcDbLine
 62
7
  6
_SOLID
370
9
 10
-0.882061958312988
 20
0.808592259883881
 11
-0.882313966751099
 21
0.808613002300262
  0
LINE
  5
8E
100
AcDbEntity
  8
SEMA2D
100
AcDbLine
 62
7
  6
_SOLID
370
9
 10
-0.882313966751099
 20
0.808613002300262
 11
-0.88256448507309
 21
0.808647572994232
  0
LINE
  5
8F
100
AcDbEntity
  8
SEMA2D
100
AcDbLine
 62
7
  6
_SOLID
370
9
 10
-0.88256448507309
 20
0.808647572994232
 11
-0.882812738418579
 21
0.808695793151855
  0
LINE
  5
90
100
AcDbEntity
  8
SEMA2D
100
AcDbLine
 62
7
  6
_SOLID
370
9
 10
-0.882812738418579
 20
0.808695793151855
 11
-0.883057951927185
 21
0.808757543563843
  0
LINE
  5
91
100
AcDbEntity
  8
SEMA2D
100
AcDbLine
 62
7
  6
_SOLID
370
9
 10
-0.883057951927185
 20
0.808757543563843
 11
-0.88329941034317
 21
0.80883264541626
  0
LINE
  5
92
100
AcDbEntity
  8
SEMA2D
100
AcDbLine
 62
7
  6
_SOLID
370
9
 10
-0.88329941034317
 20
0.80883264541626
 11
-0.883536458015442
 21
0.808920860290527
  0
LINE
  5
93
100
AcDbEntity
  8
SEMA2D
100
AcDbLine
 62
7
  6
_SOLID
370
9
 10
-0.883536458015442
 20
0.808920860290527
 11
-0.883768260478973
 21
0.809021890163422
  0
LINE
  5
94
100
AcDbEntity
  8
SEMA2D
100
AcDbLine
 62
7
  6
_SOLID
370
9
 10
-0.883768260478973
 20
0.809021890163422
 11
-0.883994162082672
 21
0.809135496616364
  0
LINE
  5
95
100
AcDbEntity
  8
SEMA2D
100
AcDbLine
 62
7
  6
_SOLID
370
9
 10
-0.883994162082672
 20
0.809135496616364
 11
-0.884213507175446
 21
0.809261322021484
  0
LINE
  5
96
100
AcDbEntity
  8
SEMA2D
100
AcDbLine
 62
7
  6
_SOLID
370
9
 10
-0.884213507175446
 20
0.809261322021484
 11
-0.884425699710846
 21
0.809398949146271
  0
LINE
  5
97
100
AcDbEntity
  8
SEMA2D
100
AcDbLine
 62
7
  6
_SOLID
370
9
 10
-0.884425699710846
 20
0.809398949146271
 11
-0.884629964828491
 21
0.809547960758209
  0
LINE
  5
98
100
AcDbEntity
  8
SEMA2D
100
AcDbLine
 62
7
  6
_SOLID
370
9
 10
-0.884629964828491
 20
0.809547960758209
 11
-0.884825766086578
 21
0.809707999229431
  0
LINE
  5
99
100
AcDbEntity
  8
SEMA2D
100
AcDbLine
 62
7
  6
_SOLID
370
9
 10
-0.884825766086578
 20
0.809707999229431
 11
-0.885012567043304
 21
0.809878468513489
  0
LINE
  5
9A
100
AcDbEntity
  8
SEMA2D
100
AcDbLine
 62
7
  6
_SOLID
370
9
 10
-0.885012567043304
 20
0.809878468513489
 11
-0.885189712047577
 21
0.810058951377869
  0
LINE
  5
9B
100
AcDbEntity
  8
SEMA2D
100
AcDbLine
 62
7
  6
_SOLID
370
9
 10
-0.885189712047577
 20
0.810058951377869
 11
-0.885356664657593
 21
0.810248851776123
  0
LINE
  5
9C
100
AcDbEntity
  8
SEMA2D
100
AcDbLine
 62
7
  6
_SOLID
370
9
 10
-0.885356664657593
 20
0.810248851776123
 11
-0.885513007640839
 21
0.810447573661804
  0
LINE
  5
9D
100
AcDbEntity
  8
SEMA2D
100
AcDbLine
 62
7
  6
_SOLID
370
9
 10
-0.885513007640839
 20
0.810447573661804
 11
-0.885658264160156
 21
0.810654640197754
  0
LINE
  5
9E
100
AcDbEntity
  8
SEMA2D
100
AcDbLine
 62
7
  6
_SOLID
370
9
 10
-0.885658264160156
 20
0.810654640197754
 11
-0.885791897773743
 21
0.81086927652359
  0
LINE
  5
9F
100
AcDbEntity
  8
SEMA2D
100
AcDbLine
 62
7
  6
_SOLID
370
9
 10
-0.885791897773743
 20
0.81086927652359
 11
-0.885913610458374
 21
0.81109094619751
  0
LINE
  5
A0
100
AcDbEntity
  8
SEMA2D
100
AcDbLine
 62
7
  6
_SOLID
370
9
 10
-0.885913610458374
 20
0.81109094619751
 11
-0.886022984981537
 21
0.811318933963776
  0
LINE
  5
A1
100
AcDbEntity
  8
SEMA2D
100
AcDbLine
 62
7
  6
_SOLID
370
9
 10
-0.886022984981537
 20
0.811318933963776
 11
-0.886119723320007
 21
0.811552584171295
  0
LINE
  5
A2
100
AcDbEntity
  8
SEMA2D
100
AcDbLine
 62
7
  6
_SOLID
370
9
 10
-0.886119723320007
 20
0.811552584171295
 11
-0.886203467845917
 21
0.811791181564331
  0
LINE
  5
A3
100
AcDbEntity
  8
SEMA2D
100
AcDbLine
 62
7
  6
_SOLID
370
9
 10
-0.696321368217468
 20
0.798432290554047
 11
-0.692152380943298
 21
0.798432290554047
  0
LINE
  5
A4
100
AcDbEntity
  8
SEMA2D
100
AcDbLine
 62
7
  6
_SOLID
370
9
 10
-0.769176721572876
 20
0.81441742181778
 11
-0.769176721572876
 21
0.798175394535065
  0
LINE
  5
A5
100
AcDbEntity
  8
SEMA2D
100
AcDbLine
 62
7
  6
_SOLID
370
9
 10
-0.769292593002319
 20
0.780895292758942
 11
-0.769292593002319
 21
0.782263517379761
  0
LINE
  5
A6
100
AcDbEntity
  8
SEMA2D
100
AcDbLine
 62
7
  6
_SOLID
370
9
 10
-0.804935574531555
 20
0.798175394535065
 11
-0.769176721572876
 21
0.798175394535065
  0
LINE
  5
A7
100
AcDbEntity
  8
SEMA2D
100
AcDbLine
 62
7
  6
_SOLID
370
9
 10
-0.818817794322968
 20
0.798175394535065
 11
-0.834092259407043
 21
0.798175394535065
  0
LINE
  5
A8
100
AcDbEntity
  8
SEMA2D
100
AcDbLine
 62
7
  6
_SOLID
370
9
 10
-0.764606595039368
 20
0.798175394535065
 11
-0.728847742080689
 21
0.798175394535065
  0
LINE
  5
A9
100
AcDbEntity
  8
SEMA2D
100
AcDbLine
 62
7
  6
_SOLID
370
9
 10
-0.840230941772461
 20
0.798432290554047
 11
-0.850935935974121
 21
0.798432290554047
  0
LINE
  5
AA
100
AcDbEntity
  8
SEMA2D
100
AcDbLine
 62
7
  6
_SOLID
370
9
 10
-0.765454828739166
 20
0.796586275100708
 11
-0.769292593002319
 21
0.782263517379761
  0
LINE
  5
AB
100
AcDbEntity
  8
SEMA2D
100
AcDbLine
 62
7
  6
_SOLID
370
9
 10
-0.76278018951416
 20
0.796586275100708
 11
-0.766617953777313
 21
0.782263517379761
  0
LINE
  5
AC
100
AcDbEntity
  8
SEMA2D
100
AcDbLine
 62
7
  6
_SOLID
370
9
 10
-0.752438187599182
 20
0.81172913312912
 11
-0.741985440254211
 21
0.822181940078735
  0
LINE
  5
AD
100
AcDbEntity
  8
SEMA2D
100
AcDbLine
 62
7
  6
_SOLID
370
9
 10
-0.756966471672058
 20
0.813727498054504
 11
-0.747092068195343
 21
0.823601901531219
  0
LINE
  5
AE
100
AcDbEntity
  8
SEMA2D
100
AcDbLine
 62
7
  6
_SOLID
370
9
 10
-0.769329726696014
 20
0.81441742181778
 11
-0.754847168922424
 21
0.82889997959137
  0
LINE
  5
AF
100
AcDbEntity
  8
SEMA2D
100
AcDbLine
 62
7
  6
_SOLID
370
9
 10
-0.762803137302399
 20
0.81441742181778
 11
-0.751562297344208
 21
0.82565826177597
  0
LINE
  5
B0
100
AcDbEntity
  8
SEMA2D
100
AcDbLine
 62
7
  6
_SOLID
370
9
 10
-0.764606595039368
 20
0.81441742181778
 11
-0.764606595039368
 21
0.798175394535065
  0
LINE
  5
B1
100
AcDbEntity
  8
SEMA2D
100
AcDbLine
 62
7
  6
_SOLID
370
9
 10
-0.893844485282898
 20
0.803970277309418
 11
-0.894767582416534
 21
0.803970277309418
  0
LINE
  5
B2
100
AcDbEntity
  8
SEMA2D
100
AcDbLine
 62
7
  6
_SOLID
370
9
 10
-0.850580811500549
 20
0.798432290554047
 11
-0.825782060623169
 21
0.823231041431427
  0
LINE
  5
B3
100
AcDbEntity
  8
SEMA2D
100
AcDbLine
 62
7
  6
_SOLID
370
9
 10
-0.869773685932159
 20
0.813707411289215
 11
-0.870280861854553
 21
0.811932444572449
  0
LINE
  5
B4
100
AcDbEntity
  8
SEMA2D
100
AcDbLine
 62
7
  6
_SOLID
370
9
 10
-0.86886465549469
 20
0.831194221973419
 11
-0.86886465549469
 21
0.83258330821991
  0
LINE
  5
B5
100
AcDbEntity
  8
SEMA2D
100
AcDbLine
 62
7
  6
_SOLID
370
9
 10
-0.870683193206787
 20
0.831054449081421
 11
-0.87361091375351
 21
0.814267635345459
  0
LINE
  5
B6
100
AcDbEntity
  8
SEMA2D
100
AcDbLine
 62
7
  6
_SOLID
370
9
 10
-0.868955552577972
 20
0.831117749214172
 11
-0.872813880443573
 21
0.808995306491852
  0
LINE
  5
B7
100
AcDbEntity
  8
SEMA2D
100
AcDbLine
 62
7
  6
_SOLID
370
9
 10
-0.89389705657959
 20
0.813855409622192
 11
-0.890860199928284
 21
0.816892325878143
  0
LINE
  5
B8
100
AcDbEntity
  8
SEMA2D
100
AcDbLine
 62
7
  6
_SOLID
370
9
 10
-0.870274722576141
 20
0.811932444572449
 11
-0.869767606258392
 21
0.813707411289215
  0
LINE
  5
B9
100
AcDbEntity
  8
SEMA2D
100
AcDbLine
 62
7
  6
_SOLID
370
9
 10
-0.894767582416534
 20
0.806458294391632
 11
-0.886947870254517
 21
0.81427800655365
  0
LINE
  5
BA
100
AcDbEntity
  8
SEMA2D
100
AcDbLine
 62
7
  6
_SOLID
370
9
 10
-0.893688559532166
 20
0.815382659435272
 11
-0.894773662090302
 21
0.807661652565002
  0
LINE
  5
BB
100
AcDbEntity
  8
SEMA2D
100
AcDbLine
 62
7
  6
_SOLID
370
9
 10
-0.893850564956665
 20
0.803970277309418
 11
-0.893036186695099
 21
0.798175394535065
  0
LINE
  5
BC
100
AcDbEntity
  8
SEMA2D
100
AcDbLine
 62
7
  6
_SOLID
370
9
 10
-0.870669066905975
 20
0.810977041721344
 11
-0.866771459579468
 21
0.814874649047852
  0
LINE
  5
BD
100
AcDbEntity
  8
SEMA2D
100
AcDbLine
 62
7
  6
_SOLID
370
9
 10
-0.885059773921967
 20
0.796586275100708
 11
-0.872487425804138
 21
0.809158682823181
  0
LINE
  5
BE
100
AcDbEntity
  8
SEMA2D
100
AcDbLine
 62
7
  6
_SOLID
370
9
 10
-0.878533184528351
 20
0.796586275100708
 11
-0.864589631557465
 21
0.810529828071594
  0
LINE
  5
BF
100
AcDbEntity
  8
SEMA2D
100
AcDbLine
 62
7
  6
_SOLID
370
9
 10
-0.834092259407043
 20
0.796586275100708
 11
-0.834092259407043
 21
0.798175394535065
  0
LINE
  5
C0
100
AcDbEntity
  8
SEMA2D
100
AcDbLine
 62
7
  6
_SOLID
370
9
 10
-0.844120144844055
 20
0.830999314785004
 11
-0.842555344104767
 21
0.832564115524292
  0
LINE
  5
C1
100
AcDbEntity
  8
SEMA2D
100
AcDbLine
 62
7
  6
_SOLID
370
9
 10
-0.845653235912323
 20
0.783186495304108
 11
-0.849243640899658
 21
0.796586275100708
  0
LINE
  5
C2
100
AcDbEntity
  8
SEMA2D
100
AcDbLine
 62
7
  6
_SOLID
370
9
 10
-0.848327875137329
 20
0.783186495304108
 11
-0.851551711559296
 21
0.795218110084534
  0
LINE
  5
C3
100
AcDbEntity
  8
SEMA2D
100
AcDbLine
 62
7
  6
_SOLID
370
9
 10
-0.838662326335907
 20
0.798175394535065
 11
-0.83732545375824
 21
0.807687819004059
  0
LINE
  5
C4
100
AcDbEntity
  8
SEMA2D
100
AcDbLine
 62
7
  6
_SOLID
370
9
 10
-0.845957636833191
 20
0.816108644008636
 11
-0.833208858966827
 21
0.828857421875
  0
LINE
  5
C5
100
AcDbEntity
  8
SEMA2D
100
AcDbLine
 62
7
  6
_SOLID
370
9
 10
-0.865480005741119
 20
0.796586275100708
 11
-0.853480994701385
 21
0.808585286140442
  0
LINE
  5
C6
100
AcDbEntity
  8
SEMA2D
100
AcDbLine
 62
7
  6
_SOLID
370
9
 10
-0.818817794322968
 20
0.796586275100708
 11
-0.818817794322968
 21
0.798175394535065
  0
LINE
  5
C7
100
AcDbEntity
  8
SEMA2D
100
AcDbLine
 62
7
  6
_SOLID
370
9
 10
-0.858953416347504
 20
0.796586275100708
 11
-0.829699337482452
 21
0.825840353965759
  0
LINE
  5
C8
100
AcDbEntity
  8
SEMA2D
100
AcDbLine
 62
7
  6
_SOLID
370
9
 10
-0.824526846408844
 20
0.796586275100708
 11
-0.828117251396179
 21
0.783186495304108
  0
LINE
  5
C9
100
AcDbEntity
  8
SEMA2D
100
AcDbLine
 62
7
  6
_SOLID
370
9
 10
-0.828117251396179
 20
0.781818330287933
 11
-0.828117251396179
 21
0.783186495304108
  0
LINE
  5
CA
100
AcDbEntity
  8
SEMA2D
100
AcDbLine
 62
7
  6
_SOLID
370
9
 10
-0.834092259407043
 20
0.798175394535065
 11
-0.832178354263306
 21
0.811793208122253
  0
LINE
  5
CB
100
AcDbEntity
  8
SEMA2D
100
AcDbLine
 62
7
  6
_SOLID
370
9
 10
-0.84466940164566
 20
0.823923528194428
 11
-0.836557865142822
 21
0.832035005092621
  0
LINE
  5
CC
100
AcDbEntity
  8
SEMA2D
100
AcDbLine
 62
7
  6
_SOLID
370
9
 10
-0.872006595134735
 20
0.796586275100708
 11
-0.860007584095001
 21
0.808585286140442
  0
LINE
  5
CD
100
AcDbEntity
  8
SEMA2D
100
AcDbLine
 62
7
  6
_SOLID
370
9
 10
-0.89155250787735
 20
0.796620190143585
 11
-0.879587411880493
 21
0.808585286140442
  0
LINE
  5
CE
100
AcDbEntity
  8
SEMA2D
100
AcDbLine
 62
7
  6
_SOLID
370
9
 10
-0.8934605717659
 20
0.801238715648651
 11
-0.885043621063232
 21
0.809655666351318
  0
LINE
  5
CF
100
AcDbEntity
  8
SEMA2D
100
AcDbLine
 62
7
  6
_SOLID
370
9
 10
-0.845653235912323
 20
0.781818330287933
 11
-0.845653235912323
 21
0.783186495304108
  0
LINE
  5
D0
100
AcDbEntity
  8
SEMA2D
100
AcDbLine
 62
7
  6
_SOLID
370
9
 10
-0.844658374786377
 20
0.824046969413757
 11
-0.844133496284485
 21
0.830878674983978
  0
LINE
  5
D1
100
AcDbEntity
  8
SEMA2D
100
AcDbLine
 62
7
  6
_SOLID
370
9
 10
-0.844139635562897
 20
0.830878674983978
 11
-0.844664454460144
 21
0.824046969413757
  0
ARC
  5
D2
100
AcDbEntity
  8
SEMA2D
100
AcDbCircle
 62
7
  6
_SOLID
370
9
 10
-0.853334784507751
 20
0.794740319252014
 40
0.00184599997010082
100
AcDbArc
 50
15.0000009536743
 51
90
  0
ARC
  5
D3
100
AcDbEntity
  8
SEMA2D
100
AcDbCircle
 62
7
  6
_SOLID
370
9
 10
-0.696321368217468
 20
0.800278306007385
 40
0.00184599997010082
100
AcDbArc
 50
188
 51
270
  0
ARC
  5
D4
100
AcDbEntity
  8
SEMA2D
100
AcDbCircle
 62
7
  6
_SOLID
370
9
 10
-0.846544742584228
 20
0.783664286136627
 40
0.00184599997010082
100
AcDbArc
 50
195
 51
270
  0
ARC
  5
D5
100
AcDbEntity
  8
SEMA2D
100
AcDbCircle
 62
7
  6
_SOLID
370
9
 10
-0.812415659427643
 20
0.798432290554047
 40
0.00184599997010082
100
AcDbArc
 50
190
 51
270
  0
ARC
  5
D6
100
AcDbEntity
  8
SEMA2D
100
AcDbCircle
 62
7
  6
_SOLID
370
9
 10
-0.840230941772461
 20
0.800278306007385
 40
0.00184599997010082
100
AcDbArc
 50
270
 51
352
  0
ARC
  5
D7
100
AcDbEntity
  8
SEMA2D
100
AcDbCircle
 62
7
  6
_SOLID
370
9
 10
-0.809052646160126
 20
0.798432290554047
 40
0.00184599997010082
100
AcDbArc
 50
270
 51
350
  0
ARC
  5
D8
100
AcDbEntity
  8
SEMA2D
100
AcDbCircle
 62
7
  6
_SOLID
370
9
 10
-0.721367657184601
 20
0.798432290554047
 40
0.00184599997010082
100
AcDbArc
 50
270
 51
350
  0
ARC
  5
D9
100
AcDbEntity
  8
SEMA2D
100
AcDbCircle
 62
7
  6
_SOLID
370
9
 10
-0.724730670452118
 20
0.798432290554047
 40
0.00184599997010082
100
AcDbArc
 50
190
 51
270
  0
ARC
  5
DA
100
AcDbEntity
  8
SEMA2D
100
AcDbCircle
 62
7
  6
_SOLID
370
9
 10
-0.702468037605286
 20
0.783664286136627
 40
0.00184599997010082
100
AcDbArc
 50
270
 51
345
  0
ARC
  5
DB
100
AcDbEntity
  8
SEMA2D
100
AcDbCircle
 62
7
  6
_SOLID
370
9
 10
-0.840490341186523
 20
0.798432290554047
 40
0.00184599997010082
100
AcDbArc
 50
270
 51
352
  0
ARC
  5
DC
100
AcDbEntity
  8
SEMA2D
100
AcDbCircle
 62
7
  6
_SOLID
370
9
 10
-0.695677995681763
 20
0.794740319252014
 40
0.00184599903877825
100
AcDbArc
 50
95.309700012207
 51
164.999984741211
  0
ARC
  5
DD
100
AcDbEntity
  8
SEMA2D
100
AcDbCircle
 62
7
  6
_SOLID
370
9
 10
-0.780150294303894
 20
0.78274130821228
 40
0.00184599997010082
100
AcDbArc
 50
195
 51
270
  0
ARC
  5
DE
100
AcDbEntity
  8
SEMA2D
100
AcDbCircle
 62
7
  6
_SOLID
370
9
 10
-0.827225744724274
 20
0.783664286136627
 40
0.00184599997010082
100
AcDbArc
 50
270
 51
345
  0
ARC
  5
DF
100
AcDbEntity
  8
SEMA2D
100
AcDbCircle
 62
7
  6
_SOLID
370
9
 10
-0.768401026725769
 20
0.78274130821228
 40
0.00184599997010082
100
AcDbArc
 50
270
 51
345
  0
ARC
  5
E0
100
AcDbEntity
  8
SEMA2D
100
AcDbCircle
 62
7
  6
_SOLID
370
9
 10
-0.721787095069885
 20
0.783664286136627
 40
0.00184599997010082
100
AcDbArc
 50
195
 51
270
  0
ARC
  5
E1
100
AcDbEntity
  8
SEMA2D
100
AcDbCircle
 62
7
  6
_SOLID
370
9
 10
-0.838712990283966
 20
0.827968299388886
 40
0.00461499998345971
100
AcDbArc
 50
41.8165168762207
 51
87.2166213989258
  0
ARC
  5
E2
100
AcDbEntity
  8
SEMA2D
100
AcDbCircle
 62
7
  6
_SOLID
370
9
 10
-0.786365747451782
 20
0.818792760372162
 40
0.00461499998345971
100
AcDbArc
 50
94.4268188476563
 51
118.299583435059
  0
ARC
  5
E3
100
AcDbEntity
  8
SEMA2D
100
AcDbCircle
 62
7
  6
_SOLID
370
9
 10
-0.771803379058838
 20
0.827968299388886
 40
0.00461499998345971
100
AcDbArc
 50
90
 51
150.002227783203
  0
ARC
  5
E4
100
AcDbEntity
  8
SEMA2D
100
AcDbCircle
 62
7
  6
_SOLID
370
9
 10
-0.759672462940216
 20
0.827968299388886
 40
0.00461499998345971
100
AcDbArc
 50
29.9977722167969
 51
90
  0
ARC
  5
E5
100
AcDbEntity
  8
SEMA2D
100
AcDbCircle
 62
7
  6
_SOLID
370
9
 10
-0.745110094547272
 20
0.818792760372162
 40
0.00461499998345971
100
AcDbArc
 50
61.7004203796387
 51
85.5731811523437
  0
ARC
  5
E6
100
AcDbEntity
  8
SEMA2D
100
AcDbCircle
 62
7
  6
_SOLID
370
9
 10
-0.867998719215393
 20
0.813200294971466
 40
0.00184599997010082
100
AcDbArc
 50
162.912734985352
 51
164.054611206055
  0
ARC
  5
E7
100
AcDbEntity
  8
SEMA2D
100
AcDbCircle
 62
7
  6
_SOLID
370
9
 10
-0.86886465549469
 20
0.830737292766571
 40
0.00184599997010082
100
AcDbArc
 50
90
 51
170.106704711914
  0
ARC
  5
E8
100
AcDbEntity
  8
SEMA2D
100
AcDbCircle
 62
7
  6
_SOLID
370
9
 10
-0.890678882598877
 20
0.827581942081451
 40
0.0461499989032745
100
AcDbArc
 50
347
 51
355.60693359375
  0
ARC
  5
E9
100
AcDbEntity
  8
SEMA2D
100
AcDbCircle
 62
7
  6
_SOLID
370
9
 10
-0.850935935974121
 20
0.796586275100708
 40
0.00184599997010082
100
AcDbArc
 50
90
 51
150
  0
ARC
  5
EA
100
AcDbEntity
  8
SEMA2D
100
AcDbCircle
 62
7
  6
_SOLID
370
9
 10
-0.854133307933807
 20
0.798432290554047
 40
0.00184599997010082
100
AcDbArc
 50
270
 51
330
  0
ARC
  5
EB
100
AcDbEntity
  8
SEMA2D
100
AcDbCircle
 62
7
  6
_SOLID
370
9
 10
-0.698940813541412
 20
0.798432290554047
 40
0.00184599997010082
100
AcDbArc
 50
192
 51
270
  0
ARC
  5
EC
100
AcDbEntity
  8
SEMA2D
100
AcDbCircle
 62
7
  6
_SOLID
370
9
 10
-0.692762851715088
 20
0.827968299388886
 40
0.00461499998345971
100
AcDbArc
 50
90
 51
138.183502197266
  0
ARC
  5
ED
100
AcDbEntity
  8
SEMA2D
100
AcDbCircle
 62
7
  6
_SOLID
370
9
 10
-0.706675946712494
 20
0.803747773170471
 40
0.00461499998345971
100
AcDbArc
 50
12.0000009536743
 51
93.2910690307617
  0
ARC
  5
EE
100
AcDbEntity
  8
SEMA2D
100
AcDbCircle
 62
7
  6
_SOLID
370
9
 10
-0.875429451465607
 20
0.814584791660309
 40
0.00184599997010082
100
AcDbArc
 50
270
 51
350.106719970703
  0
ARC
  5
EF
100
AcDbEntity
  8
SEMA2D
100
AcDbCircle
 62
7
  6
_SOLID
370
9
 10
-0.888583242893219
 20
0.815138578414917
 40
0.00175369996577501
100
AcDbArc
 50
9.35221576690674
 51
90
  0
ARC
  5
F0
100
AcDbEntity
  8
SEMA2D
100
AcDbCircle
 62
7
  6
_SOLID
370
9
 10
-0.731959700584412
 20
0.800901770591736
 40
0.00484462082386017
100
AcDbArc
 50
10.5950412750244
 51
94.3682022094727
  0
ARC
  5
F1
100
AcDbEntity
  8
SEMA2D
100
AcDbCircle
 62
7
  6
_SOLID
370
9
 10
-0.698251008987427
 20
0.958950638771057
 40
0.156962260603905
100
AcDbArc
 50
247.04557800293
 51
257.460815429687
  0
ARC
  5
F2
100
AcDbEntity
  8
SEMA2D
100
AcDbCircle
 62
7
  6
_SOLID
370
9
 10
-0.70134574174881
 20
0.782608568668365
 40
0.0263475459069014
100
AcDbArc
 50
102.260688781738
 51
131.498840332031
  0
ARC
  5
F3
100
AcDbEntity
  8
SEMA2D
100
AcDbCircle
 62
7
  6
_SOLID
370
9
 10
-0.692154824733734
 20
0.800281047821045
 40
0.00184873375110328
100
AcDbArc
 50
270
 51
352.944000244141
  0
ARC
  5
F4
100
AcDbEntity
  8
SEMA2D
100
AcDbCircle
 62
7
  6
_SOLID
370
9
 10
-0.704267799854279
 20
0.80322539806366
 40
0.00578445708379149
100
AcDbArc
 50
21.9886989593506
 51
117.524085998535
  0
ARC
  5
F5
100
AcDbEntity
  8
SEMA2D
100
AcDbCircle
 62
7
  6
_SOLID
370
9
 10
-0.682949244976044
 20
0.813520312309265
 40
0.00575709249824286
100
AcDbArc
 50
99.4182586669922
 51
163.600677490234
  0
ARC
  5
F6
100
AcDbEntity
  8
SEMA2D
100
AcDbCircle
 62
7
  6
_SOLID
370
9
 10
-0.673353135585785
 20
0.814354419708252
 40
0.00484862737357616
100
AcDbArc
 50
15.3974151611328
 51
87.8949127197266
  0
ARC
  5
F7
100
AcDbEntity
  8
SEMA2D
100
AcDbCircle
 62
7
  6
_SOLID
370
9
 10
-0.66560560464859
 20
0.812933564186096
 40
0.00159148348029703
100
AcDbArc
 50
262.888671875
 51
350.008575439453
  0
ARC
  5
F8
100
AcDbEntity
  8
SEMA2D
100
AcDbCircle
 62
7
  6
_SOLID
370
9
 10
-0.641831159591675
 20
0.83073478937149
 40
0.00184851745143533
100
AcDbArc
 50
8.06779766082764
 51
90
  0
ARC
  5
F9
100
AcDbEntity
  8
SEMA2D
100
AcDbCircle
 62
7
  6
_SOLID
370
9
 10
-0.744233191013336
 20
0.836328089237213
 40
0.0129445716738701
100
AcDbArc
 50
207.876358032227
 51
267.694671630859
  0
ARC
  5
FA
100
AcDbEntity
  8
SEMA2D
100
AcDbCircle
 62
7
  6
_SOLID
370
9
 10
-0.724792718887329
 20
0.854790091514587
 40
0.036721259355545
100
AcDbArc
 50
240.415664672852
 51
278.086853027344
  0
ARC
  5
FB
100
AcDbEntity
  8
SEMA2D
100
AcDbCircle
 62
7
  6
_SOLID
370
9
 10
-0.724463403224945
 20
0.855477750301361
 40
0.0373581424355507
100
AcDbArc
 50
277.438415527344
 51
319.155792236328
  0
ARC
  5
FC
100
AcDbEntity
  8
SEMA2D
100
AcDbCircle
 62
7
  6
_SOLID
370
9
 10
-0.787242650985718
 20
0.836328089237213
 40
0.0129445716738701
100
AcDbArc
 50
272.305328369141
 51
332.123657226562
  0
ARC
  5
FD
100
AcDbEntity
  8
SEMA2D
100
AcDbCircle
 62
7
  6
_SOLID
370
9
 10
-0.80668306350708
 20
0.854790091514587
 40
0.036721259355545
100
AcDbArc
 50
261.913146972656
 51
299.584350585937
  0
ARC
  5
FE
100
AcDbEntity
  8
SEMA2D
100
AcDbCircle
 62
7
  6
_SOLID
370
9
 10
-0.807012379169464
 20
0.855477750301361
 40
0.0373581424355507
100
AcDbArc
 50
220.844207763672
 51
262.561584472656
  0
ARC
  5
FF
100
AcDbEntity
  8
SEMA2D
100
AcDbCircle
 62
7
  6
_SOLID
370
9
 10
-0.890739917755127
 20
0.798963844776154
 40
0.00242204777896404
100
AcDbArc
 50
198.998336791992
 51
259.001678466797
  0
ARC
  5
100
100
AcDbEntity
  8
SEMA2D
100
AcDbCircle
 62
7
  6
_SOLID
370
9
 10
-0.892185688018799
 20
0.815414547920227
 40
0.00149710499681532
100
AcDbArc
 50
80.7801666259766
 51
181.220260620117
  0
ARC
  5
101
100
AcDbEntity
  8
SEMA2D
100
AcDbCircle
 62
7
  6
_SOLID
370
9
 10
-0.874716937541962
 20
0.813206672668457
 40
0.00462135393172503
100
AcDbArc
 50
270
 51
343.995208740234
  0
ARC
  5
102
100
AcDbEntity
  8
SEMA2D
100
AcDbCircle
 62
7
  6
_SOLID
370
9
 10
-0.867994070053101
 20
0.81319397687912
 40
0.00185230164788663
100
AcDbArc
 50
90
 51
162.768692016602
  0
ARC
  5
103
100
AcDbEntity
  8
SEMA2D
100
AcDbCircle
 62
7
  6
_SOLID
370
9
 10
-0.866952180862427
 20
0.813867926597595
 40
0.00119099416770041
100
AcDbArc
 50
352.254241943359
 51
81.6423034667969
  0
ARC
  5
104
100
AcDbEntity
  8
SEMA2D
100
AcDbCircle
 62
7
  6
_SOLID
370
9
 10
-0.860822021961212
 20
0.813207507133484
 40
0.0046222205273807
100
AcDbArc
 50
196.012878417969
 51
270
  0
ARC
  5
105
100
AcDbEntity
  8
SEMA2D
100
AcDbCircle
 62
7
  6
_SOLID
370
9
 10
-0.851089358329773
 20
0.812853157520294
 40
0.00427678972482681
100
AcDbArc
 50
266.298217773438
 51
350.701782226562
  0
LINE
  5
106
100
AcDbEntity
  8
SEMA2D
100
AcDbLine
 62
7
  6
_SOLID
370
9
 10
-0.845711708068848
 20
0.817200481891632
 11
-0.846868753433228
 21
0.812162160873413
  0
LINE
  5
107
100
AcDbEntity
  8
SEMA2D
100
AcDbLine
 62
7
  6
_SOLID
370
9
 10
-0.886852860450745
 20
0.815423607826233
 11
-0.886203467845917
 21
0.811791181564331
  0
ARC
  5
108
100
AcDbEntity
  8
SEMA2D
100
AcDbCircle
 62
7
  6
_SOLID
370
9
 10
-0.801867961883545
 20
0.800650238990784
 40
0.00484462082386017
100
AcDbArc
 50
85.6317977905273
 51
169.40495300293
  0
ARC
  5
109
100
AcDbEntity
  8
SEMA2D
100
AcDbCircle
 62
7
  6
_SOLID
370
9
 10
-0.832227349281311
 20
0.958950638771057
 40
0.156962260603905
100
AcDbArc
 50
282.539184570313
 51
292.954437255859
  0
ARC
  5
10A
100
AcDbEntity
  8
SEMA2D
100
AcDbCircle
 62
7
  6
_SOLID
370
9
 10
-0.800797462463379
 20
0.81856381893158
 40
0.0131018199026585
100
AcDbArc
 50
266.930633544922
 51
281.659301757813
  0
ARC
  5
10B
100
AcDbEntity
  8
SEMA2D
100
AcDbCircle
 62
7
  6
_SOLID
370
9
 10
-0.82173877954483
 20
0.800394713878632
 40
0.00711284950375557
100
AcDbArc
 50
20.4587459564209
 51
91.5266494750977
  0
ARC
  5
10C
100
AcDbEntity
  8
SEMA2D
100
AcDbCircle
 62
7
  6
_SOLID
370
9
 10
-0.8047816157341
 20
0.861292958259582
 40
0.0564548149704933
100
AcDbArc
 50
242.184234619141
 51
252.318649291992
  0
ARC
  5
10D
100
AcDbEntity
  8
SEMA2D
100
AcDbCircle
 62
7
  6
_SOLID
370
9
 10
-0.833201766014099
 20
0.807797074317932
 40
0.00412510801106691
100
AcDbArc
 50
59.7740020751953
 51
181.517990112305
  0
ARC
  5
10E
100
AcDbEntity
  8
SEMA2D
100
AcDbCircle
 62
7
  6
_SOLID
370
9
 10
-0.692772090435028
 20
0.79863315820694
 40
0.00205449690110981
100
AcDbArc
 50
274.947265625
 51
347.887939453125
  0
ARC
  5
10F
100
AcDbEntity
  8
SEMA2D
100
AcDbCircle
 62
7
  6
_SOLID
370
9
 10
-0.642754316329956
 20
0.813053786754608
 40
0.00170427258126438
100
AcDbArc
 50
270
 51
-3.71486568450928
  0
ARC
  5
110
100
AcDbEntity
  8
SEMA2D
100
AcDbCircle
 62
7
  6
_SOLID
370
9
 10
-0.646083772182465
 20
0.813637733459473
 40
0.00230622268281877
100
AcDbArc
 50
205.15446472168
 51
261.941345214844
  0
ARC
  5
111
100
AcDbEntity
  8
SEMA2D
100
AcDbCircle
 62
7
  6
_SOLID
370
9
 10
-0.6521075963974
 20
0.813617348670959
 40
0.0037591434083879
100
AcDbArc
 50
354.827209472656
 51
83.7019119262695
  0
ARC
  5
112
100
AcDbEntity
  8
SEMA2D
100
AcDbCircle
 62
7
  6
_SOLID
370
9
 10
-0.659792721271515
 20
0.813583672046661
 40
0.00381884863600135
100
AcDbArc
 50
80.838264465332
 51
166.116470336914
  0
ARC
  5
113
100
AcDbEntity
  8
SEMA2D
100
AcDbCircle
 62
7
  6
_SOLID
370
9
 10
-0.666884958744049
 20
0.814025700092316
 40
0.00274993968196213
100
AcDbArc
 50
207.07275390625
 51
256.274322509766
  0
ARC
  5
114
100
AcDbEntity
  8
SEMA2D
100
AcDbCircle
 62
7
  6
_SOLID
370
9
 10
-0.67068088054657
 20
0.813471496105194
 40
0.00115136662498116
100
AcDbArc
 50
16.2359447479248
 51
104.77799987793
  0
LINE
  5
115
100
AcDbEntity
  8
SEMA2D
100
AcDbLine
 62
7
  6
_SOLID
370
9
 10
-0.648363769054413
 20
0.813278436660767
 11
-0.648171305656433
 21
0.812657475471497
  0
LINE
  5
116
100
AcDbEntity
  8
SEMA2D
100
AcDbLine
 62
7
  6
_SOLID
370
9
 10
-1.0939804315567
 20
0.17478646337986
 11
-1.08290445804596
 21
0.17478646337986
  0
LINE
  5
117
100
AcDbEntity
  8
SEMA2D
100
AcDbLine
 62
7
  6
_SOLID
370
9
 10
-1.10521924495697
 20
0.179776430130005
 11
-1.08659648895264
 21
0.17478646337986
  0
LINE
  5
118
100
AcDbEntity
  8
SEMA2D
100
AcDbLine
 62
7
  6
_SOLID
370
9
 10
-1.08290445804596
 20
0.175709456205368
 11
-1.0692640542984
 21
0.177626490592957
  0
ARC
  5
119
100
AcDbEntity
  8
SEMA2D
100
AcDbCircle
 62
7
  6
_SOLID
370
9
 10
-1.08105850219727
 20
0.189513683319092
 40
0.00184599997010082
100
AcDbArc
 50
180
 51
255
  0
ARC
  5
11A
100
AcDbEntity
  8
SEMA2D
100
AcDbCircle
 62
7
  6
_SOLID
370
9
 10
-1.06952095031738
 20
0.182599976658821
 40
0.00184599997010082
100
AcDbArc
 50
0
 51
74.9999923706055
  0
ARC
  5
11B
100
AcDbEntity
  8
SEMA2D
100
AcDbCircle
 62
7
  6
_SOLID
370
9
 10
-1.06952095031738
 20
0.179454535245895
 40
0.00184599997010082
100
AcDbArc
 50
278
 51
0
  0
ARC
  5
11C
100
AcDbEntity
  8
SEMA2D
100
AcDbCircle
 62
7
  6
_SOLID
370
9
 10
-1.09674942493439
 20
0.481938034296036
 40
0.00461499998345971
100
AcDbArc
 50
180
 51
260.782257080078
  0
ARC
  5
11D
100
AcDbEntity
  8
SEMA2D
100
AcDbCircle
 62
7
  6
_SOLID
370
9
 10
-1.09523057937622
 20
0.297739118337631
 40
0.00461499998345971
100
AcDbArc
 50
99.2177505493164
 51
180.582641601562
  0
ARC
  5
11E
100
AcDbEntity
  8
SEMA2D
100
AcDbCircle
 62
7
  6
_SOLID
370
9
 10
-1.11724007129669
 20
0.570521652698517
 40
0.00166139996144921
100
AcDbArc
 50
100
 51
180
  0
ARC
  5
11F
100
AcDbEntity
  8
SEMA2D
100
AcDbCircle
 62
7
  6
_SOLID
370
9
 10
-1.10597944259644
 20
0.576068699359894
 40
0.00184599997010082
100
AcDbArc
 50
280
 51
0
  0
ARC
  5
120
100
AcDbEntity
  8
SEMA2D
100
AcDbCircle
 62
7
  6
_SOLID
370
9
 10
-1.10044145584106
 20
0.197607412934303
 40
0.0184599999338388
100
AcDbArc
 50
180
 51
255
  0
ARC
  5
121
100
AcDbEntity
  8
SEMA2D
100
AcDbCircle
 62
7
  6
_SOLID
370
9
 10
-1.08475041389465
 20
0.597774028778076
 40
0.00184599997010082
100
AcDbArc
 50
0
 51
82
  0
ARC
  5
122
100
AcDbEntity
  8
SEMA2D
100
AcDbCircle
 62
7
  6
_SOLID
370
9
 10
-1.08475041389465
 20
0.600108981132507
 40
0.00184599997010082
100
AcDbArc
 50
6.20756009084289E-6
 51
82
  0
ARC
  5
123
100
AcDbEntity
  8
SEMA2D
100
AcDbCircle
 62
7
  6
_SOLID
370
9
 10
-1.08105850219727
 20
0.560368597507477
 40
0.00184599997010082
100
AcDbArc
 50
138.590377807617
 51
180
  0
ARC
  5
124
100
AcDbEntity
  8
SEMA2D
100
AcDbCircle
 62
7
  6
_SOLID
370
9
 10
-1.08475041389465
 20
0.305985391139984
 40
0.00184599950443953
100
AcDbArc
 50
279.217742919922
 51
-6.20756190983229E-6
  0
ARC
  5
125
100
AcDbEntity
  8
SEMA2D
100
AcDbCircle
 62
7
  6
_SOLID
370
9
 10
-1.06905949115753
 20
0.586474061012268
 40
0.00184599997010082
100
AcDbArc
 50
0
 51
75
  0
ARC
  5
126
100
AcDbEntity
  8
SEMA2D
100
AcDbCircle
 62
7
  6
_SOLID
370
9
 10
-1.06905949115753
 20
0.583542168140411
 40
0.00184599997010082
100
AcDbArc
 50
285
 51
-3.41415798175149E-5
  0
ARC
  5
127
100
AcDbEntity
  8
SEMA2D
100
AcDbCircle
 62
7
  6
_SOLID
370
9
 10
-1.08382749557495
 20
0.562810659408569
 40
0.00184599997010082
100
AcDbArc
 50
318.590393066406
 51
0
  0
ARC
  5
128
100
AcDbEntity
  8
SEMA2D
100
AcDbCircle
 62
7
  6
_SOLID
370
9
 10
-1.09674942493439
 20
0.460633158683777
 40
0.00461499998345971
100
AcDbArc
 50
99.2177505493164
 51
180
  0
ARC
  5
129
100
AcDbEntity
  8
SEMA2D
100
AcDbCircle
 62
7
  6
_SOLID
370
9
 10
-1.09544253349304
 20
0.318585425615311
 40
0.00461499998345971
100
AcDbArc
 50
180.582641601562
 51
260.782257080078
  0
ARC
  5
12A
100
AcDbEntity
  8
SEMA2D
100
AcDbCircle
 62
7
  6
_SOLID
370
9
 10
-1.08475041389465
 20
0.473445296287537
 40
0.00184599997010082
100
AcDbArc
 50
0
 51
80.7822494506836
  0
ARC
  5
12B
100
AcDbEntity
  8
SEMA2D
100
AcDbCircle
 62
7
  6
_SOLID
370
9
 10
-1.08475041389465
 20
0.469125926494598
 40
0.00184599950443953
100
AcDbArc
 50
279.217742919922
 51
-6.20756190983229E-6
  0
ARC
  5
12C
100
AcDbEntity
  8
SEMA2D
100
AcDbCircle
 62
7
  6
_SOLID
370
9
 10
-1.08475041389465
 20
0.310304760932922
 40
0.00184599997010082
100
AcDbArc
 50
0
 51
80.7822494506836
  0
ARC
  5
12D
100
AcDbEntity
  8
SEMA2D
100
AcDbCircle
 62
7
  6
_SOLID
370
9
 10
-1.08475041389465
 20
0.215639755129814
 40
0.00184599997010082
100
AcDbArc
 50
0
 51
82
  0
ARC
  5
12E
100
AcDbEntity
  8
SEMA2D
100
AcDbCircle
 62
7
  6
_SOLID
370
9
 10
-1.08475041389465
 20
0.211465165019035
 40
0.00184599997010082
100
AcDbArc
 50
278
 51
0
  0
ARC
  5
12F
100
AcDbEntity
  8
SEMA2D
100
AcDbCircle
 62
7
  6
_SOLID
370
9
 10
-1.09447598457336
 20
0.22353108227253
 40
0.00461499998345971
100
AcDbArc
 50
180.582641601562
 51
262
  0
ARC
  5
130
100
AcDbEntity
  8
SEMA2D
100
AcDbCircle
 62
7
  6
_SOLID
370
9
 10
-1.08475041389465
 20
0.519440174102783
 40
0.00184599997010082
100
AcDbArc
 50
278
 51
0
  0
ARC
  5
131
100
AcDbEntity
  8
SEMA2D
100
AcDbCircle
 62
7
  6
_SOLID
370
9
 10
-1.09674942493439
 20
0.511229336261749
 40
0.00461499998345971
100
AcDbArc
 50
98
 51
180
  0
ARC
  5
132
100
AcDbEntity
  8
SEMA2D
100
AcDbCircle
 62
7
  6
_SOLID
370
9
 10
-1.08705794811249
 20
0.530463576316833
 40
0.00461499998345971
100
AcDbArc
 50
180
 51
262
  0
ARC
  5
133
100
AcDbEntity
  8
SEMA2D
100
AcDbCircle
 62
7
  6
_SOLID
370
9
 10
-1.0842889547348
 20
0.182599976658821
 40
0.00184599997010082
100
AcDbArc
 50
0
 51
75
  0
ARC
  5
134
100
AcDbEntity
  8
SEMA2D
100
AcDbCircle
 62
7
  6
_SOLID
370
9
 10
-1.09427320957184
 20
0.203602328896523
 40
0.00461499998345971
100
AcDbArc
 50
98
 51
180.582641601562
  0
ARC
  5
135
100
AcDbEntity
  8
SEMA2D
100
AcDbCircle
 62
7
  6
_SOLID
370
9
 10
-1.09415459632874
 20
0.191932380199432
 40
0.00461499998345971
100
AcDbArc
 50
180.582641601562
 51
255
  0
ARC
  5
136
100
AcDbEntity
  8
SEMA2D
100
AcDbCircle
 62
7
  6
_SOLID
370
9
 10
-1.09351897239685
 20
0.599006414413452
 40
0.00184599997010082
100
AcDbArc
 50
0
 51
82
  0
ARC
  5
137
100
AcDbEntity
  8
SEMA2D
100
AcDbCircle
 62
7
  6
_SOLID
370
9
 10
-1.08982694149017
 20
0.595860958099365
 40
0.00184599997010082
100
AcDbArc
 50
180
 51
255
  0
ARC
  5
138
100
AcDbEntity
  8
SEMA2D
100
AcDbCircle
 62
7
  6
_SOLID
370
9
 10
-1.11714780330658
 20
0.600982546806335
 40
0.00175369996577501
100
AcDbArc
 50
98
 51
180
  0
ARC
  5
139
100
AcDbEntity
  8
SEMA2D
100
AcDbCircle
 62
7
  6
_SOLID
370
9
 10
-1.10597944259644
 20
0.590733587741852
 40
0.00184599997010082
100
AcDbArc
 50
0
 51
78
  0
ARC
  5
13A
100
AcDbEntity
  8
SEMA2D
100
AcDbCircle
 62
7
  6
_SOLID
370
9
 10
-1.11714780330658
 20
0.596787571907043
 40
0.00175369996577501
100
AcDbArc
 50
180
 51
258
  0
ARC
  5
13B
100
AcDbEntity
  8
SEMA2D
100
AcDbCircle
 62
7
  6
_SOLID
370
9
 10
-1.09674942493439
 20
0.531825602054596
 40
0.00461499998345971
100
AcDbArc
 50
180
 51
262
  0
ARC
  5
13C
100
AcDbEntity
  8
SEMA2D
100
AcDbCircle
 62
7
  6
_SOLID
370
9
 10
-1.08475041389465
 20
0.523614764213562
 40
0.00184599997010082
100
AcDbArc
 50
0
 51
82
  0
ARC
  5
13D
100
AcDbEntity
  8
SEMA2D
100
AcDbCircle
 62
7
  6
_SOLID
370
9
 10
-1.08290445804596
 20
0.545904397964478
 40
0.0184599999338388
100
AcDbArc
 50
135
 51
180
  0
ARC
  5
13E
100
AcDbEntity
  8
SEMA2D
100
AcDbCircle
 62
7
  6
_SOLID
370
9
 10
-1.08982694149017
 20
0.574155330657959
 40
0.00184599997010082
100
AcDbArc
 50
105
 51
180
  0
ARC
  5
13F
100
AcDbEntity
  8
SEMA2D
100
AcDbCircle
 62
7
  6
_SOLID
370
9
 10
-1.09628796577454
 20
0.565153896808624
 40
0.00461499998345971
100
AcDbArc
 50
315
 51
0
  0
ARC
  5
140
100
AcDbEntity
  8
SEMA2D
100
AcDbCircle
 62
7
  6
_SOLID
370
9
 10
-1.08105850219727
 20
0.593511402606964
 40
0.00184599997010082
100
AcDbArc
 50
180
 51
255
  0
ARC
  5
141
100
AcDbEntity
  8
SEMA2D
100
AcDbCircle
 62
7
  6
_SOLID
370
9
 10
-1.06998240947723
 20
0.581861555576324
 40
0.00184599997010082
100
AcDbArc
 50
285
 51
-3.41415798175149E-5
  0
ARC
  5
142
100
AcDbEntity
  8
SEMA2D
100
AcDbCircle
 62
7
  6
_SOLID
370
9
 10
-1.08013546466827
 20
0.575318813323975
 40
0.00184599997010082
100
AcDbArc
 50
105
 51
180
  0
ARC
  5
143
100
AcDbEntity
  8
SEMA2D
100
AcDbCircle
 62
7
  6
_SOLID
370
9
 10
-1.08982694149017
 20
0.5727219581604
 40
0.00184599915519357
100
AcDbArc
 50
105.000015258789
 51
180.000076293945
  0
LINE
  5
144
100
AcDbEntity
  8
SEMA2D
100
AcDbLine
 62
7
  6
_SOLID
370
9
 10
-1.06858170032501
 20
0.588257193565369
 11
-1.09030473232269
 21
0.594077825546265
  0
LINE
  5
145
100
AcDbEntity
  8
SEMA2D
100
AcDbLine
 62
7
  6
_SOLID
370
9
 10
-1.11751234531403
 20
0.595072209835053
 11
-1.10559570789337
 21
0.592539250850678
  0
LINE
  5
146
100
AcDbEntity
  8
SEMA2D
100
AcDbLine
 62
7
  6
_SOLID
370
9
 10
-1.09008383750916
 20
0.595860958099365
 11
-1.08449351787567
 21
0.594363033771515
  0
LINE
  5
147
100
AcDbEntity
  8
SEMA2D
100
AcDbLine
 62
7
  6
_SOLID
370
9
 10
-1.08449351787567
 20
0.597774028778076
 11
-1.09008383750916
 21
0.598559737205505
  0
LINE
  5
148
100
AcDbEntity
  8
SEMA2D
100
AcDbLine
 62
7
  6
_SOLID
370
9
 10
-1.08470630645752
 20
0.59976863861084
 11
-1.10679388046265
 21
0.602751433849335
  0
LINE
  5
149
100
AcDbEntity
  8
SEMA2D
100
AcDbLine
 62
7
  6
_SOLID
370
9
 10
-1.08449351787567
 20
0.599602103233337
 11
-1.10690248012543
 21
0.602751433849335
  0
LINE
  5
14A
100
AcDbEntity
  8
SEMA2D
100
AcDbLine
 62
7
  6
_SOLID
370
9
 10
-1.08470630645752
 20
0.601845026016235
 11
-1.09028851985931
 21
0.602751433849335
  0
LINE
  5
14B
100
AcDbEntity
  8
SEMA2D
100
AcDbLine
 62
7
  6
_SOLID
370
9
 10
-1.08449351787567
 20
0.601937055587769
 11
-1.09028851985931
 21
0.602751433849335
  0
LINE
  5
14C
100
AcDbEntity
  8
SEMA2D
100
AcDbLine
 62
7
  6
_SOLID
370
9
 10
-1.1105945110321
 20
0.603674471378326
 11
-1.09028851985931
 21
0.603674471378326
  0
LINE
  5
14D
100
AcDbEntity
  8
SEMA2D
100
AcDbLine
 62
7
  6
_SOLID
370
9
 10
-1.11890149116516
 20
0.387818574905396
 11
-1.10086393356323
 21
0.405856072902679
  0
LINE
  5
14E
100
AcDbEntity
  8
SEMA2D
100
AcDbLine
 62
7
  6
_SOLID
370
9
 10
-1.11890149116516
 20
0.394345164299011
 11
-1.10092961788177
 21
0.41231694817543
  0
LINE
  5
14F
100
AcDbEntity
  8
SEMA2D
100
AcDbLine
 62
7
  6
_SOLID
370
9
 10
-1.11890149116516
 20
0.600982546806335
 11
-1.11890149116516
 21
0.596787571907043
  0
LINE
  5
150
100
AcDbEntity
  8
SEMA2D
100
AcDbLine
 62
7
  6
_SOLID
370
9
 10
-1.11890149116516
 20
0.570521652698517
 11
-1.11890149116516
 21
0.197607412934303
  0
LINE
  5
151
100
AcDbEntity
  8
SEMA2D
100
AcDbLine
 62
7
  6
_SOLID
370
9
 10
-1.11890149116516
 20
0.400871753692627
 11
-1.10099542140961
 21
0.418777853250504
  0
LINE
  5
152
100
AcDbEntity
  8
SEMA2D
100
AcDbLine
 62
7
  6
_SOLID
370
9
 10
-1.10690248012543
 20
0.603674471378326
 11
-1.10690248012543
 21
0.602751433849335
  0
LINE
  5
153
100
AcDbEntity
  8
SEMA2D
100
AcDbLine
 62
7
  6
_SOLID
370
9
 10
-1.10136449337006
 20
0.455071449279785
 11
-1.10127997398376
 21
0.446764469146729
  0
LINE
  5
154
100
AcDbEntity
  8
SEMA2D
100
AcDbLine
 62
7
  6
_SOLID
370
9
 10
-1.11890149116516
 20
0.413924962282181
 11
-1.10112679004669
 21
0.431699633598328
  0
LINE
  5
155
100
AcDbEntity
  8
SEMA2D
100
AcDbLine
 62
7
  6
_SOLID
370
9
 10
-1.11890149116516
 20
0.420451551675796
 11
-1.10119247436523
 21
0.438160538673401
  0
LINE
  5
156
100
AcDbEntity
  8
SEMA2D
100
AcDbLine
 62
7
  6
_SOLID
370
9
 10
-1.11890149116516
 20
0.407398372888565
 11
-1.10106110572815
 21
0.425238758325577
  0
LINE
  5
157
100
AcDbEntity
  8
SEMA2D
100
AcDbLine
 62
7
  6
_SOLID
370
9
 10
-1.09888803958893
 20
0.203555390238762
 11
-1.09876930713654
 21
0.191885456442833
  0
LINE
  5
158
100
AcDbEntity
  8
SEMA2D
100
AcDbLine
 62
7
  6
_SOLID
370
9
 10
-1.09984540939331
 20
0.297692209482193
 11
-1.09909069538116
 21
0.223484143614769
  0
LINE
  5
159
100
AcDbEntity
  8
SEMA2D
100
AcDbLine
 62
7
  6
_SOLID
370
9
 10
-1.10012543201447
 20
0.325235456228256
 11
-1.10005736351013
 21
0.318538516759872
  0
LINE
  5
15A
100
AcDbEntity
  8
SEMA2D
100
AcDbLine
 62
7
  6
_SOLID
370
9
 10
-1.1188999414444
 20
0.570564746856689
 11
-1.11725950241089
 21
0.572205245494843
  0
LINE
  5
15B
100
AcDbEntity
  8
SEMA2D
100
AcDbLine
 62
7
  6
_SOLID
370
9
 10
-1.10436499118805
 20
0.591626405715942
 11
-1.09492337703705
 21
0.601067900657654
  0
LINE
  5
15C
100
AcDbEntity
  8
SEMA2D
100
AcDbLine
 62
7
  6
_SOLID
370
9
 10
-1.10413348674774
 20
0.58533126115799
 11
-1.09167301654816
 21
0.597791731357574
  0
LINE
  5
15D
100
AcDbEntity
  8
SEMA2D
100
AcDbLine
 62
7
  6
_SOLID
370
9
 10
-1.10413348674774
 20
0.578804671764374
 11
-1.08916556835175
 21
0.59377259016037
  0
LINE
  5
15E
100
AcDbEntity
  8
SEMA2D
100
AcDbLine
 62
7
  6
_SOLID
370
9
 10
-1.11890149116516
 20
0.564036667346954
 11
-1.10933566093445
 21
0.573602437973022
  0
LINE
  5
15F
100
AcDbEntity
  8
SEMA2D
100
AcDbLine
 62
7
  6
_SOLID
370
9
 10
-1.08442986011505
 20
0.222006574273109
 11
-1.08290445804596
 21
0.222006574273109
  0
LINE
  5
160
100
AcDbEntity
  8
SEMA2D
100
AcDbLine
 62
7
  6
_SOLID
370
9
 10
-1.11459290981293
 20
0.594451665878296
 11
-1.10636818408966
 21
0.602676391601562
  0
LINE
  5
161
100
AcDbEntity
  8
SEMA2D
100
AcDbLine
 62
7
  6
_SOLID
370
9
 10
-1.08449351787567
 20
0.217467784881592
 11
-1.09511816501617
 21
0.218960985541344
  0
LINE
  5
162
100
AcDbEntity
  8
SEMA2D
100
AcDbLine
 62
7
  6
_SOLID
370
9
 10
-1.10921037197113
 20
0.593307554721832
 11
-1.10064578056335
 21
0.601872146129608
  0
LINE
  5
163
100
AcDbEntity
  8
SEMA2D
100
AcDbLine
 62
7
  6
_SOLID
370
9
 10
-1.09302461147308
 20
0.561890602111816
 11
-1.09595763683319
 21
0.558957576751709
  0
LINE
  5
164
100
AcDbEntity
  8
SEMA2D
100
AcDbLine
 62
7
  6
_SOLID
370
9
 10
-1.07744717597961
 20
0.579384624958038
 11
-1.0694363117218
 21
0.587395370006561
  0
LINE
  5
165
100
AcDbEntity
  8
SEMA2D
100
AcDbLine
 62
7
  6
_SOLID
370
9
 10
-1.11890149116516
 20
0.531403660774231
 11
-1.10105550289154
 21
0.549249649047852
  0
LINE
  5
166
100
AcDbEntity
  8
SEMA2D
100
AcDbLine
 62
7
  6
_SOLID
370
9
 10
-1.11890149116516
 20
0.518350481986999
 11
-1.10136449337006
 21
0.535887479782105
  0
LINE
  5
167
100
AcDbEntity
  8
SEMA2D
100
AcDbLine
 62
7
  6
_SOLID
370
9
 10
-1.11890149116516
 20
0.524877071380615
 11
-1.10136449337006
 21
0.54241406917572
  0
LINE
  5
168
100
AcDbEntity
  8
SEMA2D
100
AcDbLine
 62
7
  6
_SOLID
370
9
 10
-1.11890149116516
 20
0.550983488559723
 11
-1.07887077331543
 21
0.59101414680481
  0
LINE
  5
169
100
AcDbEntity
  8
SEMA2D
100
AcDbLine
 62
7
  6
_SOLID
370
9
 10
-1.11890149116516
 20
0.557510077953339
 11
-1.08401811122894
 21
0.592393338680267
  0
LINE
  5
16A
100
AcDbEntity
  8
SEMA2D
100
AcDbLine
 62
7
  6
_SOLID
370
9
 10
-1.11890149116516
 20
0.544456839561462
 11
-1.09167301654816
 21
0.571685373783112
  0
LINE
  5
16B
100
AcDbEntity
  8
SEMA2D
100
AcDbLine
 62
7
  6
_SOLID
370
9
 10
-1.11890149116516
 20
0.537930250167847
 11
-1.09167301654816
 21
0.565158784389496
  0
LINE
  5
16C
100
AcDbEntity
  8
SEMA2D
100
AcDbLine
 62
7
  6
_SOLID
370
9
 10
-1.08636403083801
 20
0.576994359493256
 11
-1.0738662481308
 21
0.589492082595825
  0
LINE
  5
16D
100
AcDbEntity
  8
SEMA2D
100
AcDbLine
 62
7
  6
_SOLID
370
9
 10
-1.08381116390228
 20
0.184383079409599
 11
-1.09534907341003
 21
0.187474638223648
  0
LINE
  5
16E
100
AcDbEntity
  8
SEMA2D
100
AcDbLine
 62
7
  6
_SOLID
370
9
 10
-1.08228707313538
 20
0.187931746244431
 11
-1.06904315948486
 21
0.184383079409599
  0
LINE
  5
16F
100
AcDbEntity
  8
SEMA2D
100
AcDbLine
 62
7
  6
_SOLID
370
9
 10
-1.08442986011505
 20
0.193041548132896
 11
-1.08290445804596
 21
0.193041548132896
  0
LINE
  5
170
100
AcDbEntity
  8
SEMA2D
100
AcDbLine
 62
7
  6
_SOLID
370
9
 10
-1.09491550922394
 20
0.208172410726547
 11
-1.08449351787567
 21
0.209637120366097
  0
LINE
  5
171
100
AcDbEntity
  8
SEMA2D
100
AcDbLine
 62
7
  6
_SOLID
370
9
 10
-1.08442986011505
 20
0.20509834587574
 11
-1.08290445804596
 21
0.20509834587574
  0
LINE
  5
172
100
AcDbEntity
  8
SEMA2D
100
AcDbLine
 62
7
  6
_SOLID
370
9
 10
-1.11889755725861
 20
0.596673548221588
 11
-1.11210954189301
 21
0.603461503982544
  0
LINE
  5
173
100
AcDbEntity
  8
SEMA2D
100
AcDbLine
 62
7
  6
_SOLID
370
9
 10
-1.09301888942719
 20
0.465913951396942
 11
-1.08386731147766
 21
0.475065469741821
  0
LINE
  5
174
100
AcDbEntity
  8
SEMA2D
100
AcDbLine
 62
7
  6
_SOLID
370
9
 10
-1.11890149116516
 20
0.440031349658966
 11
-1.10136449337006
 21
0.457568347454071
  0
LINE
  5
175
100
AcDbEntity
  8
SEMA2D
100
AcDbLine
 62
7
  6
_SOLID
370
9
 10
-1.11890149116516
 20
0.433504730463028
 11
-1.10132384300232
 21
0.451082319021225
  0
LINE
  5
176
100
AcDbEntity
  8
SEMA2D
100
AcDbLine
 62
7
  6
_SOLID
370
9
 10
-1.11890149116516
 20
0.426978141069412
 11
-1.10125815868378
 21
0.444621413946152
  0
LINE
  5
177
100
AcDbEntity
  8
SEMA2D
100
AcDbLine
 62
7
  6
_SOLID
370
9
 10
-1.08522796630859
 20
0.467178285121918
 11
-1.08290445804596
 21
0.469501733779907
  0
LINE
  5
178
100
AcDbEntity
  8
SEMA2D
100
AcDbLine
 62
7
  6
_SOLID
370
9
 10
-1.11890149116516
 20
0.492244094610214
 11
-1.10136449337006
 21
0.509781122207642
  0
LINE
  5
179
100
AcDbEntity
  8
SEMA2D
100
AcDbLine
 62
7
  6
_SOLID
370
9
 10
-1.11890149116516
 20
0.498770713806152
 11
-1.09127616882324
 21
0.526396036148071
  0
LINE
  5
17A
100
AcDbEntity
  8
SEMA2D
100
AcDbLine
 62
7
  6
_SOLID
370
9
 10
-1.09501171112061
 20
0.516133904457092
 11
-1.08555376529694
 21
0.525591790676117
  0
LINE
  5
17B
100
AcDbEntity
  8
SEMA2D
100
AcDbLine
 62
7
  6
_SOLID
370
9
 10
-1.08741784095764
 20
0.517201125621796
 11
-1.08290445804596
 21
0.521714508533478
  0
LINE
  5
17C
100
AcDbEntity
  8
SEMA2D
100
AcDbLine
 62
7
  6
_SOLID
370
9
 10
-1.11890149116516
 20
0.485717505216599
 11
-1.10136449337006
 21
0.503254532814026
  0
LINE
  5
17D
100
AcDbEntity
  8
SEMA2D
100
AcDbLine
 62
7
  6
_SOLID
370
9
 10
-1.11890149116516
 20
0.505297303199768
 11
-1.09699845314026
 21
0.527200222015381
  0
LINE
  5
17E
100
AcDbEntity
  8
SEMA2D
100
AcDbLine
 62
7
  6
_SOLID
370
9
 10
-1.11890149116516
 20
0.511823892593384
 11
-1.10090494155884
 21
0.529820382595062
  0
LINE
  5
17F
100
AcDbEntity
  8
SEMA2D
100
AcDbLine
 62
7
  6
_SOLID
370
9
 10
-1.11890149116516
 20
0.459611117839813
 11
-1.09992396831512
 21
0.478588581085205
  0
LINE
  5
180
100
AcDbEntity
  8
SEMA2D
100
AcDbLine
 62
7
  6
_SOLID
370
9
 10
-1.09618186950684
 20
0.314030021429062
 11
-1.08445477485657
 21
0.312126934528351
  0
LINE
  5
181
100
AcDbEntity
  8
SEMA2D
100
AcDbLine
 62
7
  6
_SOLID
370
9
 10
-1.11890149116516
 20
0.453084528446198
 11
-1.09500622749329
 21
0.47697976231575
  0
LINE
  5
182
100
AcDbEntity
  8
SEMA2D
100
AcDbLine
 62
7
  6
_SOLID
370
9
 10
-1.11890149116516
 20
0.446557939052582
 11
-1.089390873909
 21
0.476068496704102
  0
LINE
  5
183
100
AcDbEntity
  8
SEMA2D
100
AcDbLine
 62
7
  6
_SOLID
370
9
 10
-1.11890149116516
 20
0.472664326429367
 11
-1.10136449337006
 21
0.490201324224472
  0
LINE
  5
184
100
AcDbEntity
  8
SEMA2D
100
AcDbLine
 62
7
  6
_SOLID
370
9
 10
-1.11890149116516
 20
0.479190915822983
 11
-1.10136449337006
 21
0.496727913618088
  0
LINE
  5
185
100
AcDbEntity
  8
SEMA2D
100
AcDbLine
 62
7
  6
_SOLID
370
9
 10
-1.11890149116516
 20
0.466137707233429
 11
-1.10136449337006
 21
0.483674734830856
  0
LINE
  5
186
100
AcDbEntity
  8
SEMA2D
100
AcDbLine
 62
7
  6
_SOLID
370
9
 10
-1.09596979618073
 20
0.30229452252388
 11
-1.08445477485657
 21
0.304163247346878
  0
LINE
  5
187
100
AcDbEntity
  8
SEMA2D
100
AcDbLine
 62
7
  6
_SOLID
370
9
 10
-1.09587287902832
 20
0.301696956157684
 11
-1.08449351787567
 21
0.303543597459793
  0
LINE
  5
188
100
AcDbEntity
  8
SEMA2D
100
AcDbLine
 62
7
  6
_SOLID
370
9
 10
-1.11890149116516
 20
0.275393038988113
 11
-1.09981274604797
 21
0.294481813907623
  0
LINE
  5
189
100
AcDbEntity
  8
SEMA2D
100
AcDbLine
 62
7
  6
_SOLID
370
9
 10
-1.11890149116516
 20
0.255813270807266
 11
-1.09961557388306
 21
0.275099128484726
  0
LINE
  5
18A
100
AcDbEntity
  8
SEMA2D
100
AcDbLine
 62
7
  6
_SOLID
370
9
 10
-1.11890149116516
 20
0.249286666512489
 11
-1.09954988956451
 21
0.268638223409653
  0
LINE
  5
18B
100
AcDbEntity
  8
SEMA2D
100
AcDbLine
 62
7
  6
_SOLID
370
9
 10
-1.09748876094818
 20
0.477382630109787
 11
-1.08445477485657
 21
0.475267440080643
  0
LINE
  5
18C
100
AcDbEntity
  8
SEMA2D
100
AcDbLine
 62
7
  6
_SOLID
370
9
 10
-1.11890149116516
 20
0.242760062217712
 11
-1.09948420524597
 21
0.262177348136902
  0
LINE
  5
18D
100
AcDbEntity
  8
SEMA2D
100
AcDbLine
 62
7
  6
_SOLID
370
9
 10
-1.11890149116516
 20
0.268866449594498
 11
-1.09974694252014
 21
0.28802090883255
  0
LINE
  5
18E
100
AcDbEntity
  8
SEMA2D
100
AcDbLine
 62
7
  6
_SOLID
370
9
 10
-1.0912309885025
 20
0.303063571453094
 11
-1.08312201499939
 21
0.31117245554924
  0
LINE
  5
18F
100
AcDbEntity
  8
SEMA2D
100
AcDbLine
 62
7
  6
_SOLID
370
9
 10
-1.11890149116516
 20
0.262339860200882
 11
-1.0996812582016
 21
0.281560033559799
  0
LINE
  5
190
100
AcDbEntity
  8
SEMA2D
100
AcDbLine
 62
7
  6
_SOLID
370
9
 10
-1.09748876094818
 20
0.465188562870026
 11
-1.08445477485657
 21
0.46730375289917
  0
LINE
  5
191
100
AcDbEntity
  8
SEMA2D
100
AcDbLine
 62
7
  6
_SOLID
370
9
 10
-1.09964728355408
 20
0.464224934577942
 11
-1.08449351787567
 21
0.466684132814407
  0
LINE
  5
192
100
AcDbEntity
  8
SEMA2D
100
AcDbLine
 62
7
  6
_SOLID
370
9
 10
-1.11890149116516
 20
0.294972836971283
 11
-1.09862744808197
 21
0.315246850252151
  0
LINE
  5
193
100
AcDbEntity
  8
SEMA2D
100
AcDbLine
 62
7
  6
_SOLID
370
9
 10
-1.08442986011505
 20
0.442094415426254
 11
-1.08290445804596
 21
0.442094415426254
  0
LINE
  5
194
100
AcDbEntity
  8
SEMA2D
100
AcDbLine
 62
7
  6
_SOLID
370
9
 10
-1.11890149116516
 20
0.281919628381729
 11
-1.08810222148895
 21
0.312718838453293
  0
LINE
  5
195
100
AcDbEntity
  8
SEMA2D
100
AcDbLine
 62
7
  6
_SOLID
370
9
 10
-1.11890149116516
 20
0.288446247577667
 11
-1.09371757507324
 21
0.313630133867264
  0
LINE
  5
196
100
AcDbEntity
  8
SEMA2D
100
AcDbLine
 62
7
  6
_SOLID
370
9
 10
-1.08770024776459
 20
0.55950516462326
 11
-1.09167301654816
 21
0.558660686016083
  0
LINE
  5
197
100
AcDbEntity
  8
SEMA2D
100
AcDbLine
 62
7
  6
_SOLID
370
9
 10
-1.08449351787567
 20
0.560368597507477
 11
-1.08290445804596
 21
0.560368597507477
  0
LINE
  5
198
100
AcDbEntity
  8
SEMA2D
100
AcDbLine
 62
7
  6
_SOLID
370
9
 10
-1.08357059955597
 20
0.574467241764069
 11
-1.08770024776459
 21
0.573360681533814
  0
LINE
  5
199
100
AcDbEntity
  8
SEMA2D
100
AcDbLine
 62
7
  6
_SOLID
370
9
 10
-1.08357059955597
 20
0.562810659408569
 11
-1.08198142051697
 21
0.562810659408569
  0
LINE
  5
19A
100
AcDbEntity
  8
SEMA2D
100
AcDbLine
 62
7
  6
_SOLID
370
9
 10
-1.09167301654816
 20
0.531021893024445
 11
-1.08449351787567
 21
0.530012905597687
  0
LINE
  5
19B
100
AcDbEntity
  8
SEMA2D
100
AcDbLine
 62
7
  6
_SOLID
370
9
 10
-1.09739172458649
 20
0.527255535125732
 11
-1.08449351787567
 21
0.525442779064178
  0
LINE
  5
19C
100
AcDbEntity
  8
SEMA2D
100
AcDbLine
 62
7
  6
_SOLID
370
9
 10
-1.09362065792084
 20
0.17666856944561
 11
-1.08546340465546
 21
0.184825778007507
  0
LINE
  5
19D
100
AcDbEntity
  8
SEMA2D
100
AcDbLine
 62
7
  6
_SOLID
370
9
 10
-1.08847320079803
 20
0.17528934776783
 11
-1.08244299888611
 21
0.181319639086723
  0
LINE
  5
19E
100
AcDbEntity
  8
SEMA2D
100
AcDbLine
 62
7
  6
_SOLID
370
9
 10
-1.06721341609955
 20
0.585582494735718
 11
-1.06799674034119
 21
0.585582494735718
  0
LINE
  5
19F
100
AcDbEntity
  8
SEMA2D
100
AcDbLine
 62
7
  6
_SOLID
370
9
 10
-1.06721341609955
 20
0.584433734416962
 11
-1.06799674034119
 21
0.584433734416962
  0
LINE
  5
1A0
100
AcDbEntity
  8
SEMA2D
100
AcDbLine
 62
7
  6
_SOLID
370
9
 10
-1.09167301654816
 20
0.595860958099365
 11
-1.09008383750916
 21
0.595860958099365
  0
LINE
  5
1A1
100
AcDbEntity
  8
SEMA2D
100
AcDbLine
 62
7
  6
_SOLID
370
9
 10
-1.10679388046265
 20
0.602751433849335
 11
-1.09028851985931
 21
0.602751433849335
  0
LINE
  5
1A2
100
AcDbEntity
  8
SEMA2D
100
AcDbLine
 62
7
  6
_SOLID
370
9
 10
-1.08290445804596
 20
0.597774028778076
 11
-1.08449351787567
 21
0.597774028778076
  0
LINE
  5
1A3
100
AcDbEntity
  8
SEMA2D
100
AcDbLine
 62
7
  6
_SOLID
370
9
 10
-1.09030473232269
 20
0.575938403606415
 11
-1.06858170032501
 21
0.581759095191956
  0
LINE
  5
1A4
100
AcDbEntity
  8
SEMA2D
100
AcDbLine
 62
7
  6
_SOLID
370
9
 10
-1.09030473232269
 20
0.574505090713501
 11
-1.069504737854
 21
0.580078423023224
  0
LINE
  5
1A5
100
AcDbEntity
  8
SEMA2D
100
AcDbLine
 62
7
  6
_SOLID
370
9
 10
-1.10565888881683
 20
0.574250757694244
 11
-1.1175285577774
 21
0.572157800197601
  0
LINE
  5
1A6
100
AcDbEntity
  8
SEMA2D
100
AcDbLine
 62
7
  6
_SOLID
370
9
 10
-1.11739182472229
 20
0.602719128131866
 11
-1.1105945110321
 21
0.603674471378326
  0
LINE
  5
1A7
100
AcDbEntity
  8
SEMA2D
100
AcDbLine
 62
7
  6
_SOLID
370
9
 10
-1.08357059955597
 20
0.574467241764069
 11
-1.08198142051697
 21
0.574467241764069
  0
LINE
  5
1A8
100
AcDbEntity
  8
SEMA2D
100
AcDbLine
 62
7
  6
_SOLID
370
9
 10
-1.11889135837555
 20
0.197083994746208
 11
-1.09656119346619
 21
0.219414204359055
  0
LINE
  5
1A9
100
AcDbEntity
  8
SEMA2D
100
AcDbLine
 62
7
  6
_SOLID
370
9
 10
-1.11890149116516
 20
0.203600496053696
 11
-1.09908807277679
 21
0.223413899540901
  0
LINE
  5
1AA
100
AcDbEntity
  8
SEMA2D
100
AcDbLine
 62
7
  6
_SOLID
370
9
 10
-1.11788189411163
 20
0.191566839814186
 11
-1.09105837345123
 21
0.218390420079231
  0
LINE
  5
1AB
100
AcDbEntity
  8
SEMA2D
100
AcDbLine
 62
7
  6
_SOLID
370
9
 10
-1.09472262859344
 20
0.208199515938759
 11
-1.08533596992493
 21
0.217586189508438
  0
LINE
  5
1AC
100
AcDbEntity
  8
SEMA2D
100
AcDbLine
 62
7
  6
_SOLID
370
9
 10
-1.11569941043854
 20
0.18722277879715
 11
-1.09886562824249
 21
0.204056575894356
  0
LINE
  5
1AD
100
AcDbEntity
  8
SEMA2D
100
AcDbLine
 62
7
  6
_SOLID
370
9
 10
-1.11890149116516
 20
0.22970686852932
 11
-1.0993527173996
 21
0.249255567789078
  0
LINE
  5
1AE
100
AcDbEntity
  8
SEMA2D
100
AcDbLine
 62
7
  6
_SOLID
370
9
 10
-1.11890149116516
 20
0.236233472824097
 11
-1.09941852092743
 21
0.255716443061829
  0
LINE
  5
1AF
100
AcDbEntity
  8
SEMA2D
100
AcDbLine
 62
7
  6
_SOLID
370
9
 10
-1.11890149116516
 20
0.223180279135704
 11
-1.09928703308105
 21
0.242794677615166
  0
LINE
  5
1B0
100
AcDbEntity
  8
SEMA2D
100
AcDbLine
 62
7
  6
_SOLID
370
9
 10
-1.11890149116516
 20
0.210127085447311
 11
-1.09915566444397
 21
0.22987288236618
  0
LINE
  5
1B1
100
AcDbEntity
  8
SEMA2D
100
AcDbLine
 62
7
  6
_SOLID
370
9
 10
-1.11890149116516
 20
0.216653689742088
 11
-1.09922134876251
 21
0.236333772540092
  0
LINE
  5
1B2
100
AcDbEntity
  8
SEMA2D
100
AcDbLine
 62
7
  6
_SOLID
370
9
 10
-1.1087452173233
 20
0.181123793125153
 11
-1.09870457649231
 21
0.19116435945034
  0
LINE
  5
1B3
100
AcDbEntity
  8
SEMA2D
100
AcDbLine
 62
7
  6
_SOLID
370
9
 10
-1.08290445804596
 20
0.513073325157166
 11
-1.08442986011505
 21
0.513073325157166
  0
LINE
  5
1B4
100
AcDbEntity
  8
SEMA2D
100
AcDbLine
 62
7
  6
_SOLID
370
9
 10
-1.10391533374786
 20
0.179427042603493
 11
-1.0957418680191
 21
0.187600553035736
  0
LINE
  5
1B5
100
AcDbEntity
  8
SEMA2D
100
AcDbLine
 62
7
  6
_SOLID
370
9
 10
-1.08449351787567
 20
0.530012905597687
 11
-1.08290445804596
 21
0.530012905597687
  0
LINE
  5
1B6
100
AcDbEntity
  8
SEMA2D
100
AcDbLine
 62
7
  6
_SOLID
370
9
 10
-1.09876799583435
 20
0.178047806024551
 11
-1.09061074256897
 21
0.186205014586449
  0
LINE
  5
1B7
100
AcDbEntity
  8
SEMA2D
100
AcDbLine
 62
7
  6
_SOLID
370
9
 10
-1.08712875843048
 20
0.209266766905785
 11
-1.08290445804596
 21
0.21349111199379
  0
LINE
  5
1B8
100
AcDbEntity
  8
SEMA2D
100
AcDbLine
 62
7
  6
_SOLID
370
9
 10
-1.11264133453369
 20
0.183754205703735
 11
-1.09882712364197
 21
0.19756843149662
  0
LINE
  5
1B9
100
AcDbEntity
  8
SEMA2D
100
AcDbLine
 62
7
  6
_SOLID
370
9
 10
-1.09739172458649
 20
0.515799403190613
 11
-1.08449351787567
 21
0.517612099647522
  0
LINE
  5
1BA
100
AcDbEntity
  8
SEMA2D
100
AcDbLine
 62
7
  6
_SOLID
370
9
 10
-1.08449351787567
 20
0.597774028778076
 11
-1.08449351787567
 21
0.594363033771515
  0
LINE
  5
1BB
100
AcDbEntity
  8
SEMA2D
100
AcDbLine
 62
7
  6
_SOLID
370
9
 10
-1.08470630645752
 20
0.601845026016235
 11
-1.08470630645752
 21
0.59976863861084
  0
LINE
  5
1BC
100
AcDbEntity
  8
SEMA2D
100
AcDbLine
 62
7
  6
_SOLID
370
9
 10
-1.08449351787567
 20
0.27895388007164
 11
-1.08449351787567
 21
0.303543597459793
  0
LINE
  5
1BD
100
AcDbEntity
  8
SEMA2D
100
AcDbLine
 62
7
  6
_SOLID
370
9
 10
-1.08449351787567
 20
0.530012905597687
 11
-1.08449351787567
 21
0.560368597507477
  0
LINE
  5
1BE
100
AcDbEntity
  8
SEMA2D
100
AcDbLine
 62
7
  6
_SOLID
370
9
 10
-1.09028851985931
 20
0.602751433849335
 11
-1.09028851985931
 21
0.603674471378326
  0
LINE
  5
1BF
100
AcDbEntity
  8
SEMA2D
100
AcDbLine
 62
7
  6
_SOLID
370
9
 10
-1.08770024776459
 20
0.573360681533814
 11
-1.08770024776459
 21
0.55950516462326
  0
LINE
  5
1C0
100
AcDbEntity
  8
SEMA2D
100
AcDbLine
 62
7
  6
_SOLID
370
9
 10
-1.09008383750916
 20
0.598559737205505
 11
-1.09008383750916
 21
0.595860958099365
  0
LINE
  5
1C1
100
AcDbEntity
  8
SEMA2D
100
AcDbLine
 62
7
  6
_SOLID
370
9
 10
-1.10136449337006
 20
0.511229336261749
 11
-1.10136449337006
 21
0.481938034296036
  0
LINE
  5
1C2
100
AcDbEntity
  8
SEMA2D
100
AcDbLine
 62
7
  6
_SOLID
370
9
 10
-1.10413348674774
 20
0.576068699359894
 11
-1.10413348674774
 21
0.590733587741852
  0
LINE
  5
1C3
100
AcDbEntity
  8
SEMA2D
100
AcDbLine
 62
7
  6
_SOLID
370
9
 10
-1.10136449337006
 20
0.460633158683777
 11
-1.10136449337006
 21
0.455071449279785
  0
LINE
  5
1C4
100
AcDbEntity
  8
SEMA2D
100
AcDbLine
 62
7
  6
_SOLID
370
9
 10
-1.10136449337006
 20
0.531825602054596
 11
-1.10136449337006
 21
0.545904397964478
  0
LINE
  5
1C5
100
AcDbEntity
  8
SEMA2D
100
AcDbLine
 62
7
  6
_SOLID
370
9
 10
-1.11890149116516
 20
0.374765396118164
 11
-1.10073256492615
 21
0.392934292554855
  0
LINE
  5
1C6
100
AcDbEntity
  8
SEMA2D
100
AcDbLine
 62
7
  6
_SOLID
370
9
 10
-1.11890149116516
 20
0.38129198551178
 11
-1.10079824924469
 21
0.399395167827606
  0
LINE
  5
1C7
100
AcDbEntity
  8
SEMA2D
100
AcDbLine
 62
7
  6
_SOLID
370
9
 10
-1.11890149116516
 20
0.368238776922226
 11
-1.1006668806076
 21
0.386473387479782
  0
LINE
  5
1C8
100
AcDbEntity
  8
SEMA2D
100
AcDbLine
 62
7
  6
_SOLID
370
9
 10
-1.09167301654816
 20
0.574155330657959
 11
-1.09167301654816
 21
0.530463576316833
  0
LINE
  5
1C9
100
AcDbEntity
  8
SEMA2D
100
AcDbLine
 62
7
  6
_SOLID
370
9
 10
-1.09167301654816
 20
0.599006414413452
 11
-1.09167301654816
 21
0.595860958099365
  0
LINE
  5
1CA
100
AcDbEntity
  8
SEMA2D
100
AcDbLine
 62
7
  6
_SOLID
370
9
 10
-1.06799674034119
 20
0.585582494735718
 11
-1.06799674034119
 21
0.584433734416962
  0
LINE
  5
1CB
100
AcDbEntity
  8
SEMA2D
100
AcDbLine
 62
7
  6
_SOLID
370
9
 10
-1.06721341609955
 20
0.586474061012268
 11
-1.06721341609955
 21
0.583542168140411
  0
LINE
  5
1CC
100
AcDbEntity
  8
SEMA2D
100
AcDbLine
 62
7
  6
_SOLID
370
9
 10
-1.06767499446869
 20
0.179454535245895
 11
-1.06767499446869
 21
0.182599976658821
  0
LINE
  5
1CD
100
AcDbEntity
  8
SEMA2D
100
AcDbLine
 62
7
  6
_SOLID
370
9
 10
-1.11890149116516
 20
0.31455260515213
 11
-1.10020697116852
 21
0.333247154951096
  0
LINE
  5
1CE
100
AcDbEntity
  8
SEMA2D
100
AcDbLine
 62
7
  6
_SOLID
370
9
 10
-1.11890149116516
 20
0.308026015758514
 11
-1.10014116764069
 21
0.326786249876022
  0
LINE
  5
1CF
100
AcDbEntity
  8
SEMA2D
100
AcDbLine
 62
7
  6
_SOLID
370
9
 10
-1.11890149116516
 20
0.301499426364899
 11
-1.10007548332214
 21
0.320325374603271
  0
LINE
  5
1D0
100
AcDbEntity
  8
SEMA2D
100
AcDbLine
 62
7
  6
_SOLID
370
9
 10
-1.11890149116516
 20
0.327605813741684
 11
-1.1003383398056
 21
0.34616893529892
  0
LINE
  5
1D1
100
AcDbEntity
  8
SEMA2D
100
AcDbLine
 62
7
  6
_SOLID
370
9
 10
-1.11890149116516
 20
0.3341324031353
 11
-1.10040402412415
 21
0.352629840373993
  0
LINE
  5
1D2
100
AcDbEntity
  8
SEMA2D
100
AcDbLine
 62
7
  6
_SOLID
370
9
 10
-1.11890149116516
 20
0.321079224348068
 11
-1.10027265548706
 21
0.339708060026169
  0
LINE
  5
1D3
100
AcDbEntity
  8
SEMA2D
100
AcDbLine
 62
7
  6
_SOLID
370
9
 10
-1.08290445804596
 20
0.175709456205368
 11
-1.08290445804596
 21
0.17478646337986
  0
LINE
  5
1D4
100
AcDbEntity
  8
SEMA2D
100
AcDbLine
 62
7
  6
_SOLID
370
9
 10
-1.08290445804596
 20
0.600108981132507
 11
-1.08290445804596
 21
0.593511402606964
  0
LINE
  5
1D5
100
AcDbEntity
  8
SEMA2D
100
AcDbLine
 62
7
  6
_SOLID
370
9
 10
-1.08290445804596
 20
0.189513683319092
 11
-1.08290445804596
 21
0.560368597507477
  0
LINE
  5
1D6
100
AcDbEntity
  8
SEMA2D
100
AcDbLine
 62
7
  6
_SOLID
370
9
 10
-1.08442986011505
 20
0.193041548132896
 11
-1.08442986011505
 21
0.20509834587574
  0
LINE
  5
1D7
100
AcDbEntity
  8
SEMA2D
100
AcDbLine
 62
7
  6
_SOLID
370
9
 10
-1.08442986011505
 20
0.513073325157166
 11
-1.08442986011505
 21
0.475267440080643
  0
LINE
  5
1D8
100
AcDbEntity
  8
SEMA2D
100
AcDbLine
 62
7
  6
_SOLID
370
9
 10
-1.08442986011505
 20
0.222006574273109
 11
-1.08442986011505
 21
0.27895388007164
  0
LINE
  5
1D9
100
AcDbEntity
  8
SEMA2D
100
AcDbLine
 62
7
  6
_SOLID
370
9
 10
-1.08357059955597
 20
0.562810659408569
 11
-1.08357059955597
 21
0.574467241764069
  0
LINE
  5
1DA
100
AcDbEntity
  8
SEMA2D
100
AcDbLine
 62
7
  6
_SOLID
370
9
 10
-1.08442986011505
 20
0.312122732400894
 11
-1.08442986011505
 21
0.466684132814407
  0
LINE
  5
1DB
100
AcDbEntity
  8
SEMA2D
100
AcDbLine
 62
7
  6
_SOLID
370
9
 10
-1.11890149116516
 20
0.355185598134994
 11
-1.10053539276123
 21
0.373551607131958
  0
LINE
  5
1DC
100
AcDbEntity
  8
SEMA2D
100
AcDbLine
 62
7
  6
_SOLID
370
9
 10
-1.11890149116516
 20
0.36171218752861
 11
-1.10060119628906
 21
0.380012512207031
  0
LINE
  5
1DD
100
AcDbEntity
  8
SEMA2D
100
AcDbLine
 62
7
  6
_SOLID
370
9
 10
-1.11890149116516
 20
0.348659008741379
 11
-1.10046970844269
 21
0.367090731859207
  0
LINE
  5
1DE
100
AcDbEntity
  8
SEMA2D
100
AcDbLine
 62
7
  6
_SOLID
370
9
 10
-1.08244299888611
 20
0.176175490021706
 11
-1.08244299888611
 21
0.182599976658821
  0
LINE
  5
1DF
100
AcDbEntity
  8
SEMA2D
100
AcDbLine
 62
7
  6
_SOLID
370
9
 10
-1.08198142051697
 20
0.562810659408569
 11
-1.08198142051697
 21
0.575318813323975
  0
LINE
  5
1E0
100
AcDbEntity
  8
SEMA2D
100
AcDbLine
 62
7
  6
_SOLID
370
9
 10
-1.10004413127899
 20
0.325236290693283
 11
-1.10127997398376
 21
0.446764469146729
  0
LINE
  5
1E1
100
AcDbEntity
  8
SEMA2D
100
AcDbLine
 62
7
  6
_SOLID
370
9
 10
-1.09417009353638
 20
0.174846231937408
 11
-1.1087452173233
 21
0.181123793125153
  0
LINE
  5
1E2
100
AcDbEntity
  8
SEMA2D
100
AcDbLine
 62
7
  6
_SOLID
370
9
 10
-1.11890149116516
 20
0.34158793091774
 11
-1.10039854049683
 21
0.360090851783752
  0
MTEXT
  5
1E3
100
AcDbEntity
  8
SEMATEXT
100
AcDbMText
 62
7
 10
-0.775443017482758
 20
0.887297987937927
 40
0.00999999977648258
 71
7
  1
{\fArial Narrow;= Deckbreite}
  7
STANDARD
 73
2
  0
MTEXT
  5
1E4
100
AcDbEntity
  8
SEMATEXT
100
AcDbMText
 62
7
 10
-1.03555917739868
 20
0.31019800901413
 40
0.00999999977648258
 50
90
 71
7
  1
{\fArial Narrow;Lattweite = 300 - 372 mm}
  7
STANDARD
 73
2
  0
LINE
  5
1E5
100
AcDbEntity
  8
SEMA2D
100
AcDbLine
 62
7
  6
_SOLID
370
9
 10
-1.0305985212326
 20
0.188729852437973
 11
-1.0305985212326
 21
0.575318813323975
  0
LINE
  5
1E6
100
AcDbEntity
  8
SEMA2D
100
AcDbLine
 62
7
  6
_SOLID
370
9
 10
-1.03404295444489
 20
0.58119797706604
 11
-1.02707624435425
 21
0.568939328193665
  0
LINE
  5
1E7
100
AcDbEntity
  8
SEMA2D
100
AcDbLine
 62
7
  6
_SOLID
370
9
 10
-1.03704297542572
 20
0.575397968292236
 11
-1.02404296398163
 21
0.575397968292236
  0
LINE
  5
1E8
100
AcDbEntity
  8
SEMA2D
100
AcDbLine
 62
7
  6
_SOLID
370
9
 10
-1.03734302520752
 20
0.188697993755341
 11
-1.02354300022125
 21
0.188697993755341
  0
LINE
  5
1E9
100
AcDbEntity
  8
SEMA2D
100
AcDbLine
 62
7
  6
_SOLID
370
9
 10
-1.02724301815033
 20
0.18249799311161
 11
-1.0338978767395
 21
0.194587334990501
  0
LINE
  5
1EA
100
AcDbEntity
  8
SEMA2D
100
AcDbLine
 62
7
  6
_DOT
370
9
 10
-1.0305985212326
 20
0.575318813323975
 11
-1.08198308944702
 21
0.575318813323975
  0
LINE
  5
1EB
100
AcDbEntity
  8
SEMA2D
100
AcDbLine
 62
7
  6
_DOT
370
9
 10
-1.0305985212326
 20
0.188729852437973
 11
-1.08059859275818
 21
0.188729852437973
  0
LINE
  5
1EC
100
AcDbEntity
  8
SEMA2D
100
AcDbLine
 62
7
  6
_SOLID
370
9
 10
-1.11890149116516
 20
0.653674483299255
 11
-1.06790447235107
 21
0.653674483299255
  0
LINE
  5
1ED
100
AcDbEntity
  8
SEMA2D
100
AcDbLine
 62
7
  6
_SOLID
370
9
 10
-1.11890149116516
 20
0.653674483299255
 11
-1.11890149116516
 21
0.662424445152283
  0
LINE
  5
1EE
100
AcDbEntity
  8
SEMA2D
100
AcDbLine
 62
7
  6
_SOLID
370
9
 10
-1.11890149116516
 20
0.653674483299255
 11
-1.11890149116516
 21
0.644924461841583
  0
LINE
  5
1EF
100
AcDbEntity
  8
SEMA2D
100
AcDbLine
 62
7
  6
_SOLID
370
9
 10
-1.11890149116516
 20
0.653674483299255
 11
-1.11132371425629
 21
0.658049464225769
  0
LINE
  5
1F0
100
AcDbEntity
  8
SEMA2D
100
AcDbLine
 62
7
  6
_SOLID
370
9
 10
-1.11890149116516
 20
0.653674483299255
 11
-1.12647914886475
 21
0.649299442768097
  0
LINE
  5
1F1
100
AcDbEntity
  8
SEMA2D
100
AcDbLine
 62
7
  6
_DOT
370
9
 10
-1.11890149116516
 20
0.603674471378326
 11
-1.11890149116516
 21
0.653674483299255
  0
LINE
  5
1F2
100
AcDbEntity
  8
SEMA2D
100
AcDbLine
 62
7
  6
_DOT
370
9
 10
-1.11890149116516
 20
0.603674471378326
 11
-1.11890149116516
 21
0.603674471378326
  0
MTEXT
  5
1F3
100
AcDbEntity
  8
SEMATEXT
100
AcDbMText
 62
7
 10
-1.10662078857422
 20
0.659555673599243
 40
0.00999999977648258
 71
7
  1
{\fArial Narrow;36}
  7
STANDARD
 73
2
  0
LINE
  5
1F4
100
AcDbEntity
  8
SEMA2D
100
AcDbLine
 62
7
  6
_SOLID
370
9
 10
-1.08290445804596
 20
0.653674483299255
 11
-1.08290445804596
 21
0.662424445152283
  0
LINE
  5
1F5
100
AcDbEntity
  8
SEMA2D
100
AcDbLine
 62
7
  6
_SOLID
370
9
 10
-1.08290445804596
 20
0.653674483299255
 11
-1.08290445804596
 21
0.644924461841583
  0
LINE
  5
1F6
100
AcDbEntity
  8
SEMA2D
100
AcDbLine
 62
7
  6
_SOLID
370
9
 10
-1.08290445804596
 20
0.653674483299255
 11
-1.07532680034637
 21
0.658049464225769
  0
LINE
  5
1F7
100
AcDbEntity
  8
SEMA2D
100
AcDbLine
 62
7
  6
_SOLID
370
9
 10
-1.08290445804596
 20
0.653674483299255
 11
-1.09048223495483
 21
0.649299442768097
  0
LINE
  5
1F8
100
AcDbEntity
  8
SEMA2D
100
AcDbLine
 62
7
  6
_DOT
370
9
 10
-1.08290445804596
 20
0.603674471378326
 11
-1.08290445804596
 21
0.653674483299255
  0
LINE
  5
1F9
100
AcDbEntity
  8
SEMA2D
100
AcDbLine
 62
7
  6
_DOT
370
9
 10
-1.08290445804596
 20
0.603674471378326
 11
-1.08290445804596
 21
0.603674471378326
  0
MTEXT
  5
1FA
100
AcDbEntity
  8
SEMATEXT
100
AcDbMText
 62
7
 10
-1.08112227916718
 20
0.659555673599243
 40
0.00999999977648258
 71
7
  1
{\fArial Narrow;15}
  7
STANDARD
 73
2
  0
LINE
  5
1FB
100
AcDbEntity
  8
SEMA2D
100
AcDbLine
 62
7
  6
_SOLID
370
9
 10
-1.06790447235107
 20
0.653674483299255
 11
-1.06790447235107
 21
0.662424445152283
  0
LINE
  5
1FC
100
AcDbEntity
  8
SEMA2D
100
AcDbLine
 62
7
  6
_SOLID
370
9
 10
-1.06790447235107
 20
0.653674483299255
 11
-1.06790447235107
 21
0.644924461841583
  0
LINE
  5
1FD
100
AcDbEntity
  8
SEMA2D
100
AcDbLine
 62
7
  6
_SOLID
370
9
 10
-1.06790447235107
 20
0.653674483299255
 11
-1.0603266954422
 21
0.658049464225769
  0
LINE
  5
1FE
100
AcDbEntity
  8
SEMA2D
100
AcDbLine
 62
7
  6
_SOLID
370
9
 10
-1.06790447235107
 20
0.653674483299255
 11
-1.07548213005066
 21
0.649299442768097
  0
LINE
  5
1FF
100
AcDbEntity
  8
SEMA2D
100
AcDbLine
 62
7
  6
_DOT
370
9
 10
-1.06790447235107
 20
0.603674471378326
 11
-1.06790447235107
 21
0.653674483299255
  0
LINE
  5
200
100
AcDbEntity
  8
SEMA2D
100
AcDbLine
 62
7
  6
_DOT
370
9
 10
-1.06790447235107
 20
0.653674483299255
 11
-1.06790447235107
 21
0.603674471378326
  0
LINE
  5
201
100
AcDbEntity
  8
SEMA2D
100
AcDbLine
 62
7
  6
_SOLID
370
9
 10
-1.11890149116516
 20
0.124846234917641
 11
-1.06767499446869
 21
0.124846234917641
  0
LINE
  5
202
100
AcDbEntity
  8
SEMA2D
100
AcDbLine
 62
7
  6
_SOLID
370
9
 10
-1.11890149116516
 20
0.124846234917641
 11
-1.11890149116516
 21
0.133596241474152
  0
LINE
  5
203
100
AcDbEntity
  8
SEMA2D
100
AcDbLine
 62
7
  6
_SOLID
370
9
 10
-1.11890149116516
 20
0.124846234917641
 11
-1.11890149116516
 21
0.11609623581171
  0
LINE
  5
204
100
AcDbEntity
  8
SEMA2D
100
AcDbLine
 62
7
  6
_SOLID
370
9
 10
-1.11890149116516
 20
0.124846234917641
 11
-1.11132371425629
 21
0.129221230745316
  0
LINE
  5
205
100
AcDbEntity
  8
SEMA2D
100
AcDbLine
 62
7
  6
_SOLID
370
9
 10
-1.11890149116516
 20
0.124846234917641
 11
-1.12647914886475
 21
0.120471239089966
  0
LINE
  5
206
100
AcDbEntity
  8
SEMA2D
100
AcDbLine
 62
7
  6
_DOT
370
9
 10
-1.11890149116516
 20
0.174846231937408
 11
-1.11890149116516
 21
0.124846234917641
  0
LINE
  5
207
100
AcDbEntity
  8
SEMA2D
100
AcDbLine
 62
7
  6
_DOT
370
9
 10
-1.11890149116516
 20
0.174846231937408
 11
-1.11890149116516
 21
0.174846231937408
  0
MTEXT
  5
208
100
AcDbEntity
  8
SEMATEXT
100
AcDbMText
 62
7
 10
-1.09900605678558
 20
0.130727455019951
 40
0.00999999977648258
 71
7
  1
{\fArial Narrow;51}
  7
STANDARD
 73
2
  0
LINE
  5
209
100
AcDbEntity
  8
SEMA2D
100
AcDbLine
 62
7
  6
_SOLID
370
9
 10
-1.06767499446869
 20
0.124846234917641
 11
-1.06767499446869
 21
0.133596241474152
  0
LINE
  5
20A
100
AcDbEntity
  8
SEMA2D
100
AcDbLine
 62
7
  6
_SOLID
370
9
 10
-1.06767499446869
 20
0.124846234917641
 11
-1.06767499446869
 21
0.11609623581171
  0
LINE
  5
20B
100
AcDbEntity
  8
SEMA2D
100
AcDbLine
 62
7
  6
_SOLID
370
9
 10
-1.06767499446869
 20
0.124846234917641
 11
-1.06009721755981
 21
0.129221230745316
  0
LINE
  5
20C
100
AcDbEntity
  8
SEMA2D
100
AcDbLine
 62
7
  6
_SOLID
370
9
 10
-1.06767499446869
 20
0.124846234917641
 11
-1.07525265216827
 21
0.120471239089966
  0
LINE
  5
20D
100
AcDbEntity
  8
SEMA2D
100
AcDbLine
 62
7
  6
_DOT
370
9
 10
-1.06767499446869
 20
0.174846231937408
 11
-1.06767499446869
 21
0.124846234917641
  0
LINE
  5
20E
100
AcDbEntity
  8
SEMA2D
100
AcDbLine
 62
7
  6
_DOT
370
9
 10
-1.06767499446869
 20
0.174846231937408
 11
-1.06767499446869
 21
0.174846231937408
  0
LINE
  5
20F
100
AcDbEntity
  8
SEMA2D
100
AcDbLine
 62
7
  6
_SOLID
370
9
 10
-0.893224477767944
 20
0.124846234917641
 11
-0.640560984611511
 21
0.124846234917641
  0
LINE
  5
210
100
AcDbEntity
  8
SEMA2D
100
AcDbLine
 62
7
  6
_SOLID
370
9
 10
-0.893224477767944
 20
0.124846234917641
 11
-0.893224477767944
 21
0.133596241474152
  0
LINE
  5
211
100
AcDbEntity
  8
SEMA2D
100
AcDbLine
 62
7
  6
_SOLID
370
9
 10
-0.893224477767944
 20
0.124846234917641
 11
-0.893224477767944
 21
0.11609623581171
  0
LINE
  5
212
100
AcDbEntity
  8
SEMA2D
100
AcDbLine
 62
7
  6
_SOLID
370
9
 10
-0.893224477767944
 20
0.124846234917641
 11
-0.885646760463715
 21
0.129221230745316
  0
LINE
  5
213
100
AcDbEntity
  8
SEMA2D
100
AcDbLine
 62
7
  6
_SOLID
370
9
 10
-0.893224477767944
 20
0.124846234917641
 11
-0.900802195072174
 21
0.120471239089966
  0
LINE
  5
214
100
AcDbEntity
  8
SEMA2D
100
AcDbLine
 62
7
  6
_DOT
370
9
 10
-0.893224477767944
 20
0.17478646337986
 11
-0.893224477767944
 21
0.124846234917641
  0
LINE
  5
215
100
AcDbEntity
  8
SEMA2D
100
AcDbLine
 62
7
  6
_DOT
370
9
 10
-0.893224477767944
 20
0.17478646337986
 11
-0.893224477767944
 21
0.17478646337986
  0
MTEXT
  5
216
100
AcDbEntity
  8
SEMATEXT
100
AcDbMText
 62
7
 10
-0.775469481945038
 20
0.130727455019951
 40
0.00999999977648258
 71
7
  1
{\fArial Narrow;253}
  7
STANDARD
 73
2
  0
LINE
  5
217
100
AcDbEntity
  8
SEMA2D
100
AcDbLine
 62
7
  6
_SOLID
370
9
 10
-0.640560984611511
 20
0.124846234917641
 11
-0.640560984611511
 21
0.133596241474152
  0
LINE
  5
218
100
AcDbEntity
  8
SEMA2D
100
AcDbLine
 62
7
  6
_SOLID
370
9
 10
-0.640560984611511
 20
0.124846234917641
 11
-0.640560984611511
 21
0.11609623581171
  0
LINE
  5
219
100
AcDbEntity
  8
SEMA2D
100
AcDbLine
 62
7
  6
_SOLID
370
9
 10
-0.640560984611511
 20
0.124846234917641
 11
-0.632983267307282
 21
0.129221230745316
  0
LINE
  5
21A
100
AcDbEntity
  8
SEMA2D
100
AcDbLine
 62
7
  6
_SOLID
370
9
 10
-0.640560984611511
 20
0.124846234917641
 11
-0.648138701915741
 21
0.120471239089966
  0
LINE
  5
21B
100
AcDbEntity
  8
SEMA2D
100
AcDbLine
 62
7
  6
_DOT
370
9
 10
-0.640560984611511
 20
0.17478646337986
 11
-0.640560984611511
 21
0.124846234917641
  0
LINE
  5
21C
100
AcDbEntity
  8
SEMA2D
100
AcDbLine
 62
7
  6
_DOT
370
9
 10
-0.640560984611511
 20
0.17478646337986
 11
-0.640560984611511
 21
0.17478646337986
  0
LINE
  5
21D
100
AcDbEntity
  8
SEMA2D
100
AcDbLine
 62
7
  6
_SOLID
370
9
 10
-0.590440630912781
 20
0.17478646337986
 11
-0.590440630912781
 21
0.603674471378326
  0
LINE
  5
21E
100
AcDbEntity
  8
SEMA2D
100
AcDbLine
 62
7
  6
_SOLID
370
9
 10
-0.590440630912781
 20
0.17478646337986
 11
-0.599190652370453
 21
0.17478646337986
  0
LINE
  5
21F
100
AcDbEntity
  8
SEMA2D
100
AcDbLine
 62
7
  6
_SOLID
370
9
 10
-0.590440630912781
 20
0.17478646337986
 11
-0.581690669059753
 21
0.17478646337986
  0
LINE
  5
220
100
AcDbEntity
  8
SEMA2D
100
AcDbLine
 62
7
  6
_SOLID
370
9
 10
-0.590440630912781
 20
0.17478646337986
 11
-0.594815671443939
 21
0.18236418068409
  0
LINE
  5
221
100
AcDbEntity
  8
SEMA2D
100
AcDbLine
 62
7
  6
_SOLID
370
9
 10
-0.590440630912781
 20
0.17478646337986
 11
-0.586065649986267
 21
0.167208731174469
  0
LINE
  5
222
100
AcDbEntity
  8
SEMA2D
100
AcDbLine
 62
7
  6
_DOT
370
9
 10
-0.64044064283371
 20
0.17478646337986
 11
-0.590440630912781
 21
0.17478646337986
  0
LINE
  5
223
100
AcDbEntity
  8
SEMA2D
100
AcDbLine
 62
7
  6
_DOT
370
9
 10
-0.64044064283371
 20
0.17478646337986
 11
-0.64044064283371
 21
0.17478646337986
  0
MTEXT
  5
224
100
AcDbEntity
  8
SEMATEXT
100
AcDbMText
 62
7
 10
-0.596321880817413
 20
0.379428416490555
 40
0.00999999977648258
 50
90
 71
7
  1
{\fArial Narrow;429}
  7
STANDARD
 73
2
  0
LINE
  5
225
100
AcDbEntity
  8
SEMA2D
100
AcDbLine
 62
7
  6
_SOLID
370
9
 10
-0.590440630912781
 20
0.603674471378326
 11
-0.599190652370453
 21
0.603674471378326
  0
LINE
  5
226
100
AcDbEntity
  8
SEMA2D
100
AcDbLine
 62
7
  6
_SOLID
370
9
 10
-0.590440630912781
 20
0.603674471378326
 11
-0.581690669059753
 21
0.603674471378326
  0
LINE
  5
227
100
AcDbEntity
  8
SEMA2D
100
AcDbLine
 62
7
  6
_SOLID
370
9
 10
-0.590440630912781
 20
0.603674471378326
 11
-0.594815671443939
 21
0.611252188682556
  0
LINE
  5
228
100
AcDbEntity
  8
SEMA2D
100
AcDbLine
 62
7
  6
_SOLID
370
9
 10
-0.590440630912781
 20
0.603674471378326
 11
-0.586065649986267
 21
0.596096754074097
  0
LINE
  5
229
100
AcDbEntity
  8
SEMA2D
100
AcDbLine
 62
7
  6
_DOT
370
9
 10
-0.64044064283371
 20
0.603674471378326
 11
-0.590440630912781
 21
0.603674471378326
  0
LINE
  5
22A
100
AcDbEntity
  8
SEMA2D
100
AcDbLine
 62
7
  6
_DOT
370
9
 10
-0.64044064283371
 20
0.603674471378326
 11
-0.64044064283371
 21
0.603674471378326
  0
LINE
  5
22B
100
AcDbEntity
  8
SEMA2D
100
AcDbLine
 62
7
  6
_SOLID
370
9
 10
-0.894767582416534
 20
0.882583320140839
 11
-0.683767557144165
 21
0.882583320140839
  0
LINE
  5
22C
100
AcDbEntity
  8
SEMA2D
100
AcDbLine
 62
7
  6
_SOLID
370
9
 10
-0.894767582416534
 20
0.882583320140839
 11
-0.894767582416534
 21
0.891333281993866
  0
LINE
  5
22D
100
AcDbEntity
  8
SEMA2D
100
AcDbLine
 62
7
  6
_SOLID
370
9
 10
-0.894767582416534
 20
0.882583320140839
 11
-0.894767582416534
 21
0.873833298683166
  0
LINE
  5
22E
100
AcDbEntity
  8
SEMA2D
100
AcDbLine
 62
7
  6
_SOLID
370
9
 10
-0.894767582416534
 20
0.882583320140839
 11
-0.88718980550766
 21
0.886958301067352
  0
LINE
  5
22F
100
AcDbEntity
  8
SEMA2D
100
AcDbLine
 62
7
  6
_SOLID
370
9
 10
-0.894767582416534
 20
0.882583320140839
 11
-0.902345299720764
 21
0.87820827960968
  0
LINE
  5
230
100
AcDbEntity
  8
SEMA2D
100
AcDbLine
 62
7
  6
_DOT
370
9
 10
-0.894767582416534
 20
0.83258330821991
 11
-0.894767582416534
 21
0.882583320140839
  0
LINE
  5
231
100
AcDbEntity
  8
SEMA2D
100
AcDbLine
 62
7
  6
_DOT
370
9
 10
-0.894767582416534
 20
0.83258330821991
 11
-0.894767582416534
 21
0.83258330821991
  0
MTEXT
  5
232
100
AcDbEntity
  8
SEMATEXT
100
AcDbMText
 62
7
 10
-0.797844350337982
 20
0.888464510440826
 40
0.00999999977648258
 71
7
  1
{\fArial Narrow;211}
  7
STANDARD
 73
2
  0
LINE
  5
233
100
AcDbEntity
  8
SEMA2D
100
AcDbLine
 62
7
  6
_SOLID
370
9
 10
-0.683767557144165
 20
0.882583320140839
 11
-0.683767557144165
 21
0.891333281993866
  0
LINE
  5
234
100
AcDbEntity
  8
SEMA2D
100
AcDbLine
 62
7
  6
_SOLID
370
9
 10
-0.683767557144165
 20
0.882583320140839
 11
-0.683767557144165
 21
0.873833298683166
  0
LINE
  5
235
100
AcDbEntity
  8
SEMA2D
100
AcDbLine
 62
7
  6
_SOLID
370
9
 10
-0.683767557144165
 20
0.882583320140839
 11
-0.676189839839935
 21
0.886958301067352
  0
LINE
  5
236
100
AcDbEntity
  8
SEMA2D
100
AcDbLine
 62
7
  6
_SOLID
370
9
 10
-0.683767557144165
 20
0.882583320140839
 11
-0.691345274448395
 21
0.87820827960968
  0
LINE
  5
237
100
AcDbEntity
  8
SEMA2D
100
AcDbLine
 62
7
  6
_DOT
370
9
 10
-0.683767557144165
 20
0.83258330821991
 11
-0.683767557144165
 21
0.882583320140839
  0
LINE
  5
238
100
AcDbEntity
  8
SEMA2D
100
AcDbLine
 62
7
  6
_DOT
370
9
 10
-0.683767557144165
 20
0.83258330821991
 11
-0.683767557144165
 21
0.83258330821991
  0
LINE
  5
239
100
AcDbEntity
  8
SEMA2D
100
AcDbLine
 62
7
  6
_SOLID
370
9
 10
-0.698198199272156
 20
0.590733587741852
 11
-0.698198199272156
 21
0.592539250850678
  0
LINE
  5
23A
100
AcDbEntity
  8
SEMA2D
100
AcDbLine
 62
7
  6
_SOLID
370
9
 10
-0.69821161031723
 20
0.576068699359894
 11
-0.69821161031723
 21
0.574250757694244
  0
LINE
  5
23B
100
AcDbEntity
  8
SEMA2D
100
AcDbLine
 62
7
  6
_SOLID
370
9
 10
-0.69639253616333
 20
0.588927924633026
 11
-0.69639253616333
 21
0.57787549495697
  0
LINE
  5
23C
100
AcDbEntity
  8
SEMA2D
100
AcDbLine
 62
7
  6
_SOLID
370
9
 10
-0.694586873054504
 20
0.588927924633026
 11
-0.694586873054504
 21
0.57787549495697
  0
LINE
  5
23D
100
AcDbEntity
  8
SEMA2D
100
AcDbLine
 62
7
  6
_SOLID
370
9
 10
-0.882559061050415
 20
0.502237975597382
 11
-0.886783301830292
 21
0.504080712795258
  0
LINE
  5
23E
100
AcDbEntity
  8
SEMA2D
100
AcDbLine
 62
7
  6
_SOLID
370
9
 10
-0.869272649288178
 20
0.496933668851852
 11
-0.873579859733582
 21
0.498573064804077
  0
LINE
  5
23F
100
AcDbEntity
  8
SEMA2D
100
AcDbLine
 62
7
  6
_SOLID
370
9
 10
-0.668162941932678
 20
0.596787571907043
 11
-0.668162941932678
 21
0.600370585918426
  0
LINE
  5
240
100
AcDbEntity
  8
SEMA2D
100
AcDbLine
 62
7
  6
_SOLID
370
9
 10
-0.668911337852478
 20
0.587060451507568
 11
-0.668911337852478
 21
0.592499256134033
  0
LINE
  5
241
100
AcDbEntity
  8
SEMA2D
100
AcDbLine
 62
7
  6
_SOLID
370
9
 10
-0.667266070842743
 20
0.587060451507568
 11
-0.667266070842743
 21
0.592499256134033
  0
LINE
  5
242
100
AcDbEntity
  8
SEMA2D
100
AcDbLine
 62
7
  6
_SOLID
370
9
 10
-0.848332941532135
 20
0.199989423155785
 11
-0.849019765853882
 21
0.199386358261108
  0
LINE
  5
243
100
AcDbEntity
  8
SEMA2D
100
AcDbLine
 62
7
  6
_SOLID
370
9
 10
-0.667207658290863
 20
0.603674471378326
 11
-0.667207658290863
 21
0.587060451507568
  0
LINE
  5
244
100
AcDbEntity
  8
SEMA2D
100
AcDbLine
 62
7
  6
_SOLID
370
9
 10
-0.693442761898041
 20
0.59007203578949
 11
-0.693442761898041
 21
0.576926410198212
  0
LINE
  5
245
100
AcDbEntity
  8
SEMA2D
100
AcDbLine
 62
7
  6
_SOLID
370
9
 10
-0.691637098789215
 20
0.59007203578949
 11
-0.691637098789215
 21
0.576926410198212
  0
LINE
  5
246
100
AcDbEntity
  8
SEMA2D
100
AcDbLine
 62
7
  6
_SOLID
370
9
 10
-0.669899582862854
 20
0.595072209835053
 11
-0.669899582862854
 21
0.600370585918426
  0
LINE
  5
247
100
AcDbEntity
  8
SEMA2D
100
AcDbLine
 62
7
  6
_SOLID
370
9
 10
-0.670511543750763
 20
0.600982546806335
 11
-0.670511543750763
 21
0.602719128131866
  0
LINE
  5
248
100
AcDbEntity
  8
SEMA2D
100
AcDbLine
 62
7
  6
_SOLID
370
9
 10
-0.668162941932678
 20
0.600370585918426
 11
-0.667207658290863
 21
0.603674471378326
  0
LINE
  5
249
100
AcDbEntity
  8
SEMA2D
100
AcDbLine
 62
7
  6
_SOLID
370
9
 10
-0.841307938098908
 20
0.570521652698517
 11
-0.643036007881165
 21
0.570521652698517
  0
LINE
  5
24A
100
AcDbEntity
  8
SEMA2D
100
AcDbLine
 62
7
  6
_SOLID
370
9
 10
-0.771803379058838
 20
0.567757189273834
 11
-0.838712990283966
 21
0.567757189273834
  0
LINE
  5
24B
100
AcDbEntity
  8
SEMA2D
100
AcDbLine
 62
7
  6
_SOLID
370
9
 10
-0.841307878494263
 20
0.572157800197601
 11
-0.643036007881165
 21
0.572157800197601
  0
LINE
  5
24C
100
AcDbEntity
  8
SEMA2D
100
AcDbLine
 62
7
  6
_SOLID
370
9
 10
-0.69821161031723
 20
0.574250757694244
 11
-0.842617988586426
 21
0.574250757694244
  0
LINE
  5
24D
100
AcDbEntity
  8
SEMA2D
100
AcDbLine
 62
7
  6
_SOLID
370
9
 10
-0.64238315820694
 20
0.572785973548889
 11
-0.696445941925049
 21
0.572785973548889
  0
LINE
  5
24E
100
AcDbEntity
  8
SEMA2D
100
AcDbLine
 62
7
  6
_SOLID
370
9
 10
-0.642022371292114
 20
0.574603915214539
 11
-0.640377283096313
 21
0.574626326560974
  0
LINE
  5
24F
100
AcDbEntity
  8
SEMA2D
100
AcDbLine
 62
7
  6
_SOLID
370
9
 10
-0.698408782482147
 20
0.565939247608185
 11
-0.754184663295746
 21
0.565939247608185
  0
LINE
  5
250
100
AcDbEntity
  8
SEMA2D
100
AcDbLine
 62
7
  6
_SOLID
370
9
 10
-0.692762851715088
 20
0.567757189273834
 11
-0.759672462940216
 21
0.567757189273834
  0
LINE
  5
251
100
AcDbEntity
  8
SEMA2D
100
AcDbLine
 62
7
  6
_SOLID
370
9
 10
-0.777291178703308
 20
0.565939247608185
 11
-0.833066999912262
 21
0.565939247608185
  0
LINE
  5
252
100
AcDbEntity
  8
SEMA2D
100
AcDbLine
 62
7
  6
_SOLID
370
9
 10
-0.663515627384186
 20
0.581664800643921
 11
-0.663515627384186
 21
0.583368480205536
  0
LINE
  5
253
100
AcDbEntity
  8
SEMA2D
100
AcDbLine
 62
7
  6
_SOLID
370
9
 10
-0.868955552577972
 20
0.602729916572571
 11
-0.869988560676575
 21
0.603562355041504
  0
LINE
  5
254
100
AcDbEntity
  8
SEMA2D
100
AcDbLine
 62
7
  6
_SOLID
370
9
 10
-0.868452668190002
 20
0.237382605671883
 11
-0.872906446456909
 21
0.235632449388504
  0
LINE
  5
255
100
AcDbEntity
  8
SEMA2D
100
AcDbLine
 62
7
  6
_SOLID
370
9
 10
-0.881866335868835
 20
0.231917828321457
 11
-0.886090040206909
 21
0.230073988437653
  0
LINE
  5
256
100
AcDbEntity
  8
SEMA2D
100
AcDbLine
 62
7
  6
_SOLID
370
9
 10
-0.86999636888504
 20
0.494221121072769
 11
-0.874433696269989
 21
0.494249790906906
  0
LINE
  5
257
100
AcDbEntity
  8
SEMA2D
100
AcDbLine
 62
7
  6
_SOLID
370
9
 10
-0.881809055805206
 20
0.494535028934479
 11
-0.886361181735992
 21
0.494564563035965
  0
LINE
  5
258
100
AcDbEntity
  8
SEMA2D
100
AcDbLine
 62
7
  6
_SOLID
370
9
 10
-0.881729066371918
 20
0.506112396717072
 11
-0.886281132698059
 21
0.506145775318146
  0
LINE
  5
259
100
AcDbEntity
  8
SEMA2D
100
AcDbLine
 62
7
  6
_SOLID
370
9
 10
-0.869913220405579
 20
0.506263196468353
 11
-0.874350547790527
 21
0.506295740604401
  0
LINE
  5
25A
100
AcDbEntity
  8
SEMA2D
100
AcDbLine
 62
7
  6
_SOLID
370
9
 10
-0.64212030172348
 20
0.581664800643921
 11
-0.64212030172348
 21
0.583310008049011
  0
LINE
  5
25B
100
AcDbEntity
  8
SEMA2D
100
AcDbLine
 62
7
  6
_SOLID
370
9
 10
-0.643036007881165
 20
0.572157800197601
 11
-0.643036007881165
 21
0.570521652698517
  0
LINE
  5
25C
100
AcDbEntity
  8
SEMA2D
100
AcDbLine
 62
7
  6
_SOLID
370
9
 10
-0.760409414768219
 20
0.197607412934303
 11
-0.771072506904602
 21
0.197607412934303
  0
LINE
  5
25D
100
AcDbEntity
  8
SEMA2D
100
AcDbLine
 62
7
  6
_SOLID
370
9
 10
-0.851807653903961
 20
0.200630456209183
 11
-0.893342673778534
 21
0.200630456209183
  0
LINE
  5
25E
100
AcDbEntity
  8
SEMA2D
100
AcDbLine
 62
7
  6
_SOLID
370
9
 10
-0.859415590763092
 20
0.20064851641655
 11
-0.851807653903961
 21
0.20064851641655
  0
LINE
  5
25F
100
AcDbEntity
  8
SEMA2D
100
AcDbLine
 62
7
  6
_SOLID
370
9
 10
-0.771072506904602
 20
0.197607412934303
 11
-0.775429666042328
 21
0.197583228349686
  0
LINE
  5
260
100
AcDbEntity
  8
SEMA2D
100
AcDbLine
 62
7
  6
_SOLID
370
9
 10
-0.643063127994537
 20
0.197607412934303
 11
-0.692715704441071
 21
0.197607412934303
  0
LINE
  5
261
100
AcDbEntity
  8
SEMA2D
100
AcDbLine
 62
7
  6
_SOLID
370
9
 10
-0.643063127994537
 20
0.197607412934303
 11
-0.641235291957855
 21
0.197582811117172
  0
LINE
  5
262
100
AcDbEntity
  8
SEMA2D
100
AcDbLine
 62
7
  6
_SOLID
370
9
 10
-0.760409414768219
 20
0.197607412934303
 11
-0.756050050258636
 21
0.197583019733429
  0
LINE
  5
263
100
AcDbEntity
  8
SEMA2D
100
AcDbLine
 62
7
  6
_SOLID
370
9
 10
-0.868561744689941
 20
0.23062127828598
 11
-0.87286502122879
 21
0.2321937084198
  0
LINE
  5
264
100
AcDbEntity
  8
SEMA2D
100
AcDbLine
 62
7
  6
_SOLID
370
9
 10
-0.670511543750763
 20
0.602719128131866
 11
-0.667207658290863
 21
0.603674471378326
  0
LINE
  5
265
100
AcDbEntity
  8
SEMA2D
100
AcDbLine
 62
7
  6
_SOLID
370
9
 10
-0.881911814212799
 20
0.23569130897522
 11
-0.88617879152298
 21
0.237432777881622
  0
LINE
  5
266
100
AcDbEntity
  8
SEMA2D
100
AcDbLine
 62
7
  6
_SOLID
370
9
 10
-0.859415590763092
 20
0.201562523841858
 11
-0.851807653903961
 21
0.201562523841858
  0
LINE
  5
267
100
AcDbEntity
  8
SEMA2D
100
AcDbLine
 62
7
  6
_SOLID
370
9
 10
-0.844116747379303
 20
0.197622999548912
 11
-0.835299134254456
 21
0.197595596313477
  0
LINE
  5
268
100
AcDbEntity
  8
SEMA2D
100
AcDbLine
 62
7
  6
_SOLID
370
9
 10
-0.848115682601929
 20
0.17478646337986
 11
-0.645794034004211
 21
0.17478646337986
  0
LINE
  5
269
100
AcDbEntity
  8
SEMA2D
100
AcDbLine
 62
7
  6
_SOLID
370
9
 10
-0.868955552577972
 20
0.595055937767029
 11
-0.873506247997284
 21
0.589509844779968
  0
LINE
  5
26A
100
AcDbEntity
  8
SEMA2D
100
AcDbLine
 62
7
  6
_SOLID
370
9
 10
-0.86886465549469
 20
0.595072209835053
 11
-0.86886465549469
 21
0.602719128131866
  0
LINE
  5
26B
100
AcDbEntity
  8
SEMA2D
100
AcDbLine
 62
7
  6
_SOLID
370
9
 10
-0.693442761898041
 20
0.59007203578949
 11
-0.694586873054504
 21
0.588927924633026
  0
LINE
  5
26C
100
AcDbEntity
  8
SEMA2D
100
AcDbLine
 62
7
  6
_SOLID
370
9
 10
-0.698198199272156
 20
0.592539250850678
 11
-0.69643247127533
 21
0.594304919242859
  0
LINE
  5
26D
100
AcDbEntity
  8
SEMA2D
100
AcDbLine
 62
7
  6
_SOLID
370
9
 10
-0.851807653903961
 20
0.201562523841858
 11
-0.851807653903961
 21
0.200630456209183
  0
LINE
  5
26E
100
AcDbEntity
  8
SEMA2D
100
AcDbLine
 62
7
  6
_SOLID
370
9
 10
-0.848115682601929
 20
0.17478646337986
 11
-0.848115682601929
 21
0.196938455104828
  0
LINE
  5
26F
100
AcDbEntity
  8
SEMA2D
100
AcDbLine
 62
7
  6
_SOLID
370
9
 10
-0.881172657012939
 20
0.23954276740551
 11
-0.885629117488861
 21
0.239490896463394
  0
LINE
  5
270
100
AcDbEntity
  8
SEMA2D
100
AcDbLine
 62
7
  6
_SOLID
370
9
 10
-0.869268715381622
 20
0.240035817027092
 11
-0.873800992965698
 21
0.2399832457304
  0
LINE
  5
271
100
AcDbEntity
  8
SEMA2D
100
AcDbLine
 62
7
  6
_SOLID
370
9
 10
-0.869217395782471
 20
0.227878078818321
 11
-0.87365448474884
 21
0.227822661399841
  0
LINE
  5
272
100
AcDbEntity
  8
SEMA2D
100
AcDbLine
 62
7
  6
_SOLID
370
9
 10
-0.692196428775787
 20
0.592499256134033
 11
-0.693789839744568
 21
0.59171599149704
  0
LINE
  5
273
100
AcDbEntity
  8
SEMA2D
100
AcDbLine
 62
7
  6
_SOLID
370
9
 10
-0.88103449344635
 20
0.228085339069366
 11
-0.885586321353912
 21
0.228028520941734
  0
LINE
  5
274
100
AcDbEntity
  8
SEMA2D
100
AcDbLine
 62
7
  6
_SOLID
370
9
 10
-0.869227051734924
 20
0.503540873527527
 11
-0.87355649471283
 21
0.5019611120224
  0
LINE
  5
275
100
AcDbEntity
  8
SEMA2D
100
AcDbLine
 62
7
  6
_SOLID
370
9
 10
-0.882585465908051
 20
0.498420596122742
 11
-0.886834740638733
 21
0.496636390686035
  0
LINE
  5
276
100
AcDbEntity
  8
SEMA2D
100
AcDbLine
 62
7
  6
_SOLID
370
9
 10
-0.875503063201904
 20
0.603187739849091
 11
-0.875429451465607
 21
0.601444661617279
  0
LINE
  5
277
100
AcDbEntity
  8
SEMA2D
100
AcDbLine
 62
7
  6
_SOLID
370
9
 10
-0.875819325447082
 20
0.603173196315765
 11
-0.875819325447082
 21
0.60143655538559
  0
LINE
  5
278
100
AcDbEntity
  8
SEMA2D
100
AcDbLine
 62
7
  6
_SOLID
370
9
 10
-0.875429451465607
 20
0.590854108333588
 11
-0.875429451465607
 21
0.601444661617279
  0
LINE
  5
279
100
AcDbEntity
  8
SEMA2D
100
AcDbLine
 62
7
  6
_SOLID
370
9
 10
-0.890804350376129
 20
0.603173196315765
 11
-0.890804350376129
 21
0.60143655538559
  0
LINE
  5
27A
100
AcDbEntity
  8
SEMA2D
100
AcDbLine
 62
7
  6
_SOLID
370
9
 10
-0.88321715593338
 20
0.590854108333588
 11
-0.88321715593338
 21
0.592569470405579
  0
LINE
  5
27B
100
AcDbEntity
  8
SEMA2D
100
AcDbLine
 62
7
  6
_SOLID
370
9
 10
-0.645247399806976
 20
0.176011770963669
 11
-0.645997703075409
 21
0.17478646337986
  0
LINE
  5
27C
100
AcDbEntity
  8
SEMA2D
100
AcDbLine
 62
7
  6
_SOLID
370
9
 10
-0.667656540870666
 20
0.59593003988266
 11
-0.668151021003723
 21
0.596677839756012
  0
LINE
  5
27D
100
AcDbEntity
  8
SEMA2D
100
AcDbLine
 62
7
  6
_SOLID
370
9
 10
-0.692196428775787
 20
0.592499256134033
 11
-0.667266070842743
 21
0.592499256134033
  0
LINE
  5
27E
100
AcDbEntity
  8
SEMA2D
100
AcDbLine
 62
7
  6
_SOLID
370
9
 10
-0.875429451465607
 20
0.592569470405579
 11
-0.88321715593338
 21
0.592569470405579
  0
LINE
  5
27F
100
AcDbEntity
  8
SEMA2D
100
AcDbLine
 62
7
  6
_SOLID
370
9
 10
-0.8428515791893
 20
0.592539250850678
 11
-0.698198199272156
 21
0.592539250850678
  0
LINE
  5
280
100
AcDbEntity
  8
SEMA2D
100
AcDbLine
 62
7
  6
_SOLID
370
9
 10
-0.692151665687561
 20
0.574603915214539
 11
-0.693766057491303
 21
0.575361728668213
  0
LINE
  5
281
100
AcDbEntity
  8
SEMA2D
100
AcDbLine
 62
7
  6
_SOLID
370
9
 10
-0.696445941925049
 20
0.572785973548889
 11
-0.69821161031723
 21
0.574250757694244
  0
LINE
  5
282
100
AcDbEntity
  8
SEMA2D
100
AcDbLine
 62
7
  6
_SOLID
370
9
 10
-0.669301748275757
 20
0.594304919242859
 11
-0.669796228408813
 21
0.595052778720856
  0
LINE
  5
283
100
AcDbEntity
  8
SEMA2D
100
AcDbLine
 62
7
  6
_SOLID
370
9
 10
-0.694586873054504
 20
0.57787549495697
 11
-0.693442761898041
 21
0.576926410198212
  0
LINE
  5
284
100
AcDbEntity
  8
SEMA2D
100
AcDbLine
 62
7
  6
_SOLID
370
9
 10
-0.890804350376129
 20
0.60143655538559
 11
-0.875819325447082
 21
0.60143655538559
  0
LINE
  5
285
100
AcDbEntity
  8
SEMA2D
100
AcDbLine
 62
7
  6
_SOLID
370
9
 10
-0.670511543750763
 20
0.602719128131866
 11
-0.86886465549469
 21
0.602719128131866
  0
LINE
  5
286
100
AcDbEntity
  8
SEMA2D
100
AcDbLine
 62
7
  6
_SOLID
370
9
 10
-0.872123718261719
 20
0.603562355041504
 11
-0.870229005813599
 21
0.603562355041504
  0
LINE
  5
287
100
AcDbEntity
  8
SEMA2D
100
AcDbLine
 62
7
  6
_SOLID
370
9
 10
-0.890804350376129
 20
0.603173196315765
 11
-0.875819325447082
 21
0.603173196315765
  0
LINE
  5
288
100
AcDbEntity
  8
SEMA2D
100
AcDbLine
 62
7
  6
_SOLID
370
9
 10
-0.669899582862854
 20
0.595072209835053
 11
-0.86886465549469
 21
0.595072209835053
  0
LINE
  5
289
100
AcDbEntity
  8
SEMA2D
100
AcDbLine
 62
7
  6
_SOLID
370
9
 10
-0.69643247127533
 20
0.594304919242859
 11
-0.669301748275757
 21
0.594304919242859
  0
LINE
  5
28A
100
AcDbEntity
  8
SEMA2D
100
AcDbLine
 62
7
  6
_SOLID
370
9
 10
-0.86886465549469
 20
0.596787571907043
 11
-0.668162941932678
 21
0.596787571907043
  0
LINE
  5
28B
100
AcDbEntity
  8
SEMA2D
100
AcDbLine
 62
7
  6
_SOLID
370
9
 10
-0.670511543750763
 20
0.600982546806335
 11
-0.86886465549469
 21
0.600982546806335
  0
LINE
  5
28C
100
AcDbEntity
  8
SEMA2D
100
AcDbLine
 62
7
  6
_SOLID
370
9
 10
-0.669899582862854
 20
0.600370585918426
 11
-0.668162941932678
 21
0.600370585918426
  0
LINE
  5
28D
100
AcDbEntity
  8
SEMA2D
100
AcDbLine
 62
7
  6
_SOLID
370
9
 10
-0.64212030172348
 20
0.581664800643921
 11
-0.663515627384186
 21
0.581664800643921
  0
LINE
  5
28E
100
AcDbEntity
  8
SEMA2D
100
AcDbLine
 62
7
  6
_SOLID
370
9
 10
-0.69639253616333
 20
0.57787549495697
 11
-0.694586873054504
 21
0.57787549495697
  0
LINE
  5
28F
100
AcDbEntity
  8
SEMA2D
100
AcDbLine
 62
7
  6
_SOLID
370
9
 10
-0.64212030172348
 20
0.583310008049011
 11
-0.663515627384186
 21
0.583310008049011
  0
LINE
  5
290
100
AcDbEntity
  8
SEMA2D
100
AcDbLine
 62
7
  6
_SOLID
370
9
 10
-0.668911337852478
 20
0.587060451507568
 11
-0.667207658290863
 21
0.587060451507568
  0
LINE
  5
291
100
AcDbEntity
  8
SEMA2D
100
AcDbLine
 62
7
  6
_SOLID
370
9
 10
-0.663515627384186
 20
0.583368480205536
 11
-0.64044064283371
 21
0.583368480205536
  0
LINE
  5
292
100
AcDbEntity
  8
SEMA2D
100
AcDbLine
 62
7
  6
_SOLID
370
9
 10
-0.645794034004211
 20
0.17478646337986
 11
-0.64044064283371
 21
0.186785459518433
  0
LINE
  5
293
100
AcDbEntity
  8
SEMA2D
100
AcDbLine
 62
7
  6
_SOLID
370
9
 10
-0.642022371292114
 20
0.574603915214539
 11
-0.692151665687561
 21
0.574603915214539
  0
LINE
  5
294
100
AcDbEntity
  8
SEMA2D
100
AcDbLine
 62
7
  6
_SOLID
370
9
 10
-0.64212030172348
 20
0.581664800643921
 11
-0.640475273132324
 21
0.581688046455383
  0
LINE
  5
295
100
AcDbEntity
  8
SEMA2D
100
AcDbLine
 62
7
  6
_SOLID
370
9
 10
-0.691637098789215
 20
0.576926410198212
 11
-0.693442761898041
 21
0.576926410198212
  0
LINE
  5
296
100
AcDbEntity
  8
SEMA2D
100
AcDbLine
 62
7
  6
_SOLID
370
9
 10
-0.69821161031723
 20
0.576068699359894
 11
-0.843042254447937
 21
0.576068699359894
  0
LINE
  5
297
100
AcDbEntity
  8
SEMA2D
100
AcDbLine
 62
7
  6
_SOLID
370
9
 10
-0.880872070789337
 20
0.590577304363251
 11
-0.87349545955658
 21
0.590577304363251
  0
LINE
  5
298
100
AcDbEntity
  8
SEMA2D
100
AcDbLine
 62
7
  6
_SOLID
370
9
 10
-0.84285569190979
 20
0.590733587741852
 11
-0.698198199272156
 21
0.590733587741852
  0
LINE
  5
299
100
AcDbEntity
  8
SEMA2D
100
AcDbLine
 62
7
  6
_SOLID
370
9
 10
-0.875429451465607
 20
0.590854108333588
 11
-0.88321715593338
 21
0.590854108333588
  0
LINE
  5
29A
100
AcDbEntity
  8
SEMA2D
100
AcDbLine
 62
7
  6
_SOLID
370
9
 10
-0.880872070789337
 20
0.588771641254425
 11
-0.87349545955658
 21
0.588771641254425
  0
LINE
  5
29B
100
AcDbEntity
  8
SEMA2D
100
AcDbLine
 62
7
  6
_SOLID
370
9
 10
-0.69639253616333
 20
0.588927924633026
 11
-0.694586873054504
 21
0.588927924633026
  0
LINE
  5
29C
100
AcDbEntity
  8
SEMA2D
100
AcDbLine
 62
7
  6
_SOLID
370
9
 10
-0.691637098789215
 20
0.59007203578949
 11
-0.693442761898041
 21
0.59007203578949
  0
LINE
  5
29D
100
AcDbEntity
  8
SEMA2D
100
AcDbLine
 62
7
  6
_SOLID
370
9
 10
-0.869173228740692
 20
0.589654505252838
 11
-0.863909721374512
 21
0.589654505252838
  0
LINE
  5
29E
100
AcDbEntity
  8
SEMA2D
100
AcDbLine
 62
7
  6
_SOLID
370
9
 10
-0.870176672935486
 20
0.603569686412811
 11
-0.869522988796234
 21
0.603674471378326
  0
LINE
  5
29F
100
AcDbEntity
  8
SEMA2D
100
AcDbLine
 62
7
  6
_SOLID
370
9
 10
-0.874961495399475
 20
0.603239715099335
 11
-0.872420608997345
 21
0.603674471378326
  0
LINE
  5
2A0
100
AcDbEntity
  8
SEMA2D
100
AcDbLine
 62
7
  6
_SOLID
370
9
 10
-0.875819325447082
 20
0.603173196315765
 11
-0.872420608997345
 21
0.603674471378326
  0
LINE
  5
2A1
100
AcDbEntity
  8
SEMA2D
100
AcDbLine
 62
7
  6
_SOLID
370
9
 10
-0.893379271030426
 20
0.601136147975922
 11
-0.891141533851624
 21
0.601104140281677
  0
LINE
  5
2A2
100
AcDbEntity
  8
SEMA2D
100
AcDbLine
 62
7
  6
_SOLID
370
9
 10
-0.893342673778534
 20
0.603674471378326
 11
-0.667207658290863
 21
0.603674471378326
  0
LINE
  5
2A3
100
AcDbEntity
  8
SEMA2D
100
AcDbLine
 62
7
  6
_SOLID
370
9
 10
-0.869993150234222
 20
0.603569686412811
 11
-0.869522988796234
 21
0.603674471378326
  0
ARC
  5
2A4
100
AcDbEntity
  8
SEMA2D
100
AcDbCircle
 62
7
  6
_SOLID
370
9
 10
-0.663515627384186
 20
0.587060451507568
 40
0.00369199994020164
100
AcDbArc
 50
180
 51
270
  0
ARC
  5
2A5
100
AcDbEntity
  8
SEMA2D
100
AcDbCircle
 62
7
  6
_SOLID
370
9
 10
-0.851807653903961
 20
0.196938455104828
 40
0.00369199994020164
100
AcDbArc
 50
0
 51
90
  0
ARC
  5
2A6
100
AcDbEntity
  8
SEMA2D
100
AcDbCircle
 62
7
  6
_SOLID
370
9
 10
12.7387056350708
 20
0.406152456998825
 40
13.6334791183472
100
AcDbArc
 50
179.169876098633
 51
180.863754272461
  0
ARC
  5
2A7
100
AcDbEntity
  8
SEMA2D
100
AcDbCircle
 62
7
  6
_SOLID
370
9
 10
-14.2725353240967
 20
0.389076948165894
 40
13.6334791183472
100
AcDbArc
 50
359.148681640625
 51
0.816553294658661
  0
ARC
  5
2A8
100
AcDbEntity
  8
SEMA2D
100
AcDbCircle
 62
7
  6
_SOLID
370
9
 10
-0.878113150596619
 20
0.50029844045639
 40
0.00945920404046774
100
AcDbArc
 50
156.431182861328
 51
202.776931762695
  0
ARC
  5
2A9
100
AcDbEntity
  8
SEMA2D
100
AcDbCircle
 62
7
  6
_SOLID
370
9
 10
-0.878113150596619
 20
0.50029844045639
 40
0.00485052820295095
100
AcDbArc
 50
156.431121826172
 51
202.776992797852
  0
ARC
  5
2AA
100
AcDbEntity
  8
SEMA2D
100
AcDbCircle
 62
7
  6
_SOLID
370
9
 10
-0.877420902252197
 20
0.233858466148376
 40
0.00485052820295095
100
AcDbArc
 50
157.798370361328
 51
203.58349609375
  0
ARC
  5
2AB
100
AcDbEntity
  8
SEMA2D
100
AcDbCircle
 62
7
  6
_SOLID
370
9
 10
-14.2725353240967
 20
0.389076948165894
 40
13.6325349807739
100
AcDbArc
 50
359.195251464844
 51
0.762820839881897
  0
ARC
  5
2AC
100
AcDbEntity
  8
SEMA2D
100
AcDbCircle
 62
7
  6
_SOLID
370
9
 10
-0.877420902252197
 20
0.233858466148376
 40
0.00945920404046774
100
AcDbArc
 50
157.798416137695
 51
203.583450317383
  0
ARC
  5
2AD
100
AcDbEntity
  8
SEMA2D
100
AcDbCircle
 62
7
  6
_SOLID
370
9
 10
-0.878113150596619
 20
0.50029844045639
 40
0.00947692524641752
100
AcDbArc
 50
340.114959716797
 51
19.0941638946533
  0
ARC
  5
2AE
100
AcDbEntity
  8
SEMA2D
100
AcDbCircle
 62
7
  6
_SOLID
370
9
 10
-0.877420902252197
 20
0.233858466148376
 40
0.00485052820295095
100
AcDbArc
 50
339.927490234375
 51
21.4526786804199
  0
ARC
  5
2AF
100
AcDbEntity
  8
SEMA2D
100
AcDbCircle
 62
7
  6
_SOLID
370
9
 10
-0.878113150596619
 20
0.50029844045639
 40
0.00485052820295095
100
AcDbArc
 50
339.162750244141
 51
20.0463466644287
  0
ARC
  5
2B0
100
AcDbEntity
  8
SEMA2D
100
AcDbCircle
 62
7
  6
_SOLID
370
9
 10
-0.851807653903961
 20
0.196938455104828
 40
0.00371005339547992
100
AcDbArc
 50
41.2846260070801
 51
90
  0
ARC
  5
2B1
100
AcDbEntity
  8
SEMA2D
100
AcDbCircle
 62
7
  6
_SOLID
370
9
 10
-0.851807653903961
 20
0.196938455104828
 40
0.00462407059967518
100
AcDbArc
 50
41.2846260070801
 51
90
  0
ARC
  5
2B2
100
AcDbEntity
  8
SEMA2D
100
AcDbCircle
 62
7
  6
_SOLID
370
9
 10
-14.2725353240967
 20
0.389076948165894
 40
13.6334209442139
100
AcDbArc
 50
0.779813408851624
 51
0.809493720531464
  0
ARC
  5
2B3
100
AcDbEntity
  8
SEMA2D
100
AcDbCircle
 62
7
  6
_SOLID
370
9
 10
-14.2725353240967
 20
0.389076948165894
 40
13.6307067871094
100
AcDbArc
 50
359.195129394531
 51
0.762713253498077
  0
ARC
  5
2B4
100
AcDbEntity
  8
SEMA2D
100
AcDbCircle
 62
7
  6
_SOLID
370
9
 10
-14.2725353240967
 20
0.389076948165894
 40
13.6317758560181
100
AcDbArc
 50
0.779813408851624
 51
0.809493720531464
  0
ARC
  5
2B5
100
AcDbEntity
  8
SEMA2D
100
AcDbCircle
 62
7
  6
_SOLID
370
9
 10
-0.663515627384186
 20
0.587060451507568
 40
0.00375043996609747
100
AcDbArc
 50
180
 51
270
  0
ARC
  5
2B6
100
AcDbEntity
  8
SEMA2D
100
AcDbCircle
 62
7
  6
_SOLID
370
9
 10
-0.663515627384186
 20
0.587060451507568
 40
0.00539567088708282
100
AcDbArc
 50
180
 51
270
  0
LINE
  5
2B7
100
AcDbEntity
  8
SEMA2D
100
AcDbLine
 62
7
  6
_SOLID
370
9
 10
-0.885044634342194
 20
0.60143655538559
 11
-0.885611176490784
 21
0.554880321025848
  0
LINE
  5
2B8
100
AcDbEntity
  8
SEMA2D
100
AcDbLine
 62
7
  6
_SOLID
370
9
 10
-0.869173228740692
 20
0.589654505252838
 11
-0.869595885276794
 21
0.55491703748703
  0
LINE
  5
2B9
100
AcDbEntity
  8
SEMA2D
100
AcDbLine
 62
7
  6
_SOLID
370
9
 10
-0.863909721374512
 20
0.589654505252838
 11
-0.864356160163879
 21
0.552967309951782
  0
LINE
  5
2BA
100
AcDbEntity
  8
SEMA2D
100
AcDbLine
 62
7
  6
_SOLID
370
9
 10
-0.87349545955658
 20
0.590577304363251
 11
-0.874350547790527
 21
0.506295740604401
  0
LINE
  5
2BB
100
AcDbEntity
  8
SEMA2D
100
AcDbLine
 62
7
  6
_SOLID
370
9
 10
-0.881729066371918
 20
0.506112396717072
 11
-0.880872070789337
 21
0.590577304363251
  0
LINE
  5
2BC
100
AcDbEntity
  8
SEMA2D
100
AcDbLine
 62
7
  6
_SOLID
370
9
 10
-0.788553655147553
 20
0.562905192375183
 11
-0.788553655147553
 21
0.17478646337986
  0
LINE
  5
2BD
100
AcDbEntity
  8
SEMA2D
100
AcDbLine
 62
7
  6
_SOLID
370
9
 10
-0.786781072616577
 20
0.17478646337986
 11
-0.786781072616577
 21
0.563037931919098
  0
LINE
  5
2BE
100
AcDbEntity
  8
SEMA2D
100
AcDbLine
 62
7
  6
_SOLID
370
9
 10
-0.775800168514252
 20
0.56408953666687
 11
-0.775421440601349
 21
0.197607412934303
  0
LINE
  5
2BF
100
AcDbEntity
  8
SEMA2D
100
AcDbLine
 62
7
  6
_SOLID
370
9
 10
-0.771056354045868
 20
0.197607412934303
 11
-0.771803379058838
 21
0.567757189273834
  0
LINE
  5
2C0
100
AcDbEntity
  8
SEMA2D
100
AcDbLine
 62
7
  6
_SOLID
370
9
 10
-0.759672462940216
 20
0.567757189273834
 11
-0.760425686836243
 21
0.197607412934303
  0
LINE
  5
2C1
100
AcDbEntity
  8
SEMA2D
100
AcDbLine
 62
7
  6
_SOLID
370
9
 10
-0.756058394908905
 20
0.197607412934303
 11
-0.755675613880157
 21
0.56408953666687
  0
LINE
  5
2C2
100
AcDbEntity
  8
SEMA2D
100
AcDbLine
 62
7
  6
_SOLID
370
9
 10
-0.744753837585449
 20
0.563037931919098
 11
-0.744753837585449
 21
0.17478646337986
  0
LINE
  5
2C3
100
AcDbEntity
  8
SEMA2D
100
AcDbLine
 62
7
  6
_SOLID
370
9
 10
-0.742922186851501
 20
0.562905192375183
 11
-0.742922186851501
 21
0.17478646337986
  0
ARC
  5
2C4
100
AcDbEntity
  8
SEMA2D
100
AcDbCircle
 62
7
  6
_SOLID
370
9
 10
9.4364128112793
 20
0.490353465080261
 40
10.1294717788696
100
AcDbArc
 50
179.56217956543
 51
181.656097412109
  0
ARC
  5
2C5
100
AcDbEntity
  8
SEMA2D
100
AcDbCircle
 62
7
  6
_SOLID
370
9
 10
9.98278617858887
 20
0.488676875829697
 40
10.679256439209
100
AcDbArc
 50
179.593719482422
 51
181.561828613281
  0
LINE
  5
2C6
100
AcDbEntity
  8
SEMA2D
100
AcDbLine
 62
7
  6
_SOLID
370
9
 10
-0.885841310024262
 20
0.554882824420929
 11
-0.886281132698059
 21
0.506145775318146
  0
LINE
  5
2C7
100
AcDbEntity
  8
SEMA2D
100
AcDbLine
 62
7
  6
_SOLID
370
9
 10
-0.869913220405579
 20
0.506263196468353
 11
-0.869472503662109
 21
0.554915964603424
  0
LINE
  5
2C8
100
AcDbEntity
  8
SEMA2D
100
AcDbLine
 62
7
  6
_SOLID
370
9
 10
-0.835273504257202
 20
0.564401149749756
 11
-0.835273504257202
 21
0.197595506906509
  0
LINE
  5
2C9
100
AcDbEntity
  8
SEMA2D
100
AcDbLine
 62
7
  6
_SOLID
370
9
 10
-0.838712990283966
 20
0.567757189273834
 11
-0.838712990283966
 21
0.197606205940247
  0
LINE
  5
2CA
100
AcDbEntity
  8
SEMA2D
100
AcDbLine
 62
7
  6
_SOLID
370
9
 10
-0.84734034538269
 20
0.17478646337986
 11
-0.84734034538269
 21
0.196886464953423
  0
ARC
  5
2CB
100
AcDbEntity
  8
SEMA2D
100
AcDbCircle
 62
7
  6
_SOLID
370
9
 10
12.7883281707764
 20
0.40615126490593
 40
13.6324672698975
100
AcDbArc
 50
179.308944702148
 51
180.876480102539
  0
ARC
  5
2CC
100
AcDbEntity
  8
SEMA2D
100
AcDbCircle
 62
7
  6
_SOLID
370
9
 10
12.7868595123291
 20
0.40615102648735
 40
13.6325712203979
100
AcDbArc
 50
179.224197387695
 51
180.972442626953
  0
ARC
  5
2CD
100
AcDbEntity
  8
SEMA2D
100
AcDbCircle
 62
7
  6
_SOLID
370
9
 10
12.7455110549927
 20
0.406150788068771
 40
13.6276063919067
100
AcDbArc
 50
179.628402709961
 51
180.700500488281
  0
ARC
  5
2CE
100
AcDbEntity
  8
SEMA2D
100
AcDbCircle
 62
7
  6
_SOLID
370
9
 10
12.7455406188965
 20
0.406150847673416
 40
13.6321887969971
100
AcDbArc
 50
179.628402709961
 51
180.700485229492
  0
ARC
  5
2CF
100
AcDbEntity
  8
SEMA2D
100
AcDbCircle
 62
7
  6
_SOLID
370
9
 10
15.1624946594238
 20
0.404550194740295
 40
16.0543460845947
100
AcDbArc
 50
179.479583740234
 51
180.727783203125
  0
LINE
  5
2D0
100
AcDbEntity
  8
SEMA2D
100
AcDbLine
 62
7
  6
_SOLID
370
9
 10
-0.885586321353912
 20
0.228028520941734
 11
-0.885218858718872
 21
0.200630456209183
  0
LINE
  5
2D1
100
AcDbEntity
  8
SEMA2D
100
AcDbLine
 62
7
  6
_SOLID
370
9
 10
-0.88103449344635
 20
0.228085339069366
 11
-0.880677700042725
 21
0.20064851641655
  0
LINE
  5
2D2
100
AcDbEntity
  8
SEMA2D
100
AcDbLine
 62
7
  6
_SOLID
370
9
 10
-0.87365448474884
 20
0.227822661399841
 11
-0.873300969600678
 21
0.200630456209183
  0
LINE
  5
2D3
100
AcDbEntity
  8
SEMA2D
100
AcDbLine
 62
7
  6
_SOLID
370
9
 10
-0.869217395782471
 20
0.227878078818321
 11
-0.868851661682129
 21
0.200630456209183
  0
ARC
  5
2D4
100
AcDbEntity
  8
SEMA2D
100
AcDbCircle
 62
7
  6
_SOLID
370
9
 10
12.7671279907227
 20
0.406150996685028
 40
13.6323986053467
100
AcDbArc
 50
179.382919311523
 51
180.863815307617
  0
ARC
  5
2D5
100
AcDbEntity
  8
SEMA2D
100
AcDbCircle
 62
7
  6
_SOLID
370
9
 10
12.7619504928589
 20
0.406150817871094
 40
13.6366691589355
100
AcDbArc
 50
179.629837036133
 51
180.698181152344
  0
ARC
  5
2D6
100
AcDbEntity
  8
SEMA2D
100
AcDbCircle
 62
7
  6
_SOLID
370
9
 10
12.7619123458862
 20
0.406150877475738
 40
13.6321935653687
100
AcDbArc
 50
179.629837036133
 51
180.698196411133
  0
LINE
  5
2D7
100
AcDbEntity
  8
SEMA2D
100
AcDbLine
 62
7
  6
_SOLID
370
9
 10
-0.8428515791893
 20
0.592539250850678
 11
-0.843042254447937
 21
0.574925899505615
  0
ARC
  5
2D8
100
AcDbEntity
  8
SEMA2D
100
AcDbCircle
 62
7
  6
_SOLID
370
9
 10
-0.877230882644653
 20
0.233858466148376
 40
0.00945920404046774
100
AcDbArc
 50
339.532470703125
 51
22.2015762329102
  0
LINE
  5
2D9
100
AcDbEntity
  8
SEMA2D
100
AcDbLine
 62
7
  6
_SOLID
370
9
 10
-0.891188979148865
 20
0.550368666648865
 11
-0.891188979148865
 21
0.601104140281677
  0
ARC
  5
2DA
100
AcDbEntity
  8
SEMA2D
100
AcDbCircle
 62
7
  6
_SOLID
370
9
 10
-0.811926364898682
 20
0.198159202933311
 40
0.0233795344829559
100
AcDbArc
 50
181.381362915039
 51
358.618438720703
  0
ARC
  5
2DB
100
AcDbEntity
  8
SEMA2D
100
AcDbCircle
 62
7
  6
_SOLID
370
9
 10
-0.717712819576263
 20
0.199995830655098
 40
0.0253222659230232
100
AcDbArc
 50
185.412231445313
 51
354.587768554687
  0
ENDSEC
  0
SECTION
  2
OBJECTS
  0
DICTIONARY
  5
 13
330
0
100
AcDbDictionary
281
     1
  3
ACAD_GROUP
350
 14
 3
ACAD_MLINESTYLE
350
 16
  3
ACAD_PLOTSETTINGS
350
 17
  3
ACAD_PLOTSTYLENAME
350
 18
  0
DICTIONARY
  5
 14
330
 13
100
AcDbDictionary
281
     1
  0
DICTIONARY
  5
 16
330
 13
100
AcDbDictionary
281
     1
  0
DICTIONARY
  5
 17
102
{ACAD_REACTORS
330
 13
102
}
330
 13
100
AcDbDictionary
281
     1
  0
ACDBDICTIONARYWDFLT
  5
 18
102
{ACAD_REACTORS
330
 13
102
}
330
 13
100
AcDbDictionary
281
     1
  3
Normal
350
 19
100
AcDbDictionaryWithDefault
340
 19
  0
ACDBPLACEHOLDER
  5
 19
102
{ACAD_REACTORS
330
 18
102
}
330
 18
  0
ENDSEC
  0
EOF
