  0
SECTION
  2
HEADER
  9
$ACADVER
  1
AC1015
  9
$HANDSEED
  5
2E1
  9
$LIMMIN
 10
-146.682876586914
 20
0.117863461375237
  9
$LIMMAX
 10
24.3935413360596
 20
1.06344795227051
  9
$MEASUREMENT
 70
1
  0
ENDSEC
  0
SECTION
  2
TABLES
  0
TABLE
  2
VPORT
  5
  1
100
AcDbSymbolTable
  0
ENDTAB
  0
TABLE
  2
LTYPE
  5
  2
100
AcDbSymbolTable
  0
LTYPE
  5
  3
100
AcDbSymbolTableRecord
100
AcDbLinetypeTableRecord
  2
BYBLOCK
 70
     0
  0
LTYPE
  5
  4
100
AcDbSymbolTableRecord
100
AcDbLinetypeTableRecord
  2
BYLAYER
 70
     0
  0
LTYPE
  5
20
100
AcDbSymbolTableRecord
100
AcDbLinetypeTableRecord
  2
_SOLID
  3

 70
0
 72
65
 73
2
 40
5
 49
5
 74
0
 49
0
 74
0
  0
LTYPE
  5
21
100
AcDbSymbolTableRecord
100
AcDbLinetypeTableRecord
  2
_DASH
  3

 70
0
 72
65
 73
2
 40
7
 49
5
 74
0
 49
-2
 74
0
  0
LTYPE
  5
22
100
AcDbSymbolTableRecord
100
AcDbLinetypeTableRecord
  2
_DOT
  3

 70
0
 72
65
 73
2
 40
4
 49
2
 74
0
 49
-2
 74
0
  0
LTYPE
  5
23
100
AcDbSymbolTableRecord
100
AcDbLinetypeTableRecord
  2
_DASHDOT
  3

 70
0
 72
65
 73
4
 40
11
 49
5
 74
0
 49
-2
 74
0
 49
2
 74
0
 49
-2
 74
0
  0
LTYPE
  5
24
100
AcDbSymbolTableRecord
100
AcDbLinetypeTableRecord
  2
_DASHDOTDOT
  3

 70
0
 72
65
 73
6
 40
15
 49
5
 74
0
 49
-2
 74
0
 49
2
 74
0
 49
-2
 74
0
 49
2
 74
0
 49
-2
 74
0
  0
LTYPE
  5
25
100
AcDbSymbolTableRecord
100
AcDbLinetypeTableRecord
  2
ISO128-20-02
  3

 70
0
 72
65
 73
2
 40
15
 49
12
 74
0
 49
-3
 74
0
  0
LTYPE
  5
26
100
AcDbSymbolTableRecord
100
AcDbLinetypeTableRecord
  2
ISO128-20-03
  3

 70
0
 72
65
 73
2
 40
30
 49
12
 74
0
 49
-18
 74
0
  0
LTYPE
  5
27
100
AcDbSymbolTableRecord
100
AcDbLinetypeTableRecord
  2
ISO128-20-04
  3

 70
0
 72
65
 73
4
 40
30
 49
24
 74
0
 49
-3
 74
0
 49
0
 74
0
 49
-3
 74
0
  0
LTYPE
  5
28
100
AcDbSymbolTableRecord
100
AcDbLinetypeTableRecord
  2
ISO128-20-05
  3

 70
0
 72
65
 73
6
 40
33
 49
24
 74
0
 49
-3
 74
0
 49
0
 74
0
 49
-3
 74
0
 49
0
 74
0
 49
-3
 74
0
  0
LTYPE
  5
29
100
AcDbSymbolTableRecord
100
AcDbLinetypeTableRecord
  2
ISO128-20-06
  3

 70
0
 72
65
 73
8
 40
36
 49
24
 74
0
 49
-3
 74
0
 49
0
 74
0
 49
-3
 74
0
 49
0
 74
0
 49
-3
 74
0
 49
0
 74
0
 49
-3
 74
0
  0
LTYPE
  5
2A
100
AcDbSymbolTableRecord
100
AcDbLinetypeTableRecord
  2
ISO128-20-07
  3

 70
0
 72
65
 73
2
 40
3
 49
0
 74
0
 49
-3
 74
0
  0
LTYPE
  5
2B
100
AcDbSymbolTableRecord
100
AcDbLinetypeTableRecord
  2
ISO128-20-08
  3

 70
0
 72
65
 73
4
 40
36
 49
24
 74
0
 49
-3
 74
0
 49
6
 74
0
 49
-3
 74
0
  0
LTYPE
  5
2C
100
AcDbSymbolTableRecord
100
AcDbLinetypeTableRecord
  2
ISO128-20-09
  3

 70
0
 72
65
 73
6
 40
45
 49
24
 74
0
 49
-3
 74
0
 49
6
 74
0
 49
-3
 74
0
 49
6
 74
0
 49
-3
 74
0
  0
LTYPE
  5
2D
100
AcDbSymbolTableRecord
100
AcDbLinetypeTableRecord
  2
ISO128-20-10
  3

 70
0
 72
65
 73
4
 40
18
 49
12
 74
0
 49
-3
 74
0
 49
0
 74
0
 49
-3
 74
0
  0
LTYPE
  5
2E
100
AcDbSymbolTableRecord
100
AcDbLinetypeTableRecord
  2
ISO128-20-11
  3

 70
0
 72
65
 73
6
 40
33
 49
12
 74
0
 49
-3
 74
0
 49
12
 74
0
 49
-3
 74
0
 49
0
 74
0
 49
-3
 74
0
  0
LTYPE
  5
2F
100
AcDbSymbolTableRecord
100
AcDbLinetypeTableRecord
  2
ISO128-20-12
  3

 70
0
 72
65
 73
6
 40
21
 49
12
 74
0
 49
-3
 74
0
 49
0
 74
0
 49
-3
 74
0
 49
0
 74
0
 49
-3
 74
0
  0
LTYPE
  5
30
100
AcDbSymbolTableRecord
100
AcDbLinetypeTableRecord
  2
ISO128-20-13
  3

 70
0
 72
65
 73
8
 40
36
 49
12
 74
0
 49
-3
 74
0
 49
12
 74
0
 49
-3
 74
0
 49
0
 74
0
 49
-3
 74
0
 49
0
 74
0
 49
-3
 74
0
  0
LTYPE
  5
31
100
AcDbSymbolTableRecord
100
AcDbLinetypeTableRecord
  2
ISO128-20-14
  3

 70
0
 72
65
 73
8
 40
24
 49
12
 74
0
 49
-3
 74
0
 49
0
 74
0
 49
-3
 74
0
 49
0
 74
0
 49
-3
 74
0
 49
0
 74
0
 49
-3
 74
0
  0
LTYPE
  5
32
100
AcDbSymbolTableRecord
100
AcDbLinetypeTableRecord
  2
ISO128-20-15
  3

 70
0
 72
65
 73
10
 40
39
 49
12
 74
0
 49
-3
 74
0
 49
12
 74
0
 49
-3
 74
0
 49
0
 74
0
 49
-3
 74
0
 49
0
 74
0
 49
-3
 74
0
 49
0
 74
0
 49
-3
 74
0
  0
ENDTAB
  0
TABLE
  2
LAYER
  5
 1A
330
  0
100
AcDbSymbolTable
  0
LAYER
  5
2DD
330
 1A
100
AcDbSymbolTableRecord
100
AcDbLayerTableRecord
  2
0
 70
0
 62
7
  6
Continuous
370
-3
390
 19
  0
LAYER
  5
2DE
330
 1A
100
AcDbSymbolTableRecord
100
AcDbLayerTableRecord
  2
SEMA2D
 70
0
 62
7
  6
Continuous
370
-3
390
 19
  0
LAYER
  5
2DF
330
 1A
100
AcDbSymbolTableRecord
100
AcDbLayerTableRecord
  2
SEMATEXT
 70
0
 62
7
  6
Continuous
370
-3
390
 19
  0
ENDTAB
  0
TABLE
  2
STYLE
  5
  5
100
AcDbSymbolTable
  0
STYLE
  5
  6
100
AcDbSymbolTableRecord
100
AcDbTextStyleTableRecord
  2
STANDARD
 70
     0
 40
0.0
 41
1.0
 50
0.0
 71
     0
 42
10.0
  3
txt
  4

  0
ENDTAB
  0
TABLE
  2
VIEW
  5
  7
100
AcDbSymbolTable
  0
ENDTAB
  0
TABLE
  2
UCS
  5
  8
100
AcDbSymbolTable
  0
ENDTAB
  0
TABLE
  2
APPID
  5
  9
100
AcDbSymbolTable
  0
APPID
  5
  A
100
AcDbSymbolTableRecord
100
AcDbRegAppTableRecord
  2
ACAD
 70
0
  0
ENDTAB
  0
TABLE
  2
DIMSTYLE
  5
  B
100
AcDbSymbolTable
 70
     1
100
AcDbDimStyleTable
 71
     0
  0
DIMSTYLE
105
 1B
330
B
100
AcDbSymbolTableRecord
100
AcDbDimStyleTableRecord
  2
STANDARD
 70
    0
340
  6
  0
ENDTAB
  0
TABLE
  2
BLOCK_RECORD
  5
  C
100
AcDbSymbolTable
  0
BLOCK_RECORD
  5
  D
100
AcDbSymbolTableRecord
100
AcDbBlockTableRecord
  2
*MODEL_SPACE
  0
BLOCK_RECORD
  5
  E
100
AcDbSymbolTableRecord
100
AcDbBlockTableRecord
  2
*PAPER_SPACE
  0
ENDTAB
  0
ENDSEC
  0
SECTION
  2
BLOCKS
  0
BLOCK
  5
  F
330
  D
100
AcDbEntity
  8
0
100
AcDbBlockBegin
  2
*MODEL_SPACE
 70
     0
  0
ENDBLK
  5
 10
100
AcDbEntity
  8
0
100
AcDbBlockEnd
  0
BLOCK
  5
 11
330
  E
100
AcDbEntity
  8
0
100
AcDbBlockBegin
  2
*PAPER_SPACE
 70
     0
  0
ENDBLK
  5
 12
100
AcDbEntity
  8
0
100
AcDbBlockEnd
  0
ENDSEC
  0
SECTION
  2
ENTITIES
  0
LINE
  5
33
100
AcDbEntity
  8
SEMA2D
100
AcDbLine
 62
7
  6
_SOLID
370
9
 10
-0.378454566001892
 20
0.653674483299255
 11
-0.327689558267593
 21
0.653674483299255
  0
LINE
  5
34
100
AcDbEntity
  8
SEMA2D
100
AcDbLine
 62
7
  6
_SOLID
370
9
 10
-0.378454566001892
 20
0.653674483299255
 11
-0.378454566001892
 21
0.660674452781677
  0
LINE
  5
35
100
AcDbEntity
  8
SEMA2D
100
AcDbLine
 62
7
  6
_SOLID
370
9
 10
-0.378454566001892
 20
0.653674483299255
 11
-0.378454566001892
 21
0.646674454212189
  0
LINE
  5
36
100
AcDbEntity
  8
SEMA2D
100
AcDbLine
 62
7
  6
_SOLID
370
9
 10
-0.378454566001892
 20
0.653674483299255
 11
-0.372392386198044
 21
0.657174468040466
  0
LINE
  5
37
100
AcDbEntity
  8
SEMA2D
100
AcDbLine
 62
7
  6
_SOLID
370
9
 10
-0.378454566001892
 20
0.653674483299255
 11
-0.38451674580574
 21
0.6501744389534
  0
LINE
  5
38
100
AcDbEntity
  8
SEMA2D
100
AcDbLine
 62
7
  6
_DOT
370
9
 10
-0.378454566001892
 20
0.603674471378326
 11
-0.378454566001892
 21
0.653674483299255
  0
LINE
  5
39
100
AcDbEntity
  8
SEMA2D
100
AcDbLine
 62
7
  6
_DOT
370
9
 10
-0.378454566001892
 20
0.603674471378326
 11
-0.378454566001892
 21
0.603674471378326
  0
MTEXT
  5
3A
100
AcDbEntity
  8
SEMATEXT
100
AcDbMText
 62
7
 10
-0.365356475114822
 20
0.658672869205475
 40
0.00800000037997961
 71
7
  1
{\fArial Narrow;36}
  7
STANDARD
 73
2
  0
LINE
  5
3B
100
AcDbEntity
  8
SEMA2D
100
AcDbLine
 62
7
  6
_SOLID
370
9
 10
-0.342457562685013
 20
0.653674483299255
 11
-0.342457562685013
 21
0.660674452781677
  0
LINE
  5
3C
100
AcDbEntity
  8
SEMA2D
100
AcDbLine
 62
7
  6
_SOLID
370
9
 10
-0.342457562685013
 20
0.653674483299255
 11
-0.342457562685013
 21
0.646674454212189
  0
LINE
  5
3D
100
AcDbEntity
  8
SEMA2D
100
AcDbLine
 62
7
  6
_SOLID
370
9
 10
-0.342457562685013
 20
0.653674483299255
 11
-0.336395382881165
 21
0.657174468040466
  0
LINE
  5
3E
100
AcDbEntity
  8
SEMA2D
100
AcDbLine
 62
7
  6
_SOLID
370
9
 10
-0.342457562685013
 20
0.653674483299255
 11
-0.348519742488861
 21
0.6501744389534
  0
LINE
  5
3F
100
AcDbEntity
  8
SEMA2D
100
AcDbLine
 62
7
  6
_DOT
370
9
 10
-0.342457562685013
 20
0.603674471378326
 11
-0.342457562685013
 21
0.653674483299255
  0
LINE
  5
40
100
AcDbEntity
  8
SEMA2D
100
AcDbLine
 62
7
  6
_DOT
370
9
 10
-0.342457562685013
 20
0.603674471378326
 11
-0.342457562685013
 21
0.603674471378326
  0
MTEXT
  5
41
100
AcDbEntity
  8
SEMATEXT
100
AcDbMText
 62
7
 10
-0.339973986148834
 20
0.658672869205475
 40
0.00800000037997961
 71
7
  1
{\fArial Narrow;15}
  7
STANDARD
 73
2
  0
LINE
  5
42
100
AcDbEntity
  8
SEMA2D
100
AcDbLine
 62
7
  6
_SOLID
370
9
 10
-0.327689558267593
 20
0.653674483299255
 11
-0.327689558267593
 21
0.660674452781677
  0
LINE
  5
43
100
AcDbEntity
  8
SEMA2D
100
AcDbLine
 62
7
  6
_SOLID
370
9
 10
-0.327689558267593
 20
0.653674483299255
 11
-0.327689558267593
 21
0.646674454212189
  0
LINE
  5
44
100
AcDbEntity
  8
SEMA2D
100
AcDbLine
 62
7
  6
_SOLID
370
9
 10
-0.327689558267593
 20
0.653674483299255
 11
-0.321627378463745
 21
0.657174468040466
  0
LINE
  5
45
100
AcDbEntity
  8
SEMA2D
100
AcDbLine
 62
7
  6
_SOLID
370
9
 10
-0.327689558267593
 20
0.653674483299255
 11
-0.333751738071442
 21
0.6501744389534
  0
LINE
  5
46
100
AcDbEntity
  8
SEMA2D
100
AcDbLine
 62
7
  6
_DOT
370
9
 10
-0.327689558267593
 20
0.603674471378326
 11
-0.327689558267593
 21
0.653674483299255
  0
LINE
  5
47
100
AcDbEntity
  8
SEMA2D
100
AcDbLine
 62
7
  6
_DOT
370
9
 10
-0.327689558267593
 20
0.653674483299255
 11
-0.327689558267593
 21
0.603674471378326
  0
LINE
  5
48
100
AcDbEntity
  8
SEMA2D
100
AcDbLine
 62
7
  6
_SOLID
370
9
 10
-0.189043655991554
 20
0.653674483299255
 11
-0.0404406562447548
 21
0.653674483299255
  0
LINE
  5
49
100
AcDbEntity
  8
SEMA2D
100
AcDbLine
 62
7
  6
_SOLID
370
9
 10
-0.189043655991554
 20
0.653674483299255
 11
-0.189043655991554
 21
0.660674452781677
  0
LINE
  5
4A
100
AcDbEntity
  8
SEMA2D
100
AcDbLine
 62
7
  6
_SOLID
370
9
 10
-0.189043655991554
 20
0.653674483299255
 11
-0.189043655991554
 21
0.646674454212189
  0
LINE
  5
4B
100
AcDbEntity
  8
SEMA2D
100
AcDbLine
 62
7
  6
_SOLID
370
9
 10
-0.189043655991554
 20
0.653674483299255
 11
-0.182981476187706
 21
0.657174468040466
  0
LINE
  5
4C
100
AcDbEntity
  8
SEMA2D
100
AcDbLine
 62
7
  6
_SOLID
370
9
 10
-0.189043655991554
 20
0.653674483299255
 11
-0.195105835795403
 21
0.6501744389534
  0
LINE
  5
4D
100
AcDbEntity
  8
SEMA2D
100
AcDbLine
 62
7
  6
_DOT
370
9
 10
-0.189043655991554
 20
0.603674471378326
 11
-0.189043655991554
 21
0.653674483299255
  0
LINE
  5
4E
100
AcDbEntity
  8
SEMA2D
100
AcDbLine
 62
7
  6
_DOT
370
9
 10
-0.189043655991554
 20
0.603674471378326
 11
-0.189043655991554
 21
0.603674471378326
  0
MTEXT
  5
4F
100
AcDbEntity
  8
SEMATEXT
100
AcDbMText
 62
7
 10
-0.1220927760005
 20
0.658672869205475
 40
0.00800000037997961
 71
7
  1
{\fArial Narrow;149}
  7
STANDARD
 73
2
  0
LINE
  5
50
100
AcDbEntity
  8
SEMA2D
100
AcDbLine
 62
7
  6
_SOLID
370
9
 10
-0.0404406562447548
 20
0.653674483299255
 11
-0.0404406562447548
 21
0.660674452781677
  0
LINE
  5
51
100
AcDbEntity
  8
SEMA2D
100
AcDbLine
 62
7
  6
_SOLID
370
9
 10
-0.0404406562447548
 20
0.653674483299255
 11
-0.0404406562447548
 21
0.646674454212189
  0
LINE
  5
52
100
AcDbEntity
  8
SEMA2D
100
AcDbLine
 62
7
  6
_SOLID
370
9
 10
-0.0404406562447548
 20
0.653674483299255
 11
-0.0343784801661968
 21
0.657174468040466
  0
LINE
  5
53
100
AcDbEntity
  8
SEMA2D
100
AcDbLine
 62
7
  6
_SOLID
370
9
 10
-0.0404406562447548
 20
0.653674483299255
 11
-0.0465028360486031
 21
0.6501744389534
  0
LINE
  5
54
100
AcDbEntity
  8
SEMA2D
100
AcDbLine
 62
7
  6
_DOT
370
9
 10
-0.0404406562447548
 20
0.603674471378326
 11
-0.0404406562447548
 21
0.653674483299255
  0
LINE
  5
55
100
AcDbEntity
  8
SEMA2D
100
AcDbLine
 62
7
  6
_DOT
370
9
 10
-0.0404406562447548
 20
0.603674471378326
 11
-0.0404406562447548
 21
0.603674471378326
  0
LINE
  5
56
100
AcDbEntity
  8
SEMA2D
100
AcDbLine
 62
7
  6
_SOLID
370
9
 10
0.0093329381197691
 20
0.174863457679749
 11
0.0093329381197691
 21
0.603674471378326
  0
LINE
  5
57
100
AcDbEntity
  8
SEMA2D
100
AcDbLine
 62
7
  6
_SOLID
370
9
 10
0.0093329381197691
 20
0.174863457679749
 11
0.00233293790370226
 21
0.174863457679749
  0
LINE
  5
58
100
AcDbEntity
  8
SEMA2D
100
AcDbLine
 62
7
  6
_SOLID
370
9
 10
0.0093329381197691
 20
0.174863457679749
 11
0.0163329374045134
 21
0.174863457679749
  0
LINE
  5
59
100
AcDbEntity
  8
SEMA2D
100
AcDbLine
 62
7
  6
_SOLID
370
9
 10
0.0093329381197691
 20
0.174863457679749
 11
0.00583293801173568
 21
0.180925637483597
  0
LINE
  5
5A
100
AcDbEntity
  8
SEMA2D
100
AcDbLine
 62
7
  6
_SOLID
370
9
 10
0.0093329381197691
 20
0.174863457679749
 11
0.0128329377621412
 21
0.1688012778759
  0
LINE
  5
5B
100
AcDbEntity
  8
SEMA2D
100
AcDbLine
 62
7
  6
_DOT
370
9
 10
-0.0406670607626438
 20
0.174863457679749
 11
0.0093329381197691
 21
0.174863457679749
  0
LINE
  5
5C
100
AcDbEntity
  8
SEMA2D
100
AcDbLine
 62
7
  6
_DOT
370
9
 10
-0.0406670607626438
 20
0.174863457679749
 11
-0.0406670607626438
 21
0.174863457679749
  0
MTEXT
  5
5D
100
AcDbEntity
  8
SEMATEXT
100
AcDbMText
 62
7
 10
0.00433451542630792
 20
0.380693227052689
 40
0.00800000037997961
 50
90
 71
7
  1
{\fArial Narrow;429}
  7
STANDARD
 73
2
  0
LINE
  5
5E
100
AcDbEntity
  8
SEMA2D
100
AcDbLine
 62
7
  6
_SOLID
370
9
 10
0.0093329381197691
 20
0.603674471378326
 11
0.00233293790370226
 21
0.603674471378326
  0
LINE
  5
5F
100
AcDbEntity
  8
SEMA2D
100
AcDbLine
 62
7
  6
_SOLID
370
9
 10
0.0093329381197691
 20
0.603674471378326
 11
0.0163329374045134
 21
0.603674471378326
  0
LINE
  5
60
100
AcDbEntity
  8
SEMA2D
100
AcDbLine
 62
7
  6
_SOLID
370
9
 10
0.0093329381197691
 20
0.603674471378326
 11
0.00583293801173568
 21
0.609736621379852
  0
LINE
  5
61
100
AcDbEntity
  8
SEMA2D
100
AcDbLine
 62
7
  6
_SOLID
370
9
 10
0.0093329381197691
 20
0.603674471378326
 11
0.0128329377621412
 21
0.597612261772156
  0
LINE
  5
62
100
AcDbEntity
  8
SEMA2D
100
AcDbLine
 62
7
  6
_DOT
370
9
 10
-0.0406670607626438
 20
0.603674471378326
 11
0.0093329381197691
 21
0.603674471378326
  0
LINE
  5
63
100
AcDbEntity
  8
SEMA2D
100
AcDbLine
 62
7
  6
_DOT
370
9
 10
-0.0406670607626438
 20
0.603674471378326
 11
-0.0406670607626438
 21
0.603674471378326
  0
LINE
  5
64
100
AcDbEntity
  8
SEMA2D
100
AcDbLine
 62
7
  6
_SOLID
370
9
 10
-0.378454566001892
 20
0.124863460659981
 11
-0.32722806930542
 21
0.124863460659981
  0
LINE
  5
65
100
AcDbEntity
  8
SEMA2D
100
AcDbLine
 62
7
  6
_SOLID
370
9
 10
-0.378454566001892
 20
0.124863460659981
 11
-0.378454566001892
 21
0.131863459944725
  0
LINE
  5
66
100
AcDbEntity
  8
SEMA2D
100
AcDbLine
 62
7
  6
_SOLID
370
9
 10
-0.378454566001892
 20
0.124863460659981
 11
-0.378454566001892
 21
0.117863461375237
  0
LINE
  5
67
100
AcDbEntity
  8
SEMA2D
100
AcDbLine
 62
7
  6
_SOLID
370
9
 10
-0.378454566001892
 20
0.124863460659981
 11
-0.372392386198044
 21
0.128363460302353
  0
LINE
  5
68
100
AcDbEntity
  8
SEMA2D
100
AcDbLine
 62
7
  6
_SOLID
370
9
 10
-0.378454566001892
 20
0.124863460659981
 11
-0.38451674580574
 21
0.121363461017609
  0
LINE
  5
69
100
AcDbEntity
  8
SEMA2D
100
AcDbLine
 62
7
  6
_DOT
370
9
 10
-0.378454566001892
 20
0.174863457679749
 11
-0.378454566001892
 21
0.124863460659981
  0
LINE
  5
6A
100
AcDbEntity
  8
SEMA2D
100
AcDbLine
 62
7
  6
_DOT
370
9
 10
-0.378454566001892
 20
0.174863457679749
 11
-0.378454566001892
 21
0.174863457679749
  0
MTEXT
  5
6B
100
AcDbEntity
  8
SEMATEXT
100
AcDbMText
 62
7
 10
-0.357741713523865
 20
0.129861876368523
 40
0.00800000037997961
 71
7
  1
{\fArial Narrow;51}
  7
STANDARD
 73
2
  0
LINE
  5
6C
100
AcDbEntity
  8
SEMA2D
100
AcDbLine
 62
7
  6
_SOLID
370
9
 10
-0.32722806930542
 20
0.124863460659981
 11
-0.32722806930542
 21
0.131863459944725
  0
LINE
  5
6D
100
AcDbEntity
  8
SEMA2D
100
AcDbLine
 62
7
  6
_SOLID
370
9
 10
-0.32722806930542
 20
0.124863460659981
 11
-0.32722806930542
 21
0.117863461375237
  0
LINE
  5
6E
100
AcDbEntity
  8
SEMA2D
100
AcDbLine
 62
7
  6
_SOLID
370
9
 10
-0.32722806930542
 20
0.124863460659981
 11
-0.321165889501572
 21
0.128363460302353
  0
LINE
  5
6F
100
AcDbEntity
  8
SEMA2D
100
AcDbLine
 62
7
  6
_SOLID
370
9
 10
-0.32722806930542
 20
0.124863460659981
 11
-0.333290249109268
 21
0.121363461017609
  0
LINE
  5
70
100
AcDbEntity
  8
SEMA2D
100
AcDbLine
 62
7
  6
_DOT
370
9
 10
-0.32722806930542
 20
0.174863457679749
 11
-0.32722806930542
 21
0.124863460659981
  0
LINE
  5
71
100
AcDbEntity
  8
SEMA2D
100
AcDbLine
 62
7
  6
_DOT
370
9
 10
-0.32722806930542
 20
0.174863457679749
 11
-0.32722806930542
 21
0.174863457679749
  0
LINE
  5
72
100
AcDbEntity
  8
SEMA2D
100
AcDbLine
 62
7
  6
_SOLID
370
9
 10
-0.14497521519661
 20
0.887276291847229
 11
-0.0404406562447548
 21
0.887276291847229
  0
LINE
  5
73
100
AcDbEntity
  8
SEMA2D
100
AcDbLine
 62
7
  6
_SOLID
370
9
 10
-0.14497521519661
 20
0.887276291847229
 11
-0.14497521519661
 21
0.894276320934296
  0
LINE
  5
74
100
AcDbEntity
  8
SEMA2D
100
AcDbLine
 62
7
  6
_SOLID
370
9
 10
-0.14497521519661
 20
0.887276291847229
 11
-0.14497521519661
 21
0.880276322364807
  0
LINE
  5
75
100
AcDbEntity
  8
SEMA2D
100
AcDbLine
 62
7
  6
_SOLID
370
9
 10
-0.14497521519661
 20
0.887276291847229
 11
-0.138913035392761
 21
0.89077627658844
  0
LINE
  5
76
100
AcDbEntity
  8
SEMA2D
100
AcDbLine
 62
7
  6
_SOLID
370
9
 10
-0.14497521519661
 20
0.887276291847229
 11
-0.151037395000458
 21
0.883776307106018
  0
LINE
  5
77
100
AcDbEntity
  8
SEMA2D
100
AcDbLine
 62
7
  6
_DOT
370
9
 10
-0.14497521519661
 20
0.824276328086853
 11
-0.14497521519661
 21
0.887276291847229
  0
LINE
  5
78
100
AcDbEntity
  8
SEMA2D
100
AcDbLine
 62
7
  6
_DOT
370
9
 10
-0.14497521519661
 20
0.824276328086853
 11
-0.14497521519661
 21
0.824276328086853
  0
MTEXT
  5
79
100
AcDbEntity
  8
SEMATEXT
100
AcDbMText
 62
7
 10
-0.100058555603027
 20
0.892274737358093
 40
0.00800000037997961
 71
7
  1
{\fArial Narrow;105}
  7
STANDARD
 73
2
  0
LINE
  5
7A
100
AcDbEntity
  8
SEMA2D
100
AcDbLine
 62
7
  6
_SOLID
370
9
 10
-0.0404406562447548
 20
0.887276291847229
 11
-0.0404406562447548
 21
0.894276320934296
  0
LINE
  5
7B
100
AcDbEntity
  8
SEMA2D
100
AcDbLine
 62
7
  6
_SOLID
370
9
 10
-0.0404406562447548
 20
0.887276291847229
 11
-0.0404406562447548
 21
0.880276322364807
  0
LINE
  5
7C
100
AcDbEntity
  8
SEMA2D
100
AcDbLine
 62
7
  6
_SOLID
370
9
 10
-0.0404406562447548
 20
0.887276291847229
 11
-0.0343784801661968
 21
0.89077627658844
  0
LINE
  5
7D
100
AcDbEntity
  8
SEMA2D
100
AcDbLine
 62
7
  6
_SOLID
370
9
 10
-0.0404406562447548
 20
0.887276291847229
 11
-0.0465028360486031
 21
0.883776307106018
  0
LINE
  5
7E
100
AcDbEntity
  8
SEMA2D
100
AcDbLine
 62
7
  6
_DOT
370
9
 10
-0.0404406562447548
 20
0.824276328086853
 11
-0.0404406562447548
 21
0.887276291847229
  0
LINE
  5
7F
100
AcDbEntity
  8
SEMA2D
100
AcDbLine
 62
7
  6
_DOT
370
9
 10
-0.0404406562447548
 20
0.824276328086853
 11
-0.0404406562447548
 21
0.824276328086853
  0
LINE
  5
80
100
AcDbEntity
  8
SEMA2D
100
AcDbLine
 62
7
  6
_SOLID
370
9
 10
-0.348386317491531
 20
0.602004826068878
 11
-0.349841564893723
 21
0.602289974689484
  0
LINE
  5
81
100
AcDbEntity
  8
SEMA2D
100
AcDbLine
 62
7
  6
_SOLID
370
9
 10
-0.344046652317047
 20
0.601475536823273
 11
-0.349841564893723
 21
0.602289974689484
  0
LINE
  5
82
100
AcDbEntity
  8
SEMA2D
100
AcDbLine
 62
7
  6
_SOLID
370
9
 10
-0.343380570411682
 20
0.599647521972656
 11
-0.345688045024872
 21
0.599971771240234
  0
LINE
  5
83
100
AcDbEntity
  8
SEMA2D
100
AcDbLine
 62
7
  6
_SOLID
370
9
 10
-0.374917954206467
 20
0.592054069042206
 11
-0.382530361413956
 21
0.593672156333923
  0
LINE
  5
84
100
AcDbEntity
  8
SEMA2D
100
AcDbLine
 62
7
  6
_SOLID
370
9
 10
-0.374854683876038
 20
0.593859732151032
 11
-0.376929104328156
 21
0.59430068731308
  0
LINE
  5
85
100
AcDbEntity
  8
SEMA2D
100
AcDbLine
 62
7
  6
_SOLID
370
9
 10
-0.37899523973465
 20
0.594530522823334
 11
-0.379396110773087
 21
0.594615757465363
  0
LINE
  5
86
100
AcDbEntity
  8
SEMA2D
100
AcDbLine
 62
7
  6
_SOLID
370
9
 10
-0.348200142383575
 20
0.599724352359772
 11
-0.366455554962158
 21
0.602289974689484
  0
LINE
  5
87
100
AcDbEntity
  8
SEMA2D
100
AcDbLine
 62
7
  6
_SOLID
370
9
 10
-0.379916936159134
 20
0.593554615974426
 11
-0.382339507341385
 21
0.593809187412262
  0
LINE
  5
88
100
AcDbEntity
  8
SEMA2D
100
AcDbLine
 62
7
  6
_SOLID
370
9
 10
-0.349841564893723
 20
0.603674471378326
 11
-0.370147556066513
 21
0.603674471378326
  0
LINE
  5
89
100
AcDbEntity
  8
SEMA2D
100
AcDbLine
 62
7
  6
_SOLID
370
9
 10
-0.349841564893723
 20
0.602289974689484
 11
-0.366455554962158
 21
0.602289974689484
  0
LINE
  5
8A
100
AcDbEntity
  8
SEMA2D
100
AcDbLine
 62
7
  6
_SOLID
370
9
 10
-0.381029278039932
 20
0.595390498638153
 11
-0.383451879024506
 21
0.595645129680634
  0
LINE
  5
8B
100
AcDbEntity
  8
SEMA2D
100
AcDbLine
 62
7
  6
_SOLID
370
9
 10
-0.348200142383575
 20
0.59789627790451
 11
-0.360251486301422
 21
0.599590003490448
  0
LINE
  5
8C
100
AcDbEntity
  8
SEMA2D
100
AcDbLine
 62
7
  6
_SOLID
370
9
 10
-0.366455554962158
 20
0.602289974689484
 11
-0.348412454128265
 21
0.6000115275383
  0
LINE
  5
8D
100
AcDbEntity
  8
SEMA2D
100
AcDbLine
 62
7
  6
_SOLID
370
9
 10
-0.340268403291702
 20
0.588482856750488
 11
-0.328373670578003
 21
0.585295677185059
  0
LINE
  5
8E
100
AcDbEntity
  8
SEMA2D
100
AcDbLine
 62
7
  6
_SOLID
370
9
 10
-0.327450662851334
 20
0.587723016738892
 11
-0.345242828130722
 21
0.592490434646606
  0
LINE
  5
8F
100
AcDbEntity
  8
SEMA2D
100
AcDbLine
 62
7
  6
_SOLID
370
9
 10
-0.343967199325562
 20
0.59039843082428
 11
-0.348200142383575
 21
0.591532647609711
  0
LINE
  5
90
100
AcDbEntity
  8
SEMA2D
100
AcDbLine
 62
7
  6
_SOLID
370
9
 10
-0.327689558267593
 20
0.585558176040649
 11
-0.327450662851334
 21
0.585494160652161
  0
LINE
  5
91
100
AcDbEntity
  8
SEMA2D
100
AcDbLine
 62
7
  6
_SOLID
370
9
 10
-0.343380570411682
 20
0.593655228614807
 11
-0.345688045024872
 21
0.594273507595062
  0
LINE
  5
92
100
AcDbEntity
  8
SEMA2D
100
AcDbLine
 62
7
  6
_SOLID
370
9
 10
-0.361840546131134
 20
0.599847257137299
 11
-0.363350182771683
 21
0.599847257137299
  0
LINE
  5
93
100
AcDbEntity
  8
SEMA2D
100
AcDbLine
 62
7
  6
_SOLID
370
9
 10
-0.343967199325562
 20
0.571316182613373
 11
-0.341867595911026
 21
0.570753574371338
  0
LINE
  5
94
100
AcDbEntity
  8
SEMA2D
100
AcDbLine
 62
7
  6
_SOLID
370
9
 10
-0.370147556066513
 20
0.58290696144104
 11
-0.370468109846115
 21
0.582850456237793
  0
LINE
  5
95
100
AcDbEntity
  8
SEMA2D
100
AcDbLine
 62
7
  6
_SOLID
370
9
 10
-0.340268403291702
 20
0.579707205295563
 11
-0.342457562685013
 21
0.579707205295563
  0
LINE
  5
96
100
AcDbEntity
  8
SEMA2D
100
AcDbLine
 62
7
  6
_SOLID
370
9
 10
-0.382403463125229
 20
0.601490497589111
 11
-0.370147556066513
 21
0.603212952613831
  0
LINE
  5
97
100
AcDbEntity
  8
SEMA2D
100
AcDbLine
 62
7
  6
_SOLID
370
9
 10
-0.383451879024506
 20
0.599662482738495
 11
-0.37899523973465
 21
0.600288808345795
  0
LINE
  5
98
100
AcDbEntity
  8
SEMA2D
100
AcDbLine
 62
7
  6
_SOLID
370
9
 10
-0.327450662851334
 20
0.584607064723969
 11
-0.327689558267593
 21
0.58454304933548
  0
LINE
  5
99
100
AcDbEntity
  8
SEMA2D
100
AcDbLine
 62
7
  6
_SOLID
370
9
 10
-0.328373670578003
 20
0.582894384860992
 11
-0.340268403291702
 21
0.579707205295563
  0
LINE
  5
9A
100
AcDbEntity
  8
SEMA2D
100
AcDbLine
 62
7
  6
_SOLID
370
9
 10
-0.327450662851334
 20
0.582378149032593
 11
-0.327689558267593
 21
0.582314133644104
  0
LINE
  5
9B
100
AcDbEntity
  8
SEMA2D
100
AcDbLine
 62
7
  6
_SOLID
370
9
 10
-0.379072844982147
 20
0.569667875766754
 11
-0.381989777088165
 21
0.569153547286987
  0
LINE
  5
9C
100
AcDbEntity
  8
SEMA2D
100
AcDbLine
 62
7
  6
_SOLID
370
9
 10
-0.358417361974716
 20
0.58085423707962
 11
-0.366455554962158
 21
0.581983983516693
  0
LINE
  5
9D
100
AcDbEntity
  8
SEMA2D
100
AcDbLine
 62
7
  6
_SOLID
370
9
 10
-0.34107306599617
 20
0.570753574371338
 11
-0.341867595911026
 21
0.570753574371338
  0
LINE
  5
9E
100
AcDbEntity
  8
SEMA2D
100
AcDbLine
 62
7
  6
_SOLID
370
9
 10
-0.381082624197006
 20
0.570906043052673
 11
-0.37504443526268
 21
0.571970760822296
  0
LINE
  5
9F
100
AcDbEntity
  8
SEMA2D
100
AcDbLine
 62
7
  6
_SOLID
370
9
 10
-0.328373670578003
 20
0.582894384860992
 11
-0.327689558267593
 21
0.582894384860992
  0
LINE
  5
A0
100
AcDbEntity
  8
SEMA2D
100
AcDbLine
 62
7
  6
_SOLID
370
9
 10
-0.383451879024506
 20
0.595645129680634
 11
-0.383992552757263
 21
0.595645129680634
  0
LINE
  5
A1
100
AcDbEntity
  8
SEMA2D
100
AcDbLine
 62
7
  6
_SOLID
370
9
 10
-0.346611052751541
 20
0.594273507595062
 11
-0.345688045024872
 21
0.594273507595062
  0
LINE
  5
A2
100
AcDbEntity
  8
SEMA2D
100
AcDbLine
 62
7
  6
_SOLID
370
9
 10
-0.342457562685013
 20
0.593655228614807
 11
-0.343380570411682
 21
0.593655228614807
  0
LINE
  5
A3
100
AcDbEntity
  8
SEMA2D
100
AcDbLine
 62
7
  6
_SOLID
370
9
 10
-0.346611052751541
 20
0.59789627790451
 11
-0.348200142383575
 21
0.59789627790451
  0
LINE
  5
A4
100
AcDbEntity
  8
SEMA2D
100
AcDbLine
 62
7
  6
_SOLID
370
9
 10
-0.383992552757263
 20
0.599662482738495
 11
-0.383451879024506
 21
0.599662482738495
  0
LINE
  5
A5
100
AcDbEntity
  8
SEMA2D
100
AcDbLine
 62
7
  6
_SOLID
370
9
 10
-0.342457562685013
 20
0.599647521972656
 11
-0.343380570411682
 21
0.599647521972656
  0
LINE
  5
A6
100
AcDbEntity
  8
SEMA2D
100
AcDbLine
 62
7
  6
_SOLID
370
9
 10
-0.360251486301422
 20
0.599590003490448
 11
-0.361840546131134
 21
0.599590003490448
  0
LINE
  5
A7
100
AcDbEntity
  8
SEMA2D
100
AcDbLine
 62
7
  6
_SOLID
370
9
 10
-0.342457562685013
 20
0.59039843082428
 11
-0.343967199325562
 21
0.59039843082428
  0
LINE
  5
A8
100
AcDbEntity
  8
SEMA2D
100
AcDbLine
 62
7
  6
_SOLID
370
9
 10
-0.328373670578003
 20
0.585295677185059
 11
-0.327689558267593
 21
0.585295677185059
  0
LINE
  5
A9
100
AcDbEntity
  8
SEMA2D
100
AcDbLine
 62
7
  6
_SOLID
370
9
 10
-0.327450662851334
 20
0.584607064723969
 11
-0.326766550540924
 21
0.584607064723969
  0
LINE
  5
AA
100
AcDbEntity
  8
SEMA2D
100
AcDbLine
 62
7
  6
_SOLID
370
9
 10
-0.370147556066513
 20
0.583368480205536
 11
-0.366455554962158
 21
0.583368480205536
  0
LINE
  5
AB
100
AcDbEntity
  8
SEMA2D
100
AcDbLine
 62
7
  6
_SOLID
370
9
 10
-0.327450662851334
 20
0.585494160652161
 11
-0.326766550540924
 21
0.585494160652161
  0
LINE
  5
AC
100
AcDbEntity
  8
SEMA2D
100
AcDbLine
 62
7
  6
_SOLID
370
9
 10
-0.340268403291702
 20
0.588482856750488
 11
-0.342457562685013
 21
0.588482856750488
  0
LINE
  5
AD
100
AcDbEntity
  8
SEMA2D
100
AcDbLine
 62
7
  6
_SOLID
370
9
 10
-0.371993571519852
 20
0.588442742824554
 11
-0.370468109846115
 21
0.588442742824554
  0
LINE
  5
AE
100
AcDbEntity
  8
SEMA2D
100
AcDbLine
 62
7
  6
_SOLID
370
9
 10
-0.371993571519852
 20
0.586598932743073
 11
-0.361840546131134
 21
0.586598932743073
  0
LINE
  5
AF
100
AcDbEntity
  8
SEMA2D
100
AcDbLine
 62
7
  6
_SOLID
370
9
 10
-0.328373670578003
 20
0.580219745635986
 11
-0.340345233678818
 21
0.577011942863464
  0
LINE
  5
B0
100
AcDbEntity
  8
SEMA2D
100
AcDbLine
 62
7
  6
_SOLID
370
9
 10
-0.346149563789368
 20
0.175324961543083
 11
-0.346941113471985
 21
0.176057353615761
  0
LINE
  5
B1
100
AcDbEntity
  8
SEMA2D
100
AcDbLine
 62
7
  6
_SOLID
370
9
 10
-0.343842059373856
 20
0.271488398313522
 11
-0.345351696014404
 21
0.271488398313522
  0
LINE
  5
B2
100
AcDbEntity
  8
SEMA2D
100
AcDbLine
 62
7
  6
_SOLID
370
9
 10
-0.342457562685013
 20
0.268606334924698
 11
-0.343967199325562
 21
0.268606334924698
  0
LINE
  5
B3
100
AcDbEntity
  8
SEMA2D
100
AcDbLine
 62
7
  6
_SOLID
370
9
 10
-0.340677410364151
 20
0.177346646785736
 11
-0.356537461280823
 21
0.187477841973305
  0
LINE
  5
B4
100
AcDbEntity
  8
SEMA2D
100
AcDbLine
 62
7
  6
_SOLID
370
9
 10
-0.342264860868454
 20
0.208505049347878
 11
-0.343967199325562
 21
0.208961188793182
  0
LINE
  5
B5
100
AcDbEntity
  8
SEMA2D
100
AcDbLine
 62
7
  6
_SOLID
370
9
 10
-0.37907287478447
 20
0.567528426647186
 11
-0.379072844982147
 21
0.569667875766754
  0
LINE
  5
B6
100
AcDbEntity
  8
SEMA2D
100
AcDbLine
 62
7
  6
_SOLID
370
9
 10
-0.381989777088165
 20
0.568047404289246
 11
-0.381989777088165
 21
0.569153547286987
  0
LINE
  5
B7
100
AcDbEntity
  8
SEMA2D
100
AcDbLine
 62
7
  6
_SOLID
370
9
 10
-0.38260805606842
 20
0.568112790584564
 11
-0.38260805606842
 21
0.569088101387024
  0
LINE
  5
B8
100
AcDbEntity
  8
SEMA2D
100
AcDbLine
 62
7
  6
_SOLID
370
9
 10
-0.37899523973465
 20
0.594530522823334
 11
-0.37899523973465
 21
0.600288808345795
  0
LINE
  5
B9
100
AcDbEntity
  8
SEMA2D
100
AcDbLine
 62
7
  6
_SOLID
370
9
 10
-0.376992374658585
 20
0.201157912611961
 11
-0.376992374658585
 21
0.569823682308197
  0
LINE
  5
BA
100
AcDbEntity
  8
SEMA2D
100
AcDbLine
 62
7
  6
_SOLID
370
9
 10
-0.378454566001892
 20
0.59430068731308
 11
-0.378454566001892
 21
0.600440800189972
  0
LINE
  5
BB
100
AcDbEntity
  8
SEMA2D
100
AcDbLine
 62
7
  6
_SOLID
370
9
 10
-0.378454566001892
 20
0.201157912611961
 11
-0.378454566001892
 21
0.569820463657379
  0
LINE
  5
BC
100
AcDbEntity
  8
SEMA2D
100
AcDbLine
 62
7
  6
_SOLID
370
9
 10
-0.383451879024506
 20
0.595645129680634
 11
-0.383451879024506
 21
0.599662482738495
  0
LINE
  5
BD
100
AcDbEntity
  8
SEMA2D
100
AcDbLine
 62
7
  6
_SOLID
370
9
 10
-0.328194737434387
 20
0.184865057468414
 11
-0.32929539680481
 21
0.186176776885986
  0
LINE
  5
BE
100
AcDbEntity
  8
SEMA2D
100
AcDbLine
 62
7
  6
_SOLID
370
9
 10
-0.342457562685013
 20
0.286181598901749
 11
-0.343967199325562
 21
0.286181598901749
  0
LINE
  5
BF
100
AcDbEntity
  8
SEMA2D
100
AcDbLine
 62
7
  6
_SOLID
370
9
 10
-0.343842059373856
 20
0.283299535512924
 11
-0.345351696014404
 21
0.283299535512924
  0
LINE
  5
C0
100
AcDbEntity
  8
SEMA2D
100
AcDbLine
 62
7
  6
_SOLID
370
9
 10
-0.327875882387161
 20
0.18486550450325
 11
-0.32897761464119
 21
0.186178505420685
  0
LINE
  5
C1
100
AcDbEntity
  8
SEMA2D
100
AcDbLine
 62
7
  6
_SOLID
370
9
 10
-0.383992552757263
 20
0.595477759838104
 11
-0.383992552757263
 21
0.599662482738495
  0
LINE
  5
C2
100
AcDbEntity
  8
SEMA2D
100
AcDbLine
 62
7
  6
_SOLID
370
9
 10
-0.336808741092682
 20
0.186845004558563
 11
-0.336959183216095
 21
0.186900541186333
  0
LINE
  5
C3
100
AcDbEntity
  8
SEMA2D
100
AcDbLine
 62
7
  6
_SOLID
370
9
 10
-0.336959183216095
 20
0.186900541186333
 11
-0.337125897407532
 21
0.186950877308846
  0
LINE
  5
C4
100
AcDbEntity
  8
SEMA2D
100
AcDbLine
 62
7
  6
_SOLID
370
9
 10
-0.353533565998077
 20
0.174863457679749
 11
-0.342457562685013
 21
0.174863457679749
  0
LINE
  5
C5
100
AcDbEntity
  8
SEMA2D
100
AcDbLine
 62
7
  6
_SOLID
370
9
 10
-0.328194737434387
 20
0.184865057468414
 11
-0.327875882387161
 21
0.18486550450325
  0
LINE
  5
C6
100
AcDbEntity
  8
SEMA2D
100
AcDbLine
 62
7
  6
_SOLID
370
9
 10
-0.32929539680481
 20
0.186176776885986
 11
-0.32897761464119
 21
0.186178505420685
  0
LINE
  5
C7
100
AcDbEntity
  8
SEMA2D
100
AcDbLine
 62
7
  6
_SOLID
370
9
 10
-0.353533565998077
 20
0.175324961543083
 11
-0.346149563789368
 21
0.175324961543083
  0
LINE
  5
C8
100
AcDbEntity
  8
SEMA2D
100
AcDbLine
 62
7
  6
_SOLID
370
9
 10
-0.346593677997589
 20
0.176353439688683
 11
-0.358298778533936
 21
0.17841736972332
  0
LINE
  5
C9
100
AcDbEntity
  8
SEMA2D
100
AcDbLine
 62
7
  6
_SOLID
370
9
 10
-0.346149563789368
 20
0.175324961543083
 11
-0.358623772859573
 21
0.177524492144585
  0
LINE
  5
CA
100
AcDbEntity
  8
SEMA2D
100
AcDbLine
 62
7
  6
_SOLID
370
9
 10
-0.327549517154694
 20
0.183086931705475
 11
-0.32722806930542
 21
0.18308562040329
  0
LINE
  5
CB
100
AcDbEntity
  8
SEMA2D
100
AcDbLine
 62
7
  6
_SOLID
370
9
 10
-0.342457562685013
 20
0.176247954368591
 11
-0.328753501176834
 21
0.178664356470108
  0
LINE
  5
CC
100
AcDbEntity
  8
SEMA2D
100
AcDbLine
 62
7
  6
_SOLID
370
9
 10
-0.366455554962158
 20
0.185905516147614
 11
-0.342457562685013
 21
0.177170962095261
  0
LINE
  5
CD
100
AcDbEntity
  8
SEMA2D
100
AcDbLine
 62
7
  6
_SOLID
370
9
 10
-0.366455554962158
 20
0.185341417789459
 11
-0.342457562685013
 21
0.176606848835945
  0
LINE
  5
CE
100
AcDbEntity
  8
SEMA2D
100
AcDbLine
 62
7
  6
_SOLID
370
9
 10
-0.346149563789368
 20
0.176362231373787
 11
-0.370147556066513
 21
0.18509678542614
  0
LINE
  5
CF
100
AcDbEntity
  8
SEMA2D
100
AcDbLine
 62
7
  6
_SOLID
370
9
 10
-0.337120771408081
 20
0.18694956600666
 11
-0.353804975748062
 21
0.191420018672943
  0
LINE
  5
D0
100
AcDbEntity
  8
SEMA2D
100
AcDbLine
 62
7
  6
_SOLID
370
9
 10
-0.342264860868454
 20
0.208505049347878
 11
-0.34107306599617
 21
0.208505049347878
  0
LINE
  5
D1
100
AcDbEntity
  8
SEMA2D
100
AcDbLine
 62
7
  6
_SOLID
370
9
 10
-0.358593791723251
 20
0.203014954924583
 11
-0.366455554962158
 21
0.203014954924583
  0
LINE
  5
D2
100
AcDbEntity
  8
SEMA2D
100
AcDbLine
 62
7
  6
_SOLID
370
9
 10
-0.366455554962158
 20
0.187225252389908
 11
-0.370147556066513
 21
0.187225252389908
  0
LINE
  5
D3
100
AcDbEntity
  8
SEMA2D
100
AcDbLine
 62
7
  6
_SOLID
370
9
 10
-0.376992374658585
 20
0.201157912611961
 11
-0.370147556066513
 21
0.201157912611961
  0
LINE
  5
D4
100
AcDbEntity
  8
SEMA2D
100
AcDbLine
 62
7
  6
_SOLID
370
9
 10
-0.330850303173065
 20
0.187371537089348
 11
-0.34107306599617
 21
0.190110713243485
  0
LINE
  5
D5
100
AcDbEntity
  8
SEMA2D
100
AcDbLine
 62
7
  6
_SOLID
370
9
 10
-0.342264860868454
 20
0.190170139074326
 11
-0.356860309839249
 21
0.194080978631973
  0
LINE
  5
D6
100
AcDbEntity
  8
SEMA2D
100
AcDbLine
 62
7
  6
_SOLID
370
9
 10
-0.376929104328156
 20
0.59430068731308
 11
-0.376929104328156
 21
0.600440800189972
  0
LINE
  5
D7
100
AcDbEntity
  8
SEMA2D
100
AcDbLine
 62
7
  6
_SOLID
370
9
 10
-0.34107306599617
 20
0.571674764156342
 11
-0.34107306599617
 21
0.558389484882355
  0
LINE
  5
D8
100
AcDbEntity
  8
SEMA2D
100
AcDbLine
 62
7
  6
_SOLID
370
9
 10
-0.341867595911026
 20
0.570753574371338
 11
-0.341867595911026
 21
0.559304058551788
  0
LINE
  5
D9
100
AcDbEntity
  8
SEMA2D
100
AcDbLine
 62
7
  6
_SOLID
370
9
 10
-0.342264860868454
 20
0.190170139074326
 11
-0.342264860868454
 21
0.208505049347878
  0
LINE
  5
DA
100
AcDbEntity
  8
SEMA2D
100
AcDbLine
 62
7
  6
_SOLID
370
9
 10
-0.34107306599617
 20
0.189425006508827
 11
-0.34107306599617
 21
0.209384828805923
  0
LINE
  5
DB
100
AcDbEntity
  8
SEMA2D
100
AcDbLine
 62
7
  6
_SOLID
370
9
 10
-0.335073560476303
 20
0.184276223182678
 11
-0.335073560476303
 21
0.179098933935165
  0
LINE
  5
DC
100
AcDbEntity
  8
SEMA2D
100
AcDbLine
 62
7
  6
_SOLID
370
9
 10
-0.340268403291702
 20
0.579707205295563
 11
-0.340268403291702
 21
0.588482856750488
  0
LINE
  5
DD
100
AcDbEntity
  8
SEMA2D
100
AcDbLine
 62
7
  6
_SOLID
370
9
 10
-0.342457562685013
 20
0.211501121520996
 11
-0.342457562685013
 21
0.556013464927673
  0
LINE
  5
DE
100
AcDbEntity
  8
SEMA2D
100
AcDbLine
 62
7
  6
_SOLID
370
9
 10
-0.342457562685013
 20
0.177170962095261
 11
-0.342457562685013
 21
0.174863457679749
  0
LINE
  5
DF
100
AcDbEntity
  8
SEMA2D
100
AcDbLine
 62
7
  6
_SOLID
370
9
 10
-0.342457562685013
 20
0.59039843082428
 11
-0.342457562685013
 21
0.574051856994629
  0
LINE
  5
E0
100
AcDbEntity
  8
SEMA2D
100
AcDbLine
 62
7
  6
_SOLID
370
9
 10
-0.328373670578003
 20
0.582894384860992
 11
-0.328373670578003
 21
0.585295677185059
  0
LINE
  5
E1
100
AcDbEntity
  8
SEMA2D
100
AcDbLine
 62
7
  6
_SOLID
370
9
 10
-0.34107306599617
 20
0.559304058551788
 11
-0.341867595911026
 21
0.559304058551788
  0
LINE
  5
E2
100
AcDbEntity
  8
SEMA2D
100
AcDbLine
 62
7
  6
_SOLID
370
9
 10
-0.341867595911026
 20
0.559304058551788
 11
-0.343967199325562
 21
0.558933854103088
  0
LINE
  5
E3
100
AcDbEntity
  8
SEMA2D
100
AcDbLine
 62
7
  6
_SOLID
370
9
 10
-0.342457562685013
 20
0.480011582374573
 11
-0.343967199325562
 21
0.480011582374573
  0
LINE
  5
E4
100
AcDbEntity
  8
SEMA2D
100
AcDbLine
 62
7
  6
_SOLID
370
9
 10
-0.378454566001892
 20
0.565831482410431
 11
-0.381082624197006
 21
0.566294848918915
  0
LINE
  5
E5
100
AcDbEntity
  8
SEMA2D
100
AcDbLine
 62
7
  6
_SOLID
370
9
 10
-0.366455554962158
 20
0.602289974689484
 11
-0.363350182771683
 21
0.599847257137299
  0
LINE
  5
E6
100
AcDbEntity
  8
SEMA2D
100
AcDbLine
 62
7
  6
_SOLID
370
9
 10
-0.379202038049698
 20
0.567555844783783
 11
-0.381989777088165
 21
0.568047404289246
  0
LINE
  5
E7
100
AcDbEntity
  8
SEMA2D
100
AcDbLine
 62
7
  6
_SOLID
370
9
 10
-0.343842059373856
 20
0.477129518985748
 11
-0.345351696014404
 21
0.477129518985748
  0
LINE
  5
E8
100
AcDbEntity
  8
SEMA2D
100
AcDbLine
 62
7
  6
_SOLID
370
9
 10
-0.32722806930542
 20
0.18308562040329
 11
-0.32722806930542
 21
0.180482313036919
  0
LINE
  5
E9
100
AcDbEntity
  8
SEMA2D
100
AcDbLine
 62
7
  6
_SOLID
370
9
 10
-0.327450662851334
 20
0.584607064723969
 11
-0.327450662851334
 21
0.585494160652161
  0
LINE
  5
EA
100
AcDbEntity
  8
SEMA2D
100
AcDbLine
 62
7
  6
_SOLID
370
9
 10
-0.327689558267593
 20
0.581111252307892
 11
-0.327689558267593
 21
0.587078809738159
  0
LINE
  5
EB
100
AcDbEntity
  8
SEMA2D
100
AcDbLine
 62
7
  6
_SOLID
370
9
 10
-0.326766550540924
 20
0.583269715309143
 11
-0.326766550540924
 21
0.586831450462341
  0
LINE
  5
EC
100
AcDbEntity
  8
SEMA2D
100
AcDbLine
 62
7
  6
_SOLID
370
9
 10
-0.343842059373856
 20
0.465318381786346
 11
-0.345351696014404
 21
0.465318381786346
  0
LINE
  5
ED
100
AcDbEntity
  8
SEMA2D
100
AcDbLine
 62
7
  6
_SOLID
370
9
 10
-0.342457562685013
 20
0.462436318397522
 11
-0.343967199325562
 21
0.462436318397522
  0
LINE
  5
EE
100
AcDbEntity
  8
SEMA2D
100
AcDbLine
 62
7
  6
_SOLID
370
9
 10
-0.358298778533936
 20
0.17841736972332
 11
-0.357538104057312
 21
0.180507317185402
  0
LINE
  5
EF
100
AcDbEntity
  8
SEMA2D
100
AcDbLine
 62
7
  6
_SOLID
370
9
 10
-0.342457562685013
 20
0.599647521972656
 11
-0.342457562685013
 21
0.591744124889374
  0
LINE
  5
F0
100
AcDbEntity
  8
SEMA2D
100
AcDbLine
 62
7
  6
_SOLID
370
9
 10
-0.358593791723251
 20
0.579085409641266
 11
-0.358593791723251
 21
0.203014954924583
  0
LINE
  5
F1
100
AcDbEntity
  8
SEMA2D
100
AcDbLine
 62
7
  6
_SOLID
370
9
 10
-0.360251486301422
 20
0.599590003490448
 11
-0.360251486301422
 21
0.581112027168274
  0
LINE
  5
F2
100
AcDbEntity
  8
SEMA2D
100
AcDbLine
 62
7
  6
_SOLID
370
9
 10
-0.361840546131134
 20
0.600116908550262
 11
-0.361840546131134
 21
0.582313179969788
  0
LINE
  5
F3
100
AcDbEntity
  8
SEMA2D
100
AcDbLine
 62
7
  6
_SOLID
370
9
 10
-0.357225567102432
 20
0.579483211040497
 11
-0.357225567102432
 21
0.195877835154533
  0
LINE
  5
F4
100
AcDbEntity
  8
SEMA2D
100
AcDbLine
 62
7
  6
_SOLID
370
9
 10
-0.349841564893723
 20
0.603674471378326
 11
-0.349841564893723
 21
0.602289974689484
  0
LINE
  5
F5
100
AcDbEntity
  8
SEMA2D
100
AcDbLine
 62
7
  6
_SOLID
370
9
 10
-0.353533565998077
 20
0.175324961543083
 11
-0.353533565998077
 21
0.174863457679749
  0
LINE
  5
F6
100
AcDbEntity
  8
SEMA2D
100
AcDbLine
 62
7
  6
_SOLID
370
9
 10
-0.363350182771683
 20
0.581547498703003
 11
-0.363350182771683
 21
0.599847257137299
  0
LINE
  5
F7
100
AcDbEntity
  8
SEMA2D
100
AcDbLine
 62
7
  6
_SOLID
370
9
 10
-0.370468109846115
 20
0.582850456237793
 11
-0.370468109846115
 21
0.588442742824554
  0
LINE
  5
F8
100
AcDbEntity
  8
SEMA2D
100
AcDbLine
 62
7
  6
_SOLID
370
9
 10
-0.370531350374222
 20
0.575609982013702
 11
-0.370531350374222
 21
0.582672357559204
  0
LINE
  5
F9
100
AcDbEntity
  8
SEMA2D
100
AcDbLine
 62
7
  6
_SOLID
370
9
 10
-0.371993571519852
 20
0.575606644153595
 11
-0.371993571519852
 21
0.588442742824554
  0
LINE
  5
FA
100
AcDbEntity
  8
SEMA2D
100
AcDbLine
 62
7
  6
_SOLID
370
9
 10
-0.370147556066513
 20
0.18509678542614
 11
-0.370147556066513
 21
0.603674471378326
  0
LINE
  5
FB
100
AcDbEntity
  8
SEMA2D
100
AcDbLine
 62
7
  6
_SOLID
370
9
 10
-0.366455554962158
 20
0.185341417789459
 11
-0.366455554962158
 21
0.603674471378326
  0
LINE
  5
FC
100
AcDbEntity
  8
SEMA2D
100
AcDbLine
 62
7
  6
_SOLID
370
9
 10
-0.357187628746033
 20
0.191830530762672
 11
-0.35717985033989
 21
0.189539343118668
  0
LINE
  5
FD
100
AcDbEntity
  8
SEMA2D
100
AcDbLine
 62
7
  6
_SOLID
370
9
 10
-0.357175678014755
 20
0.188377141952515
 11
-0.35717847943306
 21
0.189150974154472
  0
LINE
  5
FE
100
AcDbEntity
  8
SEMA2D
100
AcDbLine
 62
7
  6
_SOLID
370
9
 10
-0.348412454128265
 20
0.601944804191589
 11
-0.348412454128265
 21
0.6000115275383
  0
LINE
  5
FF
100
AcDbEntity
  8
SEMA2D
100
AcDbLine
 62
7
  6
_SOLID
370
9
 10
-0.343842059373856
 20
0.477129518985748
 11
-0.343842059373856
 21
0.465318381786346
  0
LINE
  5
100
100
AcDbEntity
  8
SEMA2D
100
AcDbLine
 62
7
  6
_SOLID
370
9
 10
-0.343967199325562
 20
0.571316182613373
 11
-0.343967199325562
 21
0.59039843082428
  0
LINE
  5
101
100
AcDbEntity
  8
SEMA2D
100
AcDbLine
 62
7
  6
_SOLID
370
9
 10
-0.343967199325562
 20
0.480011582374573
 11
-0.343967199325562
 21
0.558933854103088
  0
LINE
  5
102
100
AcDbEntity
  8
SEMA2D
100
AcDbLine
 62
7
  6
_SOLID
370
9
 10
-0.343842059373856
 20
0.283299535512924
 11
-0.343842059373856
 21
0.271488398313522
  0
LINE
  5
103
100
AcDbEntity
  8
SEMA2D
100
AcDbLine
 62
7
  6
_SOLID
370
9
 10
-0.343380570411682
 20
0.599647521972656
 11
-0.343380570411682
 21
0.593655228614807
  0
LINE
  5
104
100
AcDbEntity
  8
SEMA2D
100
AcDbLine
 62
7
  6
_SOLID
370
9
 10
-0.343825787305832
 20
0.465075463056564
 11
-0.343825787305832
 21
0.47737243771553
  0
LINE
  5
105
100
AcDbEntity
  8
SEMA2D
100
AcDbLine
 62
7
  6
_SOLID
370
9
 10
-0.343825787305832
 20
0.283542454242706
 11
-0.343825787305832
 21
0.27124547958374
  0
LINE
  5
106
100
AcDbEntity
  8
SEMA2D
100
AcDbLine
 62
7
  6
_SOLID
370
9
 10
-0.343967199325562
 20
0.268606334924698
 11
-0.343967199325562
 21
0.208961188793182
  0
LINE
  5
107
100
AcDbEntity
  8
SEMA2D
100
AcDbLine
 62
7
  6
_SOLID
370
9
 10
-0.346149563789368
 20
0.174863457679749
 11
-0.346149563789368
 21
0.176362231373787
  0
LINE
  5
108
100
AcDbEntity
  8
SEMA2D
100
AcDbLine
 62
7
  6
_SOLID
370
9
 10
-0.346611052751541
 20
0.594261229038238
 11
-0.346611052751541
 21
0.600116789340973
  0
LINE
  5
109
100
AcDbEntity
  8
SEMA2D
100
AcDbLine
 62
7
  6
_SOLID
370
9
 10
-0.348200142383575
 20
0.591532647609711
 11
-0.348200142383575
 21
0.59789627790451
  0
LINE
  5
10A
100
AcDbEntity
  8
SEMA2D
100
AcDbLine
 62
7
  6
_SOLID
370
9
 10
-0.345688045024872
 20
0.599971771240234
 11
-0.345688045024872
 21
0.594273507595062
  0
LINE
  5
10B
100
AcDbEntity
  8
SEMA2D
100
AcDbLine
 62
7
  6
_SOLID
370
9
 10
-0.343967199325562
 20
0.462436318397522
 11
-0.343967199325562
 21
0.286181598901749
  0
LINE
  5
10C
100
AcDbEntity
  8
SEMA2D
100
AcDbLine
 62
7
  6
_SOLID
370
9
 10
-0.345351696014404
 20
0.283299535512924
 11
-0.345351696014404
 21
0.271488398313522
  0
LINE
  5
10D
100
AcDbEntity
  8
SEMA2D
100
AcDbLine
 62
7
  6
_SOLID
370
9
 10
-0.345351696014404
 20
0.477129518985748
 11
-0.345351696014404
 21
0.465318381786346
  0
ARC
  5
10E
100
AcDbEntity
  8
SEMA2D
100
AcDbCircle
 62
7
  6
_SOLID
370
9
 10
-0.380762070417404
 20
0.568112790584564
 40
0.00184599997010082
100
AcDbArc
 50
180
 51
260
  0
ARC
  5
10F
100
AcDbEntity
  8
SEMA2D
100
AcDbCircle
 62
7
  6
_SOLID
370
9
 10
-0.354456543922424
 20
0.201157912611961
 40
0.023997999727726
100
AcDbArc
 50
180
 51
260
  0
ARC
  5
110
100
AcDbEntity
  8
SEMA2D
100
AcDbCircle
 62
7
  6
_SOLID
370
9
 10
-0.375685572624207
 20
0.588442742824554
 40
0.00369199994020164
100
AcDbArc
 50
1.70707899087574E-5
 51
78.0000076293945
  0
ARC
  5
111
100
AcDbEntity
  8
SEMA2D
100
AcDbCircle
 62
7
  6
_SOLID
370
9
 10
-0.352610558271408
 20
0.19587779045105
 40
0.00461499998345971
100
AcDbArc
 50
179.999435424805
 51
255.00048828125
  0
ARC
  5
112
100
AcDbEntity
  8
SEMA2D
100
AcDbCircle
 62
7
  6
_SOLID
370
9
 10
-0.329997062683105
 20
0.18308562040329
 40
0.00276899989694357
100
AcDbArc
 50
0
 51
40
  0
ARC
  5
113
100
AcDbEntity
  8
SEMA2D
100
AcDbCircle
 62
7
  6
_SOLID
370
9
 10
-0.331805855035782
 20
0.183805331587791
 40
0.00369199994020164
100
AcDbArc
 50
40
 51
75
  0
ARC
  5
114
100
AcDbEntity
  8
SEMA2D
100
AcDbCircle
 62
7
  6
_SOLID
370
9
 10
-0.329074054956436
 20
0.180482313036919
 40
0.00184599997010082
100
AcDbArc
 50
280
 51
0
  0
ARC
  5
115
100
AcDbEntity
  8
SEMA2D
100
AcDbCircle
 62
7
  6
_SOLID
370
9
 10
-0.339227050542831
 20
0.189425006508827
 40
0.00184599997010082
100
AcDbArc
 50
179.999893188477
 51
255
  0
ARC
  5
116
100
AcDbEntity
  8
SEMA2D
100
AcDbCircle
 62
7
  6
_SOLID
370
9
 10
-0.382146567106247
 20
0.595645129680634
 40
0.0018459998536855
100
AcDbArc
 50
179.999984741211
 51
264
  0
ARC
  5
117
100
AcDbEntity
  8
SEMA2D
100
AcDbCircle
 62
7
  6
_SOLID
370
9
 10
-0.336919546127319
 20
0.179098933935165
 40
0.00184599997010082
100
AcDbArc
 50
279.999633789062
 51
0.000170707906363532
  0
ARC
  5
118
100
AcDbEntity
  8
SEMA2D
100
AcDbCircle
 62
7
  6
_SOLID
370
9
 10
-0.370147556066513
 20
0.581032454967499
 40
0.00184599997010082
100
AcDbArc
 50
100
 51
180
  0
ARC
  5
119
100
AcDbEntity
  8
SEMA2D
100
AcDbCircle
 62
7
  6
_SOLID
370
9
 10
-0.376608550548553
 20
0.569820463657379
 40
0.00184599997010082
100
AcDbArc
 50
100
 51
180
  0
ARC
  5
11A
100
AcDbEntity
  8
SEMA2D
100
AcDbCircle
 62
7
  6
_SOLID
370
9
 10
-0.380762070417404
 20
0.569088101387024
 40
0.00184599997010082
100
AcDbArc
 50
100
 51
180
  0
ARC
  5
11B
100
AcDbEntity
  8
SEMA2D
100
AcDbCircle
 62
7
  6
_SOLID
370
9
 10
-0.375685572624207
 20
0.575606644153595
 40
0.00369199994020164
100
AcDbArc
 50
280
 51
-1.70707899087574E-5
  0
ARC
  5
11C
100
AcDbEntity
  8
SEMA2D
100
AcDbCircle
 62
7
  6
_SOLID
370
9
 10
-0.382146567106247
 20
0.599662482738495
 40
0.00184599997010082
100
AcDbArc
 50
98
 51
180
  0
ARC
  5
11D
100
AcDbEntity
  8
SEMA2D
100
AcDbCircle
 62
7
  6
_SOLID
370
9
 10
-0.376608550548553
 20
0.59430068731308
 40
0.00184599997010082
100
AcDbArc
 50
180
 51
258
  0
ARC
  5
11E
100
AcDbEntity
  8
SEMA2D
100
AcDbCircle
 62
7
  6
_SOLID
370
9
 10
-0.376608550548553
 20
0.600440800189972
 40
0.00184599997010082
100
AcDbArc
 50
98
 51
180
  0
ARC
  5
11F
100
AcDbEntity
  8
SEMA2D
100
AcDbCircle
 62
7
  6
_SOLID
370
9
 10
-0.382146567106247
 20
0.595477819442749
 40
0.00184599997010082
100
AcDbArc
 50
180.000823974609
 51
258
  0
ARC
  5
120
100
AcDbEntity
  8
SEMA2D
100
AcDbCircle
 62
7
  6
_SOLID
370
9
 10
-0.344303548336029
 20
0.480011582374573
 40
0.00184599997010082
100
AcDbArc
 50
308.682281494141
 51
0
  0
ARC
  5
121
100
AcDbEntity
  8
SEMA2D
100
AcDbCircle
 62
7
  6
_SOLID
370
9
 10
-0.341996043920517
 20
0.271488398313522
 40
0.00184599997010082
100
AcDbArc
 50
179.999694824219
 51
231.317916870117
  0
ARC
  5
122
100
AcDbEntity
  8
SEMA2D
100
AcDbCircle
 62
7
  6
_SOLID
370
9
 10
-0.342457562685013
 20
0.208965614438057
 40
0.00138449994847178
100
AcDbArc
 50
3.31069859385025E-5
 51
56.9442710876465
  0
ARC
  5
123
100
AcDbEntity
  8
SEMA2D
100
AcDbCircle
 62
7
  6
_SOLID
370
9
 10
-0.344303548336029
 20
0.462436318397522
 40
0.00184599997010082
100
AcDbArc
 50
0
 51
51.317813873291
  0
ARC
  5
124
100
AcDbEntity
  8
SEMA2D
100
AcDbCircle
 62
7
  6
_SOLID
370
9
 10
-0.340796172618866
 20
0.21167379617691
 40
0.00166139821521938
100
AcDbArc
 50
183.895874023438
 51
242.335952758789
  0
ARC
  5
125
100
AcDbEntity
  8
SEMA2D
100
AcDbCircle
 62
7
  6
_SOLID
370
9
 10
-0.341996043920517
 20
0.209384828805923
 40
0.00092299998505041
100
AcDbArc
 50
-5.58680403628387E-5
 51
62.3359336853027
  0
ARC
  5
126
100
AcDbEntity
  8
SEMA2D
100
AcDbCircle
 62
7
  6
_SOLID
370
9
 10
-0.341996043920517
 20
0.477129518985748
 40
0.00184599997010082
100
AcDbArc
 50
128.682083129883
 51
180.000305175781
  0
ARC
  5
127
100
AcDbEntity
  8
SEMA2D
100
AcDbCircle
 62
7
  6
_SOLID
370
9
 10
-0.341996043920517
 20
0.283299535512924
 40
0.00184599997010082
100
AcDbArc
 50
128.682083129883
 51
180.000305175781
  0
ARC
  5
128
100
AcDbEntity
  8
SEMA2D
100
AcDbCircle
 62
7
  6
_SOLID
370
9
 10
-0.363594263792038
 20
0.600116908550262
 40
0.00175369996577501
100
AcDbArc
 50
9.47469670791179E-5
 51
82
  0
ARC
  5
129
100
AcDbEntity
  8
SEMA2D
100
AcDbCircle
 62
7
  6
_SOLID
370
9
 10
-0.363594263792038
 20
0.579810917377472
 40
0.00175369996577501
100
AcDbArc
 50
75.9291229248047
 51
78.9648590087891
  0
ARC
  5
12A
100
AcDbEntity
  8
SEMA2D
100
AcDbCircle
 62
7
  6
_SOLID
370
9
 10
-0.359071552753449
 20
0.579082071781158
 40
0.00184599997010082
100
AcDbArc
 50
0
 51
82
  0
ARC
  5
12B
100
AcDbEntity
  8
SEMA2D
100
AcDbCircle
 62
7
  6
_SOLID
370
9
 10
-0.358610063791275
 20
0.579483211040497
 40
0.00138449994847178
100
AcDbArc
 50
-4.13837324231281E-6
 51
81.9999618530273
  0
ARC
  5
12C
100
AcDbEntity
  8
SEMA2D
100
AcDbCircle
 62
7
  6
_SOLID
370
9
 10
-0.340796172618866
 20
0.211518511176109
 40
0.00166139996144921
100
AcDbArc
 50
180.599563598633
 51
236.944229125977
  0
ARC
  5
12D
100
AcDbEntity
  8
SEMA2D
100
AcDbCircle
 62
7
  6
_SOLID
370
9
 10
-0.344303548336029
 20
0.268606334924698
 40
0.00184599997010082
100
AcDbArc
 50
0
 51
51.317813873291
  0
ARC
  5
12E
100
AcDbEntity
  8
SEMA2D
100
AcDbCircle
 62
7
  6
_SOLID
370
9
 10
-0.344303548336029
 20
0.286181598901749
 40
0.00184599997010082
100
AcDbArc
 50
308.682281494141
 51
0
  0
ARC
  5
12F
100
AcDbEntity
  8
SEMA2D
100
AcDbCircle
 62
7
  6
_SOLID
370
9
 10
-0.341996043920517
 20
0.465318381786346
 40
0.00184599997010082
100
AcDbArc
 50
179.999694824219
 51
231.317916870117
  0
ARC
  5
130
100
AcDbEntity
  8
SEMA2D
100
AcDbCircle
 62
7
  6
_SOLID
370
9
 10
-0.341996043920517
 20
0.558389484882355
 40
0.00092299998505041
100
AcDbArc
 50
300.000030517578
 51
-0.000124151207273826
  0
ARC
  5
131
100
AcDbEntity
  8
SEMA2D
100
AcDbCircle
 62
7
  6
_SOLID
370
9
 10
-0.341996043920517
 20
0.571674764156342
 40
0.00092299998505041
100
AcDbArc
 50
0.000105528524727561
 51
60.0000343322754
  0
ARC
  5
132
100
AcDbEntity
  8
SEMA2D
100
AcDbCircle
 62
7
  6
_SOLID
370
9
 10
-0.344211250543594
 20
0.59039843082428
 40
0.00175369996577501
100
AcDbArc
 50
0
 51
75
  0
ARC
  5
133
100
AcDbEntity
  8
SEMA2D
100
AcDbCircle
 62
7
  6
_SOLID
370
9
 10
-0.340611547231674
 20
0.555991470813751
 40
0.00184599997010082
100
AcDbArc
 50
119.999992370605
 51
179.316314697266
  0
ARC
  5
134
100
AcDbEntity
  8
SEMA2D
100
AcDbCircle
 62
7
  6
_SOLID
370
9
 10
-0.340611547231674
 20
0.574072778224945
 40
0.00184599997010082
100
AcDbArc
 50
180.648376464844
 51
240.000015258789
  0
ARC
  5
135
100
AcDbEntity
  8
SEMA2D
100
AcDbCircle
 62
7
  6
_SOLID
370
9
 10
-0.344765067100525
 20
0.594273507595062
 40
0.00184599997010082
100
AcDbArc
 50
180.382186889648
 51
255
  0
ARC
  5
136
100
AcDbEntity
  8
SEMA2D
100
AcDbCircle
 62
7
  6
_SOLID
370
9
 10
-0.327689558267593
 20
0.586831450462341
 40
0.00092299998505041
100
AcDbArc
 50
0
 51
75
  0
ARC
  5
137
100
AcDbEntity
  8
SEMA2D
100
AcDbCircle
 62
7
  6
_SOLID
370
9
 10
-0.34845706820488
 20
0.59789627790451
 40
0.00184599997010082
100
AcDbArc
 50
0
 51
82
  0
ARC
  5
138
100
AcDbEntity
  8
SEMA2D
100
AcDbCircle
 62
7
  6
_SOLID
370
9
 10
-0.344303548336029
 20
0.599647521972656
 40
0.00184599997010082
100
AcDbArc
 50
0
 51
82
  0
ARC
  5
139
100
AcDbEntity
  8
SEMA2D
100
AcDbCircle
 62
7
  6
_SOLID
370
9
 10
-0.327689558267593
 20
0.583269715309143
 40
0.00092299998505041
100
AcDbArc
 50
284.999969482422
 51
-0.000117943643999752
  0
ARC
  5
13A
100
AcDbEntity
  8
SEMA2D
100
AcDbCircle
 62
7
  6
_SOLID
370
9
 10
-0.328612565994263
 20
0.581111252307892
 40
0.00092299998505041
100
AcDbArc
 50
284.999969482422
 51
-9.93209614534862E-5
  0
ARC
  5
13B
100
AcDbEntity
  8
SEMA2D
100
AcDbCircle
 62
7
  6
_SOLID
370
9
 10
-0.328612565994263
 20
0.587078809738159
 40
0.00092299998505041
100
AcDbArc
 50
0
 51
75
  0
ARC
  5
13C
100
AcDbEntity
  8
SEMA2D
100
AcDbCircle
 62
7
  6
_SOLID
370
9
 10
-0.346716582775116
 20
0.212110742926598
 40
0.0374121032655239
100
AcDbArc
 50
235.810592651367
 51
259.501312255859
  0
LINE
  5
13D
100
AcDbEntity
  8
SEMA2D
100
AcDbLine
 62
7
  6
_SOLID
370
9
 10
-0.359901368618011
 20
0.177669227123261
 11
-0.353533565998077
 21
0.175324961543083
  0
ARC
  5
13E
100
AcDbEntity
  8
SEMA2D
100
AcDbCircle
 62
7
  6
_SOLID
370
9
 10
-0.339589267969131
 20
0.574245870113373
 40
0.00286753918044269
100
AcDbArc
 50
105.285270690918
 51
180.004592895508
  0
ARC
  5
13F
100
AcDbEntity
  8
SEMA2D
100
AcDbCircle
 62
7
  6
_SOLID
370
9
 10
-0.0639771595597267
 20
0.586598932743073
 40
0.00556647730991244
100
AcDbArc
 50
180
 51
270
  0
ARC
  5
140
100
AcDbEntity
  8
SEMA2D
100
AcDbCircle
 62
7
  6
_SOLID
370
9
 10
-0.0639771595597267
 20
0.586598932743073
 40
0.00369199994020164
100
AcDbArc
 50
180
 51
270
  0
ARC
  5
141
100
AcDbEntity
  8
SEMA2D
100
AcDbCircle
 62
7
  6
_SOLID
370
9
 10
-0.147047162055969
 20
0.197476953268051
 40
0.00478920852765441
100
AcDbArc
 50
70.2253799438477
 51
90
  0
ARC
  5
142
100
AcDbEntity
  8
SEMA2D
100
AcDbCircle
 62
7
  6
_SOLID
370
9
 10
-0.147047162055969
 20
0.197476953268051
 40
0.00323050003498793
100
AcDbArc
 50
0
 51
90
  0
ARC
  5
143
100
AcDbEntity
  8
SEMA2D
100
AcDbCircle
 62
7
  6
_SOLID
370
9
 10
-0.147047162055969
 20
0.197476953268051
 40
0.00369199994020164
100
AcDbArc
 50
0
 51
90
  0
ARC
  5
144
100
AcDbEntity
  8
SEMA2D
100
AcDbCircle
 62
7
  6
_SOLID
370
9
 10
-0.0639771595597267
 20
0.586598932743073
 40
0.00374852237291634
100
AcDbArc
 50
180
 51
270
  0
ARC
  5
145
100
AcDbEntity
  8
SEMA2D
100
AcDbCircle
 62
7
  6
_SOLID
370
9
 10
-0.147047162055969
 20
0.197476953268051
 40
0.00371934892609715
100
AcDbArc
 50
70.2254028320312
 51
90
  0
ARC
  5
146
100
AcDbEntity
  8
SEMA2D
100
AcDbCircle
 62
7
  6
_SOLID
370
9
 10
-0.0639771595597267
 20
0.586598932743073
 40
0.00323050003498793
100
AcDbArc
 50
180
 51
270
  0
LINE
  5
147
100
AcDbEntity
  8
SEMA2D
100
AcDbLine
 62
7
  6
_SOLID
370
9
 10
-0.18858215212822
 20
0.602751433849335
 11
-0.18858215212822
 21
0.364177882671356
  0
LINE
  5
148
100
AcDbEntity
  8
SEMA2D
100
AcDbLine
 62
7
  6
_SOLID
370
9
 10
-0.14213265478611
 20
0.586882412433624
 11
-0.14213265478611
 21
0.570101022720337
  0
LINE
  5
149
100
AcDbEntity
  8
SEMA2D
100
AcDbLine
 62
7
  6
_SOLID
370
9
 10
-0.143355160951614
 20
0.197476953268051
 11
-0.143355160951614
 21
0.175324961543083
  0
LINE
  5
14A
100
AcDbEntity
  8
SEMA2D
100
AcDbLine
 62
7
  6
_SOLID
370
9
 10
-0.141070395708084
 20
0.201157912611961
 11
-0.141070395708084
 21
0.567038595676422
  0
LINE
  5
14B
100
AcDbEntity
  8
SEMA2D
100
AcDbLine
 62
7
  6
_SOLID
370
9
 10
-0.139227837324142
 20
0.201157912611961
 11
-0.139227837324142
 21
0.567038595676422
  0
LINE
  5
14C
100
AcDbEntity
  8
SEMA2D
100
AcDbLine
 62
7
  6
_SOLID
370
9
 10
-0.140531331300735
 20
0.175324961543083
 11
-0.140531331300735
 21
0.174863457679749
  0
LINE
  5
14D
100
AcDbEntity
  8
SEMA2D
100
AcDbLine
 62
7
  6
_SOLID
370
9
 10
-0.147047162055969
 20
0.202266171574593
 11
-0.147047162055969
 21
0.201168954372406
  0
LINE
  5
14E
100
AcDbEntity
  8
SEMA2D
100
AcDbLine
 62
7
  6
_SOLID
370
9
 10
-0.157653272151947
 20
0.58546257019043
 11
-0.157653272151947
 21
0.203550174832344
  0
LINE
  5
14F
100
AcDbEntity
  8
SEMA2D
100
AcDbLine
 62
7
  6
_SOLID
370
9
 10
-0.137526273727417
 20
0.575514078140259
 11
-0.137433275580406
 21
0.573699414730072
  0
LINE
  5
150
100
AcDbEntity
  8
SEMA2D
100
AcDbLine
 62
7
  6
_SOLID
370
9
 10
-0.143816649913788
 20
0.174863457679749
 11
-0.143816649913788
 21
0.197476953268051
  0
LINE
  5
151
100
AcDbEntity
  8
SEMA2D
100
AcDbLine
 62
7
  6
_SOLID
370
9
 10
-0.142179310321808
 20
0.178342282772064
 11
-0.14221528172493
 21
0.197476953268051
  0
LINE
  5
152
100
AcDbEntity
  8
SEMA2D
100
AcDbLine
 62
7
  6
_SOLID
370
9
 10
-0.137199714779854
 20
0.575522422790527
 11
-0.137199714779854
 21
0.573704481124878
  0
LINE
  5
153
100
AcDbEntity
  8
SEMA2D
100
AcDbLine
 62
7
  6
_SOLID
370
9
 10
-0.137526273727417
 20
0.589977562427521
 11
-0.13752618432045
 21
0.575514078140259
  0
LINE
  5
154
100
AcDbEntity
  8
SEMA2D
100
AcDbLine
 62
7
  6
_SOLID
370
9
 10
-0.136483073234558
 20
0.571638464927673
 11
-0.136483073234558
 21
0.569820463657379
  0
LINE
  5
155
100
AcDbEntity
  8
SEMA2D
100
AcDbLine
 62
7
  6
_SOLID
370
9
 10
-0.142465174198151
 20
0.17731548845768
 11
-0.142307445406914
 21
0.197109237313271
  0
LINE
  5
156
100
AcDbEntity
  8
SEMA2D
100
AcDbLine
 62
7
  6
_SOLID
370
9
 10
-0.13626816868782
 20
0.175324961543083
 11
-0.13626816868782
 21
0.174863457679749
  0
LINE
  5
157
100
AcDbEntity
  8
SEMA2D
100
AcDbLine
 62
7
  6
_SOLID
370
9
 10
-0.159428209066391
 20
0.58546257019043
 11
-0.159428209066391
 21
0.203550174832344
  0
LINE
  5
158
100
AcDbEntity
  8
SEMA2D
100
AcDbLine
 62
7
  6
_SOLID
370
9
 10
-0.16516475379467
 20
0.586345434188843
 11
-0.16516475379467
 21
0.554969668388367
  0
LINE
  5
159
100
AcDbEntity
  8
SEMA2D
100
AcDbLine
 62
7
  6
_SOLID
370
9
 10
-0.165586605668068
 20
0.203550174832344
 11
-0.165586605668068
 21
0.586210012435913
  0
LINE
  5
15A
100
AcDbEntity
  8
SEMA2D
100
AcDbLine
 62
7
  6
_SOLID
370
9
 10
-0.164505258202553
 20
0.324477881193161
 11
-0.164505273103714
 21
0.550972938537598
  0
LINE
  5
15B
100
AcDbEntity
  8
SEMA2D
100
AcDbLine
 62
7
  6
_SOLID
370
9
 10
-0.163389816880226
 20
0.586345434188843
 11
-0.163389816880226
 21
0.554969668388367
  0
LINE
  5
15C
100
AcDbEntity
  8
SEMA2D
100
AcDbLine
 62
7
  6
_SOLID
370
9
 10
-0.163957729935646
 20
0.595477819442749
 11
-0.163957729935646
 21
0.599662482738495
  0
LINE
  5
15D
100
AcDbEntity
  8
SEMA2D
100
AcDbLine
 62
7
  6
_SOLID
370
9
 10
-0.167645931243896
 20
0.603212952613831
 11
-0.167645931243896
 21
0.603674471378326
  0
LINE
  5
15E
100
AcDbEntity
  8
SEMA2D
100
AcDbLine
 62
7
  6
_SOLID
370
9
 10
-0.168590873479843
 20
0.603212952613831
 11
-0.168590873479843
 21
0.603674471378326
  0
LINE
  5
15F
100
AcDbEntity
  8
SEMA2D
100
AcDbLine
 62
7
  6
_SOLID
370
9
 10
-0.167626410722733
 20
0.591055333614349
 11
-0.167626410722733
 21
0.602746903896332
  0
LINE
  5
160
100
AcDbEntity
  8
SEMA2D
100
AcDbLine
 62
7
  6
_SOLID
370
9
 10
-0.165661379694939
 20
0.603212952613831
 11
-0.165661379694939
 21
0.603674471378326
  0
LINE
  5
161
100
AcDbEntity
  8
SEMA2D
100
AcDbLine
 62
7
  6
_SOLID
370
9
 10
-0.167361542582512
 20
0.203550174832344
 11
-0.167361542582512
 21
0.588015675544739
  0
LINE
  5
162
100
AcDbEntity
  8
SEMA2D
100
AcDbLine
 62
7
  6
_SOLID
370
9
 10
-0.160509541630745
 20
0.550972938537598
 11
-0.160509541630745
 21
0.324477881193161
  0
LINE
  5
163
100
AcDbEntity
  8
SEMA2D
100
AcDbLine
 62
7
  6
_SOLID
370
9
 10
-0.161624997854233
 20
0.554969668388367
 11
-0.161624997854233
 21
0.586345434188843
  0
LINE
  5
164
100
AcDbEntity
  8
SEMA2D
100
AcDbLine
 62
7
  6
_SOLID
370
9
 10
-0.165197104215622
 20
0.203953430056572
 11
-0.164510563015938
 21
0.322647601366043
  0
LINE
  5
165
100
AcDbEntity
  8
SEMA2D
100
AcDbLine
 62
7
  6
_SOLID
370
9
 10
-0.159850060939789
 20
0.554969668388367
 11
-0.159850060939789
 21
0.586345434188843
  0
LINE
  5
166
100
AcDbEntity
  8
SEMA2D
100
AcDbLine
 62
7
  6
_SOLID
370
9
 10
-0.163422182202339
 20
0.203916072845459
 11
-0.162735626101494
 21
0.322610229253769
  0
LINE
  5
167
100
AcDbEntity
  8
SEMA2D
100
AcDbLine
 62
7
  6
_SOLID
370
9
 10
-0.16273033618927
 20
0.324477881193161
 11
-0.16273033618927
 21
0.552571594715118
  0
LINE
  5
168
100
AcDbEntity
  8
SEMA2D
100
AcDbLine
 62
7
  6
_SOLID
370
9
 10
-0.163381695747375
 20
0.202170208096504
 11
-0.163381695747375
 21
0.203915953636169
  0
LINE
  5
169
100
AcDbEntity
  8
SEMA2D
100
AcDbLine
 62
7
  6
_SOLID
370
9
 10
-0.162284478545189
 20
0.552571594715118
 11
-0.162284478545189
 21
0.324477881193161
  0
LINE
  5
16A
100
AcDbEntity
  8
SEMA2D
100
AcDbLine
 62
7
  6
_SOLID
370
9
 10
-0.161633118987083
 20
0.202170208096504
 11
-0.161633118987083
 21
0.203915953636169
  0
LINE
  5
16B
100
AcDbEntity
  8
SEMA2D
100
AcDbLine
 62
7
  6
_SOLID
370
9
 10
-0.162139773368835
 20
0.593672156333923
 11
-0.162139773368835
 21
0.601490497589111
  0
LINE
  5
16C
100
AcDbEntity
  8
SEMA2D
100
AcDbLine
 62
7
  6
_SOLID
370
9
 10
-0.0672076568007469
 20
0.603674471378326
 11
-0.0672076568007469
 21
0.586598932743073
  0
LINE
  5
16D
100
AcDbEntity
  8
SEMA2D
100
AcDbLine
 62
7
  6
_SOLID
370
9
 10
-0.0676691606640816
 20
0.603212952613831
 11
-0.0676691606640816
 21
0.586598932743073
  0
LINE
  5
16E
100
AcDbEntity
  8
SEMA2D
100
AcDbLine
 62
7
  6
_SOLID
370
9
 10
-0.0639771595597267
 20
0.581032454967499
 11
-0.0639771595597267
 21
0.58290696144104
  0
LINE
  5
16F
100
AcDbEntity
  8
SEMA2D
100
AcDbLine
 62
7
  6
_SOLID
370
9
 10
-0.181172043085098
 20
0.586437106132507
 11
-0.180994033813477
 21
0.586210012435913
  0
LINE
  5
170
100
AcDbEntity
  8
SEMA2D
100
AcDbLine
 62
7
  6
_SOLID
370
9
 10
-0.136483073234558
 20
0.571638464927673
 11
-0.137199714779854
 21
0.573704481124878
  0
LINE
  5
171
100
AcDbEntity
  8
SEMA2D
100
AcDbLine
 62
7
  6
_SOLID
370
9
 10
-0.0706828832626343
 20
0.592495024204254
 11
-0.0706828832626343
 21
0.602268815040588
  0
LINE
  5
172
100
AcDbEntity
  8
SEMA2D
100
AcDbLine
 62
7
  6
_SOLID
370
9
 10
-0.141070395708084
 20
0.567038595676422
 11
-0.14213265478611
 21
0.570101022720337
  0
LINE
  5
173
100
AcDbEntity
  8
SEMA2D
100
AcDbLine
 62
7
  6
_SOLID
370
9
 10
-0.0695436373353004
 20
0.586598932743073
 11
-0.0695436373353004
 21
0.588442742824554
  0
LINE
  5
174
100
AcDbEntity
  8
SEMA2D
100
AcDbLine
 62
7
  6
_SOLID
370
9
 10
-0.0677256807684898
 20
0.586598932743073
 11
-0.0677256807684898
 21
0.588442742824554
  0
LINE
  5
175
100
AcDbEntity
  8
SEMA2D
100
AcDbLine
 62
7
  6
_SOLID
370
9
 10
-0.0688649266958237
 20
0.600440800189972
 11
-0.0688649266958237
 21
0.59430068731308
  0
LINE
  5
176
100
AcDbEntity
  8
SEMA2D
100
AcDbLine
 62
7
  6
_SOLID
370
9
 10
-0.0404406562447548
 20
0.583368480205536
 11
-0.0404406562447548
 21
0.1849365234375
  0
LINE
  5
177
100
AcDbEntity
  8
SEMA2D
100
AcDbLine
 62
7
  6
_SOLID
370
9
 10
-0.0409021563827991
 20
0.58290696144104
 11
-0.0409021563827991
 21
0.185016453266144
  0
LINE
  5
178
100
AcDbEntity
  8
SEMA2D
100
AcDbLine
 62
7
  6
_SOLID
370
9
 10
-0.164420485496521
 20
0.201196312904358
 11
-0.163381695747375
 21
0.202170208096504
  0
LINE
  5
179
100
AcDbEntity
  8
SEMA2D
100
AcDbLine
 62
7
  6
_SOLID
370
9
 10
-0.165586605668068
 20
0.203550174832344
 11
-0.165156617760658
 21
0.203953310847282
  0
LINE
  5
17A
100
AcDbEntity
  8
SEMA2D
100
AcDbLine
 62
7
  6
_SOLID
370
9
 10
-0.0441627241671085
 20
0.201157912611961
 11
-0.0441627241671085
 21
0.571638464927673
  0
LINE
  5
17B
100
AcDbEntity
  8
SEMA2D
100
AcDbLine
 62
7
  6
_SOLID
370
9
 10
-0.179377943277359
 20
0.588276922702789
 11
-0.179173141717911
 21
0.588015675544739
  0
LINE
  5
17C
100
AcDbEntity
  8
SEMA2D
100
AcDbLine
 62
7
  6
_SOLID
370
9
 10
-0.0427893996238708
 20
0.575606644153595
 11
-0.0427893996238708
 21
0.581032454967499
  0
LINE
  5
17D
100
AcDbEntity
  8
SEMA2D
100
AcDbLine
 62
7
  6
_SOLID
370
9
 10
-0.0409837365150452
 20
0.575606644153595
 11
-0.0409837365150452
 21
0.58267205953598
  0
LINE
  5
17E
100
AcDbEntity
  8
SEMA2D
100
AcDbLine
 62
7
  6
_SOLID
370
9
 10
-0.0423570647835732
 20
0.201157912611961
 11
-0.0423570647835732
 21
0.569820463657379
  0
LINE
  5
17F
100
AcDbEntity
  8
SEMA2D
100
AcDbLine
 62
7
  6
_SOLID
370
9
 10
-0.145426869392395
 20
0.201983749866486
 11
-0.145788818597794
 21
0.200976982712746
  0
LINE
  5
180
100
AcDbEntity
  8
SEMA2D
100
AcDbLine
 62
7
  6
_SOLID
370
9
 10
-0.18781390786171
 20
0.600624978542328
 11
-0.18858215212822
 21
0.603212952613831
  0
LINE
  5
181
100
AcDbEntity
  8
SEMA2D
100
AcDbLine
 62
7
  6
_SOLID
370
9
 10
-0.185125395655632
 20
0.55150580406189
 11
-0.185517773032188
 21
0.552571594715118
  0
LINE
  5
182
100
AcDbEntity
  8
SEMA2D
100
AcDbLine
 62
7
  6
_SOLID
370
9
 10
-0.186931058764458
 20
0.549907147884369
 11
-0.187323436141014
 21
0.550972938537598
  0
LINE
  5
183
100
AcDbEntity
  8
SEMA2D
100
AcDbLine
 62
7
  6
_SOLID
370
9
 10
-0.0940596461296082
 20
0.587354958057404
 11
-0.0940596461296082
 21
0.576509058475494
  0
LINE
  5
184
100
AcDbEntity
  8
SEMA2D
100
AcDbLine
 62
7
  6
_SOLID
370
9
 10
-0.0950483605265617
 20
0.586366236209869
 11
-0.0950483605265617
 21
0.577329218387604
  0
LINE
  5
185
100
AcDbEntity
  8
SEMA2D
100
AcDbLine
 62
7
  6
_SOLID
370
9
 10
-0.092760793864727
 20
0.594530522823334
 11
-0.092760793864727
 21
0.600288808345795
  0
LINE
  5
186
100
AcDbEntity
  8
SEMA2D
100
AcDbLine
 62
7
  6
_SOLID
370
9
 10
-0.0913511589169502
 20
0.587354958057404
 11
-0.0913511589169502
 21
0.576509058475494
  0
LINE
  5
187
100
AcDbEntity
  8
SEMA2D
100
AcDbLine
 62
7
  6
_SOLID
370
9
 10
-0.0914554819464684
 20
0.592495024204254
 11
-0.0914554819464684
 21
0.602268815040588
  0
LINE
  5
188
100
AcDbEntity
  8
SEMA2D
100
AcDbLine
 62
7
  6
_SOLID
370
9
 10
-0.0986596792936325
 20
0.588171899318695
 11
-0.0986596792936325
 21
0.589977562427521
  0
LINE
  5
189
100
AcDbEntity
  8
SEMA2D
100
AcDbLine
 62
7
  6
_SOLID
370
9
 10
-0.0986731201410294
 20
0.575522422790527
 11
-0.0986731201410294
 21
0.573704481124878
  0
LINE
  5
18A
100
AcDbEntity
  8
SEMA2D
100
AcDbLine
 62
7
  6
_SOLID
370
9
 10
-0.0985227599740028
 20
0.595477819442749
 11
-0.0985227599740028
 21
0.599662482738495
  0
LINE
  5
18B
100
AcDbEntity
  8
SEMA2D
100
AcDbLine
 62
7
  6
_SOLID
370
9
 10
-0.0968540161848068
 20
0.586366236209869
 11
-0.0968540161848068
 21
0.577329218387604
  0
LINE
  5
18C
100
AcDbEntity
  8
SEMA2D
100
AcDbLine
 62
7
  6
_SOLID
370
9
 10
-0.0972174406051636
 20
0.595477819442749
 11
-0.0972174406051636
 21
0.599662482738495
  0
LINE
  5
18D
100
AcDbEntity
  8
SEMA2D
100
AcDbLine
 62
7
  6
_SOLID
370
9
 10
-0.164420485496521
 20
0.201196312904358
 11
-0.182392060756683
 21
0.201196312904358
  0
LINE
  5
18E
100
AcDbEntity
  8
SEMA2D
100
AcDbLine
 62
7
  6
_SOLID
370
9
 10
-0.147047162055969
 20
0.201196312904358
 11
-0.160594329237938
 21
0.201196312904358
  0
LINE
  5
18F
100
AcDbEntity
  8
SEMA2D
100
AcDbLine
 62
7
  6
_SOLID
370
9
 10
-0.161633118987083
 20
0.202170208096504
 11
-0.163381695747375
 21
0.202170208096504
  0
LINE
  5
190
100
AcDbEntity
  8
SEMA2D
100
AcDbLine
 62
7
  6
_SOLID
370
9
 10
-0.157883509993553
 20
0.202266156673431
 11
-0.147047162055969
 21
0.202266171574593
  0
LINE
  5
191
100
AcDbEntity
  8
SEMA2D
100
AcDbLine
 62
7
  6
_SOLID
370
9
 10
-0.179435551166534
 20
0.20226614177227
 11
-0.167131304740906
 21
0.20226614177227
  0
LINE
  5
192
100
AcDbEntity
  8
SEMA2D
100
AcDbLine
 62
7
  6
_SOLID
370
9
 10
-0.147047162055969
 20
0.200707465410233
 11
-0.189043655991554
 21
0.200707465410233
  0
LINE
  5
193
100
AcDbEntity
  8
SEMA2D
100
AcDbLine
 62
7
  6
_SOLID
370
9
 10
-0.16516375541687
 20
0.586524486541748
 11
-0.165586605668068
 21
0.586210012435913
  0
LINE
  5
194
100
AcDbEntity
  8
SEMA2D
100
AcDbLine
 62
7
  6
_SOLID
370
9
 10
-0.141070395708084
 20
0.201157912611961
 11
-0.134370669722557
 21
0.201157912611961
  0
LINE
  5
195
100
AcDbEntity
  8
SEMA2D
100
AcDbLine
 62
7
  6
_SOLID
370
9
 10
-0.147047162055969
 20
0.201168954372406
 11
-0.18858215212822
 21
0.201168954372406
  0
LINE
  5
196
100
AcDbEntity
  8
SEMA2D
100
AcDbLine
 62
7
  6
_SOLID
370
9
 10
-0.095113642513752
 20
0.201157912611961
 11
-0.0409021563827991
 21
0.201157912611961
  0
LINE
  5
197
100
AcDbEntity
  8
SEMA2D
100
AcDbLine
 62
7
  6
_SOLID
370
9
 10
-0.142801225185394
 20
0.197476923465729
 11
-0.143355160951614
 21
0.197476953268051
  0
LINE
  5
198
100
AcDbEntity
  8
SEMA2D
100
AcDbLine
 62
7
  6
_SOLID
370
9
 10
-0.185609802603722
 20
0.204410463571548
 11
-0.18330529332161
 21
0.204410463571548
  0
LINE
  5
199
100
AcDbEntity
  8
SEMA2D
100
AcDbLine
 62
7
  6
_SOLID
370
9
 10
-0.181100264191627
 20
0.202922642230988
 11
-0.179435551166534
 21
0.202266171574593
  0
LINE
  5
19A
100
AcDbEntity
  8
SEMA2D
100
AcDbLine
 62
7
  6
_SOLID
370
9
 10
-0.159508854150772
 20
0.202875852584839
 11
-0.157883495092392
 21
0.202266171574593
  0
LINE
  5
19B
100
AcDbEntity
  8
SEMA2D
100
AcDbLine
 62
7
  6
_SOLID
370
9
 10
-0.165586605668068
 20
0.203550174832344
 11
-0.167361542582512
 21
0.203550174832344
  0
LINE
  5
19C
100
AcDbEntity
  8
SEMA2D
100
AcDbLine
 62
7
  6
_SOLID
370
9
 10
-0.185609802603722
 20
0.202664881944656
 11
-0.18330529332161
 21
0.202664881944656
  0
LINE
  5
19D
100
AcDbEntity
  8
SEMA2D
100
AcDbLine
 62
7
  6
_SOLID
370
9
 10
-0.159428209066391
 20
0.203550174832344
 11
-0.157653272151947
 21
0.203550174832344
  0
LINE
  5
19E
100
AcDbEntity
  8
SEMA2D
100
AcDbLine
 62
7
  6
_SOLID
370
9
 10
-0.161633118987083
 20
0.203915953636169
 11
-0.163381695747375
 21
0.203915953636169
  0
LINE
  5
19F
100
AcDbEntity
  8
SEMA2D
100
AcDbLine
 62
7
  6
_SOLID
370
9
 10
-0.180994033813477
 20
0.203659430146217
 11
-0.179173141717911
 21
0.203659430146217
  0
LINE
  5
1A0
100
AcDbEntity
  8
SEMA2D
100
AcDbLine
 62
7
  6
_SOLID
370
9
 10
-0.167361542582512
 20
0.588015675544739
 11
-0.165965408086777
 21
0.589054048061371
  0
LINE
  5
1A1
100
AcDbEntity
  8
SEMA2D
100
AcDbLine
 62
7
  6
_SOLID
370
9
 10
-0.124631404876709
 20
0.177524492144585
 11
-0.0435778573155403
 21
0.177524492144585
  0
LINE
  5
1A2
100
AcDbEntity
  8
SEMA2D
100
AcDbLine
 62
7
  6
_SOLID
370
9
 10
-0.0442765951156616
 20
0.175568029284477
 11
-0.0437865480780601
 21
0.175568029284477
  0
LINE
  5
1A3
100
AcDbEntity
  8
SEMA2D
100
AcDbLine
 62
7
  6
_SOLID
370
9
 10
-0.0411571115255356
 20
0.18430258333683
 11
-0.0406670607626438
 21
0.18430258333683
  0
LINE
  5
1A4
100
AcDbEntity
  8
SEMA2D
100
AcDbLine
 62
7
  6
_SOLID
370
9
 10
-0.143355160951614
 20
0.175324961543083
 11
-0.0443634055554867
 21
0.175324961543083
  0
LINE
  5
1A5
100
AcDbEntity
  8
SEMA2D
100
AcDbLine
 62
7
  6
_SOLID
370
9
 10
-0.143816649913788
 20
0.174863457679749
 11
-0.0440381802618504
 21
0.174863457679749
  0
LINE
  5
1A6
100
AcDbEntity
  8
SEMA2D
100
AcDbLine
 62
7
  6
_SOLID
370
9
 10
-0.185125395655632
 20
0.549907147884369
 11
-0.185125395655632
 21
0.324481934309006
  0
LINE
  5
1A7
100
AcDbEntity
  8
SEMA2D
100
AcDbLine
 62
7
  6
_SOLID
370
9
 10
-0.185609802603722
 20
0.204410463571548
 11
-0.185609802603722
 21
0.202664881944656
  0
LINE
  5
1A8
100
AcDbEntity
  8
SEMA2D
100
AcDbLine
 62
7
  6
_SOLID
370
9
 10
-0.183685019612312
 20
0.324481934309006
 11
-0.183685019612312
 21
0.549907147884369
  0
LINE
  5
1A9
100
AcDbEntity
  8
SEMA2D
100
AcDbLine
 62
7
  6
_SOLID
370
9
 10
-0.182992935180664
 20
0.586437106132507
 11
-0.182992935180664
 21
0.554969668388367
  0
LINE
  5
1AA
100
AcDbEntity
  8
SEMA2D
100
AcDbLine
 62
7
  6
_SOLID
370
9
 10
-0.18330529332161
 20
0.204410463571548
 11
-0.18330529332161
 21
0.202664881944656
  0
LINE
  5
1AB
100
AcDbEntity
  8
SEMA2D
100
AcDbLine
 62
7
  6
_SOLID
370
9
 10
-0.18781390786171
 20
0.554969668388367
 11
-0.18781390786171
 21
0.600624978542328
  0
LINE
  5
1AC
100
AcDbEntity
  8
SEMA2D
100
AcDbLine
 62
7
  6
_SOLID
370
9
 10
-0.18858215212822
 20
0.603212952613831
 11
-0.18858215212822
 21
0.201168954372406
  0
LINE
  5
1AD
100
AcDbEntity
  8
SEMA2D
100
AcDbLine
 62
7
  6
_SOLID
370
9
 10
-0.186931058764458
 20
0.549907147884369
 11
-0.186931058764458
 21
0.324481934309006
  0
LINE
  5
1AE
100
AcDbEntity
  8
SEMA2D
100
AcDbLine
 62
7
  6
_SOLID
370
9
 10
-0.185723587870598
 20
0.602722823619843
 11
-0.185723587870598
 21
0.600894808769226
  0
LINE
  5
1AF
100
AcDbEntity
  8
SEMA2D
100
AcDbLine
 62
7
  6
_SOLID
370
9
 10
-0.186008259654045
 20
0.554969668388367
 11
-0.186008259654045
 21
0.600624978542328
  0
LINE
  5
1B0
100
AcDbEntity
  8
SEMA2D
100
AcDbLine
 62
7
  6
_SOLID
370
9
 10
-0.185129374265671
 20
0.322606176137924
 11
-0.185640051960945
 21
0.204410523176193
  0
LINE
  5
1B1
100
AcDbEntity
  8
SEMA2D
100
AcDbLine
 62
7
  6
_SOLID
370
9
 10
-0.186935037374496
 20
0.32264369726181
 11
-0.18744570016861
 21
0.204448044300079
  0
LINE
  5
1B2
100
AcDbEntity
  8
SEMA2D
100
AcDbLine
 62
7
  6
_SOLID
370
9
 10
-0.162279188632965
 20
0.322610229253769
 11
-0.16159263253212
 21
0.203916072845459
  0
LINE
  5
1B3
100
AcDbEntity
  8
SEMA2D
100
AcDbLine
 62
7
  6
_SOLID
370
9
 10
-0.171262323856354
 20
0.588276922702789
 11
-0.171262323856354
 21
0.600894808769226
  0
LINE
  5
1B4
100
AcDbEntity
  8
SEMA2D
100
AcDbLine
 62
7
  6
_SOLID
370
9
 10
-0.160504251718521
 20
0.322647601366043
 11
-0.159817695617676
 21
0.203953430056572
  0
LINE
  5
1B5
100
AcDbEntity
  8
SEMA2D
100
AcDbLine
 62
7
  6
_SOLID
370
9
 10
-0.181172043085098
 20
0.586437106132507
 11
-0.181172043085098
 21
0.554969668388367
  0
LINE
  5
1B6
100
AcDbEntity
  8
SEMA2D
100
AcDbLine
 62
7
  6
_SOLID
370
9
 10
-0.181864127516747
 20
0.324481934309006
 11
-0.181864127516747
 21
0.549907147884369
  0
LINE
  5
1B7
100
AcDbEntity
  8
SEMA2D
100
AcDbLine
 62
7
  6
_SOLID
370
9
 10
-0.180994033813477
 20
0.586210012435913
 11
-0.180994033813477
 21
0.203659430146217
  0
LINE
  5
1B8
100
AcDbEntity
  8
SEMA2D
100
AcDbLine
 62
7
  6
_SOLID
370
9
 10
-0.179173141717911
 20
0.588015675544739
 11
-0.179173141717911
 21
0.203659430146217
  0
LINE
  5
1B9
100
AcDbEntity
  8
SEMA2D
100
AcDbLine
 62
7
  6
_SOLID
370
9
 10
-0.179377943277359
 20
0.588276922702789
 11
-0.179377943277359
 21
0.590082585811615
  0
LINE
  5
1BA
100
AcDbEntity
  8
SEMA2D
100
AcDbLine
 62
7
  6
_SOLID
370
9
 10
-0.189043655991554
 20
0.200707465410233
 11
-0.189043655991554
 21
0.603674471378326
  0
LINE
  5
1BB
100
AcDbEntity
  8
SEMA2D
100
AcDbLine
 62
7
  6
_SOLID
370
9
 10
-0.0986597165465355
 20
0.589977562427521
 11
-0.0965831726789474
 21
0.592054069042206
  0
LINE
  5
1BC
100
AcDbEntity
  8
SEMA2D
100
AcDbLine
 62
7
  6
_SOLID
370
9
 10
-0.181484401226044
 20
0.204447969794273
 11
-0.180994033813477
 21
0.203659430146217
  0
LINE
  5
1BD
100
AcDbEntity
  8
SEMA2D
100
AcDbLine
 62
7
  6
_SOLID
370
9
 10
-0.0940596461296082
 20
0.587354958057404
 11
-0.0950483605265617
 21
0.586366236209869
  0
LINE
  5
1BE
100
AcDbEntity
  8
SEMA2D
100
AcDbLine
 62
7
  6
_SOLID
370
9
 10
-0.181556537747383
 20
0.550972938537598
 11
-0.181864127516747
 21
0.549907147884369
  0
LINE
  5
1BF
100
AcDbEntity
  8
SEMA2D
100
AcDbLine
 62
7
  6
_SOLID
370
9
 10
-0.183377429842949
 20
0.552571594715118
 11
-0.183685019612312
 21
0.55150580406189
  0
LINE
  5
1C0
100
AcDbEntity
  8
SEMA2D
100
AcDbLine
 62
7
  6
_SOLID
370
9
 10
-0.162139773368835
 20
0.593672156333923
 11
-0.165808454155922
 21
0.589249670505524
  0
LINE
  5
1C1
100
AcDbEntity
  8
SEMA2D
100
AcDbLine
 62
7
  6
_SOLID
370
9
 10
-0.163957729935646
 20
0.595477819442749
 11
-0.167626410722733
 21
0.591055333614349
  0
LINE
  5
1C2
100
AcDbEntity
  8
SEMA2D
100
AcDbLine
 62
7
  6
_SOLID
370
9
 10
-0.161633118987083
 20
0.202170208096504
 11
-0.160594329237938
 21
0.201196312904358
  0
LINE
  5
1C3
100
AcDbEntity
  8
SEMA2D
100
AcDbLine
 62
7
  6
_SOLID
370
9
 10
-0.18330529332161
 20
0.202664881944656
 11
-0.182392060756683
 21
0.201196312904358
  0
LINE
  5
1C4
100
AcDbEntity
  8
SEMA2D
100
AcDbLine
 62
7
  6
_SOLID
370
9
 10
-0.159858196973801
 20
0.203953310847282
 11
-0.159428209066391
 21
0.203550174832344
  0
LINE
  5
1C5
100
AcDbEntity
  8
SEMA2D
100
AcDbLine
 62
7
  6
_SOLID
370
9
 10
-0.164505258202553
 20
0.324477881193161
 11
-0.160509541630745
 21
0.324477881193161
  0
LINE
  5
1C6
100
AcDbEntity
  8
SEMA2D
100
AcDbLine
 62
7
  6
_SOLID
370
9
 10
-0.162735626101494
 20
0.322610229253769
 11
-0.162279188632965
 21
0.322610229253769
  0
LINE
  5
1C7
100
AcDbEntity
  8
SEMA2D
100
AcDbLine
 62
7
  6
_SOLID
370
9
 10
-0.186931058764458
 20
0.324481934309006
 11
-0.181864127516747
 21
0.324481934309006
  0
LINE
  5
1C8
100
AcDbEntity
  8
SEMA2D
100
AcDbLine
 62
7
  6
_SOLID
370
9
 10
-0.181460693478584
 20
0.204448014497757
 11
-0.181861013174057
 21
0.32264369726181
  0
LINE
  5
1C9
100
AcDbEntity
  8
SEMA2D
100
AcDbLine
 62
7
  6
_SOLID
370
9
 10
-0.18328158557415
 20
0.204410508275032
 11
-0.183681905269623
 21
0.322606176137924
  0
LINE
  5
1CA
100
AcDbEntity
  8
SEMA2D
100
AcDbLine
 62
7
  6
_SOLID
370
9
 10
-0.0423570647835732
 20
0.569820463657379
 11
-0.0419564694166183
 21
0.570152819156647
  0
LINE
  5
1CB
100
AcDbEntity
  8
SEMA2D
100
AcDbLine
 62
7
  6
_SOLID
370
9
 10
-0.0441627241671085
 20
0.571638464927673
 11
-0.0437621288001537
 21
0.571970760822296
  0
LINE
  5
1CC
100
AcDbEntity
  8
SEMA2D
100
AcDbLine
 62
7
  6
_SOLID
370
9
 10
-0.144073292613029
 20
0.588347256183624
 11
-0.143975213170052
 21
0.58868807554245
  0
LINE
  5
1CD
100
AcDbEntity
  8
SEMA2D
100
AcDbLine
 62
7
  6
_SOLID
370
9
 10
-0.185129374265671
 20
0.322606176137924
 11
-0.183681905269623
 21
0.322606176137924
  0
LINE
  5
1CE
100
AcDbEntity
  8
SEMA2D
100
AcDbLine
 62
7
  6
_SOLID
370
9
 10
-0.142230734229088
 20
0.586541593074799
 11
-0.14213265478611
 21
0.586882412433624
  0
LINE
  5
1CF
100
AcDbEntity
  8
SEMA2D
100
AcDbLine
 62
7
  6
_SOLID
370
9
 10
-0.0986731201410294
 20
0.575522422790527
 11
-0.137199714779854
 21
0.575522422790527
  0
LINE
  5
1D0
100
AcDbEntity
  8
SEMA2D
100
AcDbLine
 62
7
  6
_SOLID
370
9
 10
-0.0986731648445129
 20
0.573704481124878
 11
-0.137199714779854
 21
0.573704481124878
  0
LINE
  5
1D1
100
AcDbEntity
  8
SEMA2D
100
AcDbLine
 62
7
  6
_SOLID
370
9
 10
-0.0409837365150452
 20
0.575606644153595
 11
-0.0914143323898315
 21
0.57560670375824
  0
LINE
  5
1D2
100
AcDbEntity
  8
SEMA2D
100
AcDbLine
 62
7
  6
_SOLID
370
9
 10
-0.0968540161848068
 20
0.577329218387604
 11
-0.0950483605265617
 21
0.577329218387604
  0
LINE
  5
1D3
100
AcDbEntity
  8
SEMA2D
100
AcDbLine
 62
7
  6
_SOLID
370
9
 10
-0.0913511589169502
 20
0.576509058475494
 11
-0.0940596461296082
 21
0.576509058475494
  0
LINE
  5
1D4
100
AcDbEntity
  8
SEMA2D
100
AcDbLine
 62
7
  6
_SOLID
370
9
 10
-0.0684991553425789
 20
0.593859732151032
 11
-0.0688649266958237
 21
0.59430068731308
  0
LINE
  5
1D5
100
AcDbEntity
  8
SEMA2D
100
AcDbLine
 62
7
  6
_SOLID
370
9
 10
-0.0703171044588089
 20
0.592054069042206
 11
-0.0706828832626343
 21
0.592495024204254
  0
LINE
  5
1D6
100
AcDbEntity
  8
SEMA2D
100
AcDbLine
 62
7
  6
_SOLID
370
9
 10
-0.0914421752095223
 20
0.588442742824554
 11
-0.094093956053257
 21
0.587994277477264
  0
LINE
  5
1D7
100
AcDbEntity
  8
SEMA2D
100
AcDbLine
 62
7
  6
_SOLID
370
9
 10
-0.0437621288001537
 20
0.571970760822296
 11
-0.0965831726789474
 21
0.571970760822296
  0
LINE
  5
1D8
100
AcDbEntity
  8
SEMA2D
100
AcDbLine
 62
7
  6
_SOLID
370
9
 10
-0.136483073234558
 20
0.571638464927673
 11
-0.0441627241671085
 21
0.571638464927673
  0
LINE
  5
1D9
100
AcDbEntity
  8
SEMA2D
100
AcDbLine
 62
7
  6
_SOLID
370
9
 10
-0.16516475379467
 20
0.586345434188843
 11
-0.159850060939789
 21
0.586345434188843
  0
LINE
  5
1DA
100
AcDbEntity
  8
SEMA2D
100
AcDbLine
 62
7
  6
_SOLID
370
9
 10
-0.180994033813477
 20
0.586210012435913
 11
-0.165586605668068
 21
0.586210012435913
  0
LINE
  5
1DB
100
AcDbEntity
  8
SEMA2D
100
AcDbLine
 62
7
  6
_SOLID
370
9
 10
-0.0968540161848068
 20
0.586366236209869
 11
-0.0950483605265617
 21
0.586366236209869
  0
LINE
  5
1DC
100
AcDbEntity
  8
SEMA2D
100
AcDbLine
 62
7
  6
_SOLID
370
9
 10
-0.0695436373353004
 20
0.586598932743073
 11
-0.0676691606640816
 21
0.586598932743073
  0
LINE
  5
1DD
100
AcDbEntity
  8
SEMA2D
100
AcDbLine
 62
7
  6
_SOLID
370
9
 10
-0.181172043085098
 20
0.586437106132507
 11
-0.182992935180664
 21
0.586437106132507
  0
LINE
  5
1DE
100
AcDbEntity
  8
SEMA2D
100
AcDbLine
 62
7
  6
_SOLID
370
9
 10
-0.0411101318895817
 20
0.582850456237793
 11
-0.0639771595597267
 21
0.582850456237793
  0
LINE
  5
1DF
100
AcDbEntity
  8
SEMA2D
100
AcDbLine
 62
7
  6
_SOLID
370
9
 10
-0.0427893996238708
 20
0.581032454967499
 11
-0.0639771595597267
 21
0.581032454967499
  0
LINE
  5
1E0
100
AcDbEntity
  8
SEMA2D
100
AcDbLine
 62
7
  6
_SOLID
370
9
 10
-0.0639771595597267
 20
0.58290696144104
 11
-0.0409021563827991
 21
0.58290696144104
  0
LINE
  5
1E1
100
AcDbEntity
  8
SEMA2D
100
AcDbLine
 62
7
  6
_SOLID
370
9
 10
-0.159428209066391
 20
0.58546257019043
 11
-0.145731583237648
 21
0.58546257019043
  0
LINE
  5
1E2
100
AcDbEntity
  8
SEMA2D
100
AcDbLine
 62
7
  6
_SOLID
370
9
 10
-0.0404406562447548
 20
0.583368480205536
 11
-0.0639771595597267
 21
0.583368480205536
  0
LINE
  5
1E3
100
AcDbEntity
  8
SEMA2D
100
AcDbLine
 62
7
  6
_SOLID
370
9
 10
-0.0950483605265617
 20
0.577329218387604
 11
-0.0940596461296082
 21
0.576509058475494
  0
LINE
  5
1E4
100
AcDbEntity
  8
SEMA2D
100
AcDbLine
 62
7
  6
_SOLID
370
9
 10
-0.181864127516747
 20
0.549907147884369
 11
-0.186931058764458
 21
0.549907147884369
  0
LINE
  5
1E5
100
AcDbEntity
  8
SEMA2D
100
AcDbLine
 62
7
  6
_SOLID
370
9
 10
-0.165505960583687
 20
0.202875852584839
 11
-0.167131319642067
 21
0.202266171574593
  0
LINE
  5
1E6
100
AcDbEntity
  8
SEMA2D
100
AcDbLine
 62
7
  6
_SOLID
370
9
 10
-0.164505273103714
 20
0.550972938537598
 11
-0.160509541630745
 21
0.550972938537598
  0
LINE
  5
1E7
100
AcDbEntity
  8
SEMA2D
100
AcDbLine
 62
7
  6
_SOLID
370
9
 10
-0.183377429842949
 20
0.552571594715118
 11
-0.185517773032188
 21
0.552571594715118
  0
LINE
  5
1E8
100
AcDbEntity
  8
SEMA2D
100
AcDbLine
 62
7
  6
_SOLID
370
9
 10
-0.183685019612312
 20
0.55150580406189
 11
-0.185125395655632
 21
0.55150580406189
  0
LINE
  5
1E9
100
AcDbEntity
  8
SEMA2D
100
AcDbLine
 62
7
  6
_SOLID
370
9
 10
-0.159049302339554
 20
0.589053928852081
 11
-0.157862216234207
 21
0.588171064853668
  0
LINE
  5
1EA
100
AcDbEntity
  8
SEMA2D
100
AcDbLine
 62
7
  6
_SOLID
370
9
 10
-0.159851059317589
 20
0.586524486541748
 11
-0.159637153148651
 21
0.586365401744842
  0
LINE
  5
1EB
100
AcDbEntity
  8
SEMA2D
100
AcDbLine
 62
7
  6
_SOLID
370
9
 10
-0.0409021563827991
 20
0.185016453266144
 11
-0.0443634055554867
 21
0.175324961543083
  0
LINE
  5
1EC
100
AcDbEntity
  8
SEMA2D
100
AcDbLine
 62
7
  6
_SOLID
370
9
 10
-0.0440381802618504
 20
0.174863457679749
 11
-0.0404406562447548
 21
0.1849365234375
  0
LINE
  5
1ED
100
AcDbEntity
  8
SEMA2D
100
AcDbLine
 62
7
  6
_SOLID
370
9
 10
-0.102395862340927
 20
0.56556248664856
 11
-0.128235131502151
 21
0.56556248664856
  0
LINE
  5
1EE
100
AcDbEntity
  8
SEMA2D
100
AcDbLine
 62
7
  6
_SOLID
370
9
 10
-0.141070395708084
 20
0.567038595676422
 11
-0.139227837324142
 21
0.567038595676422
  0
LINE
  5
1EF
100
AcDbEntity
  8
SEMA2D
100
AcDbLine
 62
7
  6
_SOLID
370
9
 10
-0.136483073234558
 20
0.569820463657379
 11
-0.0441627241671085
 21
0.569820463657379
  0
LINE
  5
1F0
100
AcDbEntity
  8
SEMA2D
100
AcDbLine
 62
7
  6
_SOLID
370
9
 10
-0.0947432368993759
 20
0.567380428314209
 11
-0.134741082787514
 21
0.567380428314209
  0
LINE
  5
1F1
100
AcDbEntity
  8
SEMA2D
100
AcDbLine
 62
7
  6
_SOLID
370
9
 10
-0.18781390786171
 20
0.554969668388367
 11
-0.181172043085098
 21
0.554969668388367
  0
LINE
  5
1F2
100
AcDbEntity
  8
SEMA2D
100
AcDbLine
 62
7
  6
_SOLID
370
9
 10
-0.16273033618927
 20
0.552571594715118
 11
-0.162284478545189
 21
0.552571594715118
  0
LINE
  5
1F3
100
AcDbEntity
  8
SEMA2D
100
AcDbLine
 62
7
  6
_SOLID
370
9
 10
-0.159850060939789
 20
0.554969668388367
 11
-0.16516475379467
 21
0.554969668388367
  0
LINE
  5
1F4
100
AcDbEntity
  8
SEMA2D
100
AcDbLine
 62
7
  6
_SOLID
370
9
 10
-0.0965831726789474
 20
0.571970760822296
 11
-0.0986731648445129
 21
0.573704481124878
  0
LINE
  5
1F5
100
AcDbEntity
  8
SEMA2D
100
AcDbLine
 62
7
  6
_SOLID
370
9
 10
-0.092760793864727
 20
0.594530522823334
 11
-0.0972174406051636
 21
0.595477819442749
  0
LINE
  5
1F6
100
AcDbEntity
  8
SEMA2D
100
AcDbLine
 62
7
  6
_SOLID
370
9
 10
-0.0940661206841469
 20
0.592724859714508
 11
-0.0985227599740028
 21
0.593672156333923
  0
LINE
  5
1F7
100
AcDbEntity
  8
SEMA2D
100
AcDbLine
 62
7
  6
_SOLID
370
9
 10
-0.189043655991554
 20
0.603674471378326
 11
-0.0672076568007469
 21
0.603674471378326
  0
LINE
  5
1F8
100
AcDbEntity
  8
SEMA2D
100
AcDbLine
 62
7
  6
_SOLID
370
9
 10
-0.0914554819464684
 20
0.602268815040588
 11
-0.0706828832626343
 21
0.602268815040588
  0
LINE
  5
1F9
100
AcDbEntity
  8
SEMA2D
100
AcDbLine
 62
7
  6
_SOLID
370
9
 10
-0.162139773368835
 20
0.601490497589111
 11
-0.0985227599740028
 21
0.601490497589111
  0
LINE
  5
1FA
100
AcDbEntity
  8
SEMA2D
100
AcDbLine
 62
7
  6
_SOLID
370
9
 10
-0.17151828110218
 20
0.602722823619843
 11
-0.185723587870598
 21
0.602722823619843
  0
LINE
  5
1FB
100
AcDbEntity
  8
SEMA2D
100
AcDbLine
 62
7
  6
_SOLID
370
9
 10
-0.185723587870598
 20
0.602722823619843
 11
-0.18858215212822
 21
0.603212952613831
  0
LINE
  5
1FC
100
AcDbEntity
  8
SEMA2D
100
AcDbLine
 62
7
  6
_SOLID
370
9
 10
-0.18858215212822
 20
0.603212952613831
 11
-0.0676691606640816
 21
0.603212952613831
  0
LINE
  5
1FD
100
AcDbEntity
  8
SEMA2D
100
AcDbLine
 62
7
  6
_SOLID
370
9
 10
-0.185723587870598
 20
0.600894808769226
 11
-0.171262323856354
 21
0.600894808769226
  0
LINE
  5
1FE
100
AcDbEntity
  8
SEMA2D
100
AcDbLine
 62
7
  6
_SOLID
370
9
 10
-0.137526273727417
 20
0.588171899318695
 11
-0.0986596792936325
 21
0.588171899318695
  0
LINE
  5
1FF
100
AcDbEntity
  8
SEMA2D
100
AcDbLine
 62
7
  6
_SOLID
370
9
 10
-0.157862216234207
 20
0.588171064853668
 11
-0.144355073571205
 21
0.588171064853668
  0
LINE
  5
200
100
AcDbEntity
  8
SEMA2D
100
AcDbLine
 62
7
  6
_SOLID
370
9
 10
-0.171262323856354
 20
0.588276922702789
 11
-0.179377943277359
 21
0.588276922702789
  0
LINE
  5
201
100
AcDbEntity
  8
SEMA2D
100
AcDbLine
 62
7
  6
_SOLID
370
9
 10
-0.165965408086777
 20
0.589054048061371
 11
-0.159049302339554
 21
0.589053928852081
  0
LINE
  5
202
100
AcDbEntity
  8
SEMA2D
100
AcDbLine
 62
7
  6
_SOLID
370
9
 10
-0.0914421677589416
 20
0.588442742824554
 11
-0.0677256807684898
 21
0.588442742824554
  0
LINE
  5
203
100
AcDbEntity
  8
SEMA2D
100
AcDbLine
 62
7
  6
_SOLID
370
9
 10
-0.0914143398404121
 20
0.575606644153595
 11
-0.0940834209322929
 21
0.575983166694641
  0
LINE
  5
204
100
AcDbEntity
  8
SEMA2D
100
AcDbLine
 62
7
  6
_SOLID
370
9
 10
-0.0913511589169502
 20
0.587354958057404
 11
-0.0940596461296082
 21
0.587354958057404
  0
LINE
  5
205
100
AcDbEntity
  8
SEMA2D
100
AcDbLine
 62
7
  6
_SOLID
370
9
 10
-0.0972174406051636
 20
0.599662482738495
 11
-0.092760793864727
 21
0.600288808345795
  0
LINE
  5
206
100
AcDbEntity
  8
SEMA2D
100
AcDbLine
 62
7
  6
_SOLID
370
9
 10
-0.167361542582512
 20
0.588015675544739
 11
-0.179173141717911
 21
0.588015675544739
  0
LINE
  5
207
100
AcDbEntity
  8
SEMA2D
100
AcDbLine
 62
7
  6
_SOLID
370
9
 10
-0.0985227599740028
 20
0.601490497589111
 11
-0.0940661206841469
 21
0.602116823196411
  0
LINE
  5
208
100
AcDbEntity
  8
SEMA2D
100
AcDbLine
 62
7
  6
_SOLID
370
9
 10
-0.163957729935646
 20
0.595477819442749
 11
-0.0972174406051636
 21
0.595477819442749
  0
LINE
  5
209
100
AcDbEntity
  8
SEMA2D
100
AcDbLine
 62
7
  6
_SOLID
370
9
 10
-0.0688649266958237
 20
0.59430068731308
 11
-0.0914554744958878
 21
0.59430068731308
  0
LINE
  5
20A
100
AcDbEntity
  8
SEMA2D
100
AcDbLine
 62
7
  6
_SOLID
370
9
 10
-0.163957729935646
 20
0.599662482738495
 11
-0.0972174406051636
 21
0.599662482738495
  0
LINE
  5
20B
100
AcDbEntity
  8
SEMA2D
100
AcDbLine
 62
7
  6
_SOLID
370
9
 10
-0.18781390786171
 20
0.600624978542328
 11
-0.186008259654045
 21
0.600624978542328
  0
LINE
  5
20C
100
AcDbEntity
  8
SEMA2D
100
AcDbLine
 62
7
  6
_SOLID
370
9
 10
-0.0914554744958878
 20
0.600440800189972
 11
-0.0688649266958237
 21
0.600440800189972
  0
LINE
  5
20D
100
AcDbEntity
  8
SEMA2D
100
AcDbLine
 62
7
  6
_SOLID
370
9
 10
-0.171262323856354
 20
0.590082585811615
 11
-0.179377943277359
 21
0.590082585811615
  0
LINE
  5
20E
100
AcDbEntity
  8
SEMA2D
100
AcDbLine
 62
7
  6
_SOLID
370
9
 10
-0.137526273727417
 20
0.589977562427521
 11
-0.0986597165465355
 21
0.589977562427521
  0
LINE
  5
20F
100
AcDbEntity
  8
SEMA2D
100
AcDbLine
 62
7
  6
_SOLID
370
9
 10
-0.0965831726789474
 20
0.592054069042206
 11
-0.0703171044588089
 21
0.592054069042206
  0
LINE
  5
210
100
AcDbEntity
  8
SEMA2D
100
AcDbLine
 62
7
  6
_SOLID
370
9
 10
-0.0985227599740028
 20
0.593672156333923
 11
-0.162139773368835
 21
0.593672156333923
  0
LINE
  5
211
100
AcDbEntity
  8
SEMA2D
100
AcDbLine
 62
7
  6
_SOLID
370
9
 10
-0.0706828832626343
 20
0.592495024204254
 11
-0.0914554819464684
 21
0.592495024204254
  0
LINE
  5
212
100
AcDbEntity
  8
SEMA2D
100
AcDbLine
 62
7
  6
_SOLID
370
9
 10
-0.140531331300735
 20
0.175324961543083
 11
-0.124631404876709
 21
0.177524492144585
  0
LINE
  5
213
100
AcDbEntity
  8
SEMA2D
100
AcDbLine
 62
7
  6
_SOLID
370
9
 10
-0.124631404876709
 20
0.177524492144585
 11
-0.133696421980858
 21
0.176270470023155
  0
ARC
  5
214
100
AcDbEntity
  8
SEMA2D
100
AcDbCircle
 62
7
  6
_SOLID
370
9
 10
24.3935413360596
 20
0.362518310546875
 40
24.4891414642334
100
AcDbArc
 50
179.520690917969
 51
180.361145019531
  0
ARC
  5
215
100
AcDbEntity
  8
SEMA2D
100
AcDbCircle
 62
7
  6
_SOLID
370
9
 10
-32.3366737365723
 20
0.136063247919083
 40
32.2371368408203
100
AcDbArc
 50
0.129902243614197
 51
0.763381063938141
  0
ARC
  5
216
100
AcDbEntity
  8
SEMA2D
100
AcDbCircle
 62
7
  6
_SOLID
370
9
 10
-146.682876586914
 20
1.06344795227051
 40
146.55549621582
100
AcDbArc
 50
359.665618896484
 51
359.803955078125
  0
ARC
  5
217
100
AcDbEntity
  8
SEMA2D
100
AcDbCircle
 62
7
  6
_SOLID
370
9
 10
-25.3724975585938
 20
0.361745685338974
 40
25.2385940551758
100
AcDbArc
 50
359.651336669922
 51
0.466830044984818
  0
LINE
  5
218
100
AcDbEntity
  8
SEMA2D
100
AcDbLine
 62
7
  6
_SOLID
370
9
 10
-0.128235131502151
 20
0.561980783939362
 11
-0.128235131502151
 21
0.56556248664856
  0
LINE
  5
219
100
AcDbEntity
  8
SEMA2D
100
AcDbLine
 62
7
  6
_SOLID
370
9
 10
-0.095113642513752
 20
0.208157911896706
 11
-0.095113642513752
 21
0.201157912611961
  0
LINE
  5
21A
100
AcDbEntity
  8
SEMA2D
100
AcDbLine
 62
7
  6
_SOLID
370
9
 10
-0.0996174514293671
 20
0.209151938557625
 11
-0.0996174514293671
 21
0.201157912611961
  0
LINE
  5
21B
100
AcDbEntity
  8
SEMA2D
100
AcDbLine
 62
7
  6
_SOLID
370
9
 10
-0.134370669722557
 20
0.208157911896706
 11
-0.134370669722557
 21
0.201157912611961
  0
LINE
  5
21C
100
AcDbEntity
  8
SEMA2D
100
AcDbLine
 62
7
  6
_SOLID
370
9
 10
-0.129873126745224
 20
0.20812326669693
 11
-0.129873126745224
 21
0.201157912611961
  0
ARC
  5
21D
100
AcDbEntity
  8
SEMA2D
100
AcDbCircle
 62
7
  6
_SOLID
370
9
 10
-0.131172850728035
 20
0.796124815940857
 40
0.00092299998505041
100
AcDbArc
 50
270
 51
-3.5
  0
ARC
  5
21E
100
AcDbEntity
  8
SEMA2D
100
AcDbCircle
 62
7
  6
_SOLID
370
9
 10
-0.141170844435692
 20
0.796124815940857
 40
0.00092299998505041
100
AcDbArc
 50
209.999938964844
 51
270
  0
ARC
  5
21F
100
AcDbEntity
  8
SEMA2D
100
AcDbCircle
 62
7
  6
_SOLID
370
9
 10
-0.0931916236877441
 20
0.798340022563934
 40
0.00175369996577501
100
AcDbArc
 50
270
 51
352
  0
ARC
  5
220
100
AcDbEntity
  8
SEMA2D
100
AcDbCircle
 62
7
  6
_SOLID
370
9
 10
-0.143568858504295
 20
0.794740319252014
 40
0.00184599845670164
100
AcDbArc
 50
30.0000553131103
 51
90
  0
ARC
  5
221
100
AcDbEntity
  8
SEMA2D
100
AcDbCircle
 62
7
  6
_SOLID
370
9
 10
-0.100317247211933
 20
0.796124815940857
 40
0.00092299998505041
100
AcDbArc
 50
189.999969482422
 51
270
  0
ARC
  5
222
100
AcDbEntity
  8
SEMA2D
100
AcDbCircle
 62
7
  6
_SOLID
370
9
 10
-0.162139773368835
 20
0.836275279521942
 40
0.00184599997010082
100
AcDbArc
 50
90
 51
170
  0
ARC
  5
223
100
AcDbEntity
  8
SEMA2D
100
AcDbCircle
 62
7
  6
_SOLID
370
9
 10
-0.183909773826599
 20
0.798432290554047
 40
0.00184599997010082
100
AcDbArc
 50
200
 51
270
  0
ARC
  5
224
100
AcDbEntity
  8
SEMA2D
100
AcDbCircle
 62
7
  6
_SOLID
370
9
 10
-0.0441627241671085
 20
0.830737292766571
 40
0.00184599997010082
100
AcDbArc
 50
12
 51
90
  0
ARC
  5
225
100
AcDbEntity
  8
SEMA2D
100
AcDbCircle
 62
7
  6
_SOLID
370
9
 10
-0.102066896855831
 20
0.78274130821228
 40
0.00092299998505041
100
AcDbArc
 50
270
 51
345
  0
ARC
  5
226
100
AcDbEntity
  8
SEMA2D
100
AcDbCircle
 62
7
  6
_SOLID
370
9
 10
-0.142646908760071
 20
0.78274130821228
 40
0.00092299998505041
100
AcDbArc
 50
195
 51
270
  0
ARC
  5
227
100
AcDbEntity
  8
SEMA2D
100
AcDbCircle
 62
7
  6
_SOLID
370
9
 10
-0.0602128803730011
 20
0.81273877620697
 40
0.00461499998345971
100
AcDbArc
 50
90
 51
165
  0
ARC
  5
228
100
AcDbEntity
  8
SEMA2D
100
AcDbCircle
 62
7
  6
_SOLID
370
9
 10
-0.0742355659604073
 20
0.814584791660309
 40
0.00461499998345971
100
AcDbArc
 50
15
 51
90
  0
ARC
  5
229
100
AcDbEntity
  8
SEMA2D
100
AcDbCircle
 62
7
  6
_SOLID
370
9
 10
-0.0707290470600128
 20
0.81633847951889
 40
0.00175369996577501
100
AcDbArc
 50
270
 51
270
  0
ARC
  5
22A
100
AcDbEntity
  8
SEMA2D
100
AcDbCircle
 62
7
  6
_SOLID
370
9
 10
-0.139227837324142
 20
0.830737292766571
 40
0.00184599997010082
100
AcDbArc
 50
90
 51
176.5
  0
ARC
  5
22B
100
AcDbEntity
  8
SEMA2D
100
AcDbCircle
 62
7
  6
_SOLID
370
9
 10
-0.0875329300761223
 20
0.81273877620697
 40
0.00184599997010082
100
AcDbArc
 50
90
 51
172
  0
ARC
  5
22C
100
AcDbEntity
  8
SEMA2D
100
AcDbCircle
 62
7
  6
_SOLID
370
9
 10
-0.149578601121902
 20
0.793632686138153
 40
0.00295359850861132
100
AcDbArc
 50
15.0000152587891
 51
90
  0
ARC
  5
22D
100
AcDbEntity
  8
SEMA2D
100
AcDbCircle
 62
7
  6
_SOLID
370
9
 10
-0.0671756714582443
 20
0.813200294971466
 40
0.00184599997010082
100
AcDbArc
 50
195
 51
270
  0
ARC
  5
22E
100
AcDbEntity
  8
SEMA2D
100
AcDbCircle
 62
7
  6
_SOLID
370
9
 10
-0.131956443190575
 20
0.798432290554047
 40
0.00184599997010082
100
AcDbArc
 50
270
 51
-3.5
  0
ARC
  5
22F
100
AcDbEntity
  8
SEMA2D
100
AcDbCircle
 62
7
  6
_SOLID
370
9
 10
-0.0926640853285789
 20
0.796124815940857
 40
0.00092299998505041
100
AcDbArc
 50
270
 51
-8.00000190734863
  0
ARC
  5
230
100
AcDbEntity
  8
SEMA2D
100
AcDbCircle
 62
7
  6
_SOLID
370
9
 10
-0.0956004559993744
 20
0.798432290554047
 40
0.00184599997010082
100
AcDbArc
 50
188
 51
270
  0
ARC
  5
231
100
AcDbEntity
  8
SEMA2D
100
AcDbCircle
 62
7
  6
_SOLID
370
9
 10
-0.0914554819464684
 20
0.834429323673248
 40
0.00184599997010082
100
AcDbArc
 50
225.000274658203
 51
270
  0
ARC
  5
232
100
AcDbEntity
  8
SEMA2D
100
AcDbCircle
 62
7
  6
_SOLID
370
9
 10
-0.0454840622842312
 20
0.813200294971466
 40
0.00184599997010082
100
AcDbArc
 50
270
 51
345
  0
ARC
  5
233
100
AcDbEntity
  8
SEMA2D
100
AcDbCircle
 62
7
  6
_SOLID
370
9
 10
-0.0985227599740028
 20
0.836275279521942
 40
0.00184599997010082
100
AcDbArc
 50
45
 51
90
  0
ARC
  5
234
100
AcDbEntity
  8
SEMA2D
100
AcDbCircle
 62
7
  6
_SOLID
370
9
 10
-0.0667781457304954
 20
0.813200294971466
 40
0.00184599997010082
100
AcDbArc
 50
270
 51
345
  0
ARC
  5
235
100
AcDbEntity
  8
SEMA2D
100
AcDbCircle
 62
7
  6
_SOLID
370
9
 10
-0.0951352119445801
 20
0.793632686138153
 40
0.00295359850861132
100
AcDbArc
 50
147.891143798828
 51
164.999984741211
  0
ARC
  5
236
100
AcDbEntity
  8
SEMA2D
100
AcDbCircle
 62
7
  6
_SOLID
370
9
 10
-0.179173141717911
 20
0.81043130159378
 40
0.00184599997010082
100
AcDbArc
 50
189.459991455078
 51
270
  0
ARC
  5
237
100
AcDbEntity
  8
SEMA2D
100
AcDbCircle
 62
7
  6
_SOLID
370
9
 10
-0.145731583237648
 20
0.81209272146225
 40
0.00350739993155003
100
AcDbArc
 50
270
 51
356.5
  0
ARC
  5
238
100
AcDbEntity
  8
SEMA2D
100
AcDbCircle
 62
7
  6
_SOLID
370
9
 10
-0.167361542582512
 20
0.81043130159378
 40
0.00184599997010082
100
AcDbArc
 50
270
 51
344.049987792969
  0
ARC
  5
239
100
AcDbEntity
  8
SEMA2D
100
AcDbCircle
 62
7
  6
_SOLID
370
9
 10
-0.171262323856354
 20
0.816430807113647
 40
0.00369199994020164
100
AcDbArc
 50
270
 51
350
  0
ARC
  5
23A
100
AcDbEntity
  8
SEMA2D
100
AcDbCircle
 62
7
  6
_SOLID
370
9
 10
-0.157653272151947
 20
0.81043130159378
 40
0.00184599997010082
100
AcDbArc
 50
195.949996948242
 51
270
  0
ARC
  5
23B
100
AcDbEntity
  8
SEMA2D
100
AcDbCircle
 62
7
  6
_SOLID
370
9
 10
-0.14583857357502
 20
0.798432290554047
 40
0.00184599997010082
100
AcDbArc
 50
210
 51
270
  0
ARC
  5
23C
100
AcDbEntity
  8
SEMA2D
100
AcDbCircle
 62
7
  6
_SOLID
370
9
 10
-0.168561741709709
 20
0.798432290554047
 40
0.00184599997010082
100
AcDbArc
 50
270
 51
330
  0
ARC
  5
23D
100
AcDbEntity
  8
SEMA2D
100
AcDbCircle
 62
7
  6
_SOLID
370
9
 10
-0.165364369750023
 20
0.796586275100708
 40
0.00184599997010082
100
AcDbArc
 50
90
 51
150
  0
ARC
  5
23E
100
AcDbEntity
  8
SEMA2D
100
AcDbCircle
 62
7
  6
_SOLID
370
9
 10
-0.149035945534706
 20
0.796586275100708
 40
0.00184599997010082
100
AcDbArc
 50
30
 51
90
  0
ARC
  5
23F
100
AcDbEntity
  8
SEMA2D
100
AcDbCircle
 62
7
  6
_SOLID
370
9
 10
-0.0634336844086647
 20
0.813200294971466
 40
0.00138449994847178
100
AcDbArc
 50
90
 51
152.876556396484
  0
ARC
  5
240
100
AcDbEntity
  8
SEMA2D
100
AcDbCircle
 62
7
  6
_SOLID
370
9
 10
-0.0498315468430519
 20
0.81273877620697
 40
0.00184599997010082
100
AcDbArc
 50
20
 51
90
  0
ARC
  5
241
100
AcDbEntity
  8
SEMA2D
100
AcDbCircle
 62
7
  6
_SOLID
370
9
 10
-0.0705201327800751
 20
0.813200294971466
 40
0.00138449994847178
100
AcDbArc
 50
15.0000009536743
 51
90
  0
ARC
  5
242
100
AcDbEntity
  8
SEMA2D
100
AcDbCircle
 62
7
  6
_SOLID
370
9
 10
-0.0527782551944256
 20
0.81273877620697
 40
0.00461499998345971
100
AcDbArc
 50
20
 51
90
  0
ARC
  5
243
100
AcDbEntity
  8
SEMA2D
100
AcDbCircle
 62
7
  6
_SOLID
370
9
 10
-0.0844772756099701
 20
0.814584791660309
 40
0.00461499998345971
100
AcDbArc
 50
90
 51
172
  0
ARC
  5
244
100
AcDbEntity
  8
SEMA2D
100
AcDbCircle
 62
7
  6
_SOLID
370
9
 10
-0.162284478545189
 20
0.813200294971466
 40
0.00184599997010082
100
AcDbArc
 50
15.9499998092651
 51
90
  0
ARC
  5
245
100
AcDbEntity
  8
SEMA2D
100
AcDbCircle
 62
7
  6
_SOLID
370
9
 10
-0.16273033618927
 20
0.813200294971466
 40
0.00184599997010082
100
AcDbArc
 50
90
 51
164.050003051758
  0
ARC
  5
246
100
AcDbEntity
  8
SEMA2D
100
AcDbCircle
 62
7
  6
_SOLID
370
9
 10
-0.046135202050209
 20
0.813108026981354
 40
0.00175369996577501
100
AcDbArc
 50
200
 51
270
  0
ARC
  5
247
100
AcDbEntity
  8
SEMA2D
100
AcDbCircle
 62
7
  6
_SOLID
370
9
 10
-0.185125395655632
 20
0.815046310424805
 40
0.00184599997010082
100
AcDbArc
 50
90
 51
168
  0
ARC
  5
248
100
AcDbEntity
  8
SEMA2D
100
AcDbCircle
 62
7
  6
_SOLID
370
9
 10
-0.183685019612312
 20
0.815046310424805
 40
0.00184599997010082
100
AcDbArc
 50
9.45999908447266
 51
90
  0
LINE
  5
249
100
AcDbEntity
  8
SEMA2D
100
AcDbLine
 62
7
  6
_SOLID
370
9
 10
-0.142230734229088
 20
0.811878561973572
 11
-0.141070395708084
 21
0.830850005149841
  0
LINE
  5
24A
100
AcDbEntity
  8
SEMA2D
100
AcDbLine
 62
7
  6
_SOLID
370
9
 10
-0.144073292613029
 20
0.811607480049133
 11
-0.143975213170052
 21
0.813210904598236
  0
LINE
  5
24B
100
AcDbEntity
  8
SEMA2D
100
AcDbLine
 62
7
  6
_SOLID
370
9
 10
-0.153783082962036
 20
0.797047793865204
 11
-0.147121906280518
 21
0.808585286140442
  0
LINE
  5
24C
100
AcDbEntity
  8
SEMA2D
100
AcDbLine
 62
7
  6
_SOLID
370
9
 10
-0.147886976599693
 20
0.798030138015747
 11
-0.12922129034996
 21
0.830360054969788
  0
LINE
  5
24D
100
AcDbEntity
  8
SEMA2D
100
AcDbLine
 62
7
  6
_SOLID
370
9
 10
-0.141876474022865
 20
0.81767064332962
 11
-0.133286148309708
 21
0.832549512386322
  0
LINE
  5
24E
100
AcDbEntity
  8
SEMA2D
100
AcDbLine
 62
7
  6
_SOLID
370
9
 10
-0.144050985574722
 20
0.794397175312042
 11
-0.140863820910454
 21
0.78250241279602
  0
LINE
  5
24F
100
AcDbEntity
  8
SEMA2D
100
AcDbLine
 62
7
  6
_SOLID
370
9
 10
-0.146725654602051
 20
0.794397175312042
 11
-0.14353846013546
 21
0.78250241279602
  0
LINE
  5
250
100
AcDbEntity
  8
SEMA2D
100
AcDbLine
 62
7
  6
_SOLID
370
9
 10
-0.144051000475883
 20
0.796586275100708
 11
-0.144051000475883
 21
0.794397175312042
  0
LINE
  5
251
100
AcDbEntity
  8
SEMA2D
100
AcDbLine
 62
7
  6
_SOLID
370
9
 10
-0.140197589993477
 20
0.796586275100708
 11
-0.140197589993477
 21
0.795201778411865
  0
LINE
  5
252
100
AcDbEntity
  8
SEMA2D
100
AcDbLine
 62
7
  6
_SOLID
370
9
 10
-0.140863820910454
 20
0.78250241279602
 11
-0.140863820910454
 21
0.781818330287933
  0
LINE
  5
253
100
AcDbEntity
  8
SEMA2D
100
AcDbLine
 62
7
  6
_SOLID
370
9
 10
-0.160805806517601
 20
0.797047793865204
 11
-0.152585163712502
 21
0.797047793865204
  0
LINE
  5
254
100
AcDbEntity
  8
SEMA2D
100
AcDbLine
 62
7
  6
_SOLID
370
9
 10
-0.0931916236877441
 20
0.796586275100708
 11
-0.183909773826599
 21
0.796586275100708
  0
LINE
  5
255
100
AcDbEntity
  8
SEMA2D
100
AcDbLine
 62
7
  6
_SOLID
370
9
 10
-0.0935736298561096
 20
0.795663297176361
 11
-0.0960754901170731
 21
0.795663297176361
  0
LINE
  5
256
100
AcDbEntity
  8
SEMA2D
100
AcDbLine
 62
7
  6
_SOLID
370
9
 10
-0.142646908760071
 20
0.781818330287933
 11
-0.102066896855831
 21
0.781818330287933
  0
LINE
  5
257
100
AcDbEntity
  8
SEMA2D
100
AcDbLine
 62
7
  6
_SOLID
370
9
 10
-0.170036360621452
 20
0.796586275100708
 11
-0.160390958189964
 21
0.813292622566223
  0
LINE
  5
258
100
AcDbEntity
  8
SEMA2D
100
AcDbLine
 62
7
  6
_SOLID
370
9
 10
-0.140863820910454
 20
0.78250241279602
 11
-0.103849999606609
 21
0.78250241279602
  0
LINE
  5
259
100
AcDbEntity
  8
SEMA2D
100
AcDbLine
 62
7
  6
_SOLID
370
9
 10
-0.159049302339554
 20
0.814932107925415
 11
-0.157862216234207
 21
0.810778617858887
  0
LINE
  5
25A
100
AcDbEntity
  8
SEMA2D
100
AcDbLine
 62
7
  6
_SOLID
370
9
 10
-0.160509541630745
 20
0.813707590103149
 11
-0.159428209066391
 21
0.809924006462097
  0
LINE
  5
25B
100
AcDbEntity
  8
SEMA2D
100
AcDbLine
 62
7
  6
_SOLID
370
9
 10
-0.167361542582512
 20
0.810047507286072
 11
-0.165965408086777
 21
0.814932465553284
  0
LINE
  5
25C
100
AcDbEntity
  8
SEMA2D
100
AcDbLine
 62
7
  6
_SOLID
370
9
 10
-0.162139773368835
 20
0.836659133434296
 11
-0.165808454155922
 21
0.81585294008255
  0
LINE
  5
25D
100
AcDbEntity
  8
SEMA2D
100
AcDbLine
 62
7
  6
_SOLID
370
9
 10
-0.165586605668068
 20
0.809924006462097
 11
-0.164505258202553
 21
0.813707590103149
  0
LINE
  5
25E
100
AcDbEntity
  8
SEMA2D
100
AcDbLine
 62
7
  6
_SOLID
370
9
 10
-0.175365298986435
 20
0.796586275100708
 11
-0.168437674641609
 21
0.808585286140442
  0
LINE
  5
25F
100
AcDbEntity
  8
SEMA2D
100
AcDbLine
 62
7
  6
_SOLID
370
9
 10
-0.180694237351418
 20
0.796586275100708
 11
-0.173766613006592
 21
0.808585286140442
  0
LINE
  5
260
100
AcDbEntity
  8
SEMA2D
100
AcDbLine
 62
7
  6
_SOLID
370
9
 10
-0.131956443190575
 20
0.794397175312042
 11
-0.144050985574722
 21
0.794397175312042
  0
LINE
  5
261
100
AcDbEntity
  8
SEMA2D
100
AcDbLine
 62
7
  6
_SOLID
370
9
 10
-0.0926640853285789
 20
0.795201778411865
 11
-0.100317247211933
 21
0.795201778411865
  0
LINE
  5
262
100
AcDbEntity
  8
SEMA2D
100
AcDbLine
 62
7
  6
_SOLID
370
9
 10
-0.140197589993477
 20
0.795663297176361
 11
-0.132087767124176
 21
0.795663297176361
  0
LINE
  5
263
100
AcDbEntity
  8
SEMA2D
100
AcDbLine
 62
7
  6
_SOLID
370
9
 10
-0.141170844435692
 20
0.795201778411865
 11
-0.131172850728035
 21
0.795201778411865
  0
LINE
  5
264
100
AcDbEntity
  8
SEMA2D
100
AcDbLine
 62
7
  6
_SOLID
370
9
 10
-0.152585163712502
 20
0.797047793865204
 11
-0.152148619294167
 21
0.798432290554047
  0
LINE
  5
265
100
AcDbEntity
  8
SEMA2D
100
AcDbLine
 62
7
  6
_SOLID
370
9
 10
-0.163641631603241
 20
0.798432290554047
 11
-0.157777205109596
 21
0.8085897564888
  0
LINE
  5
266
100
AcDbEntity
  8
SEMA2D
100
AcDbLine
 62
7
  6
_SOLID
370
9
 10
-0.141245052218437
 20
0.827994287014008
 11
-0.138595595955849
 21
0.83258330821991
  0
LINE
  5
267
100
AcDbEntity
  8
SEMA2D
100
AcDbLine
 62
7
  6
_SOLID
370
9
 10
-0.159112021327019
 20
0.797047793865204
 11
-0.1524508446455
 21
0.808585286140442
  0
LINE
  5
268
100
AcDbEntity
  8
SEMA2D
100
AcDbLine
 62
7
  6
_SOLID
370
9
 10
-0.171262323856354
 20
0.81273877620697
 11
-0.181429073214531
 21
0.81273877620697
  0
LINE
  5
269
100
AcDbEntity
  8
SEMA2D
100
AcDbLine
 62
7
  6
_SOLID
370
9
 10
-0.124621495604515
 20
0.796586275100708
 11
-0.124621495604515
 21
0.798175394535065
  0
LINE
  5
26A
100
AcDbEntity
  8
SEMA2D
100
AcDbLine
 62
7
  6
_SOLID
370
9
 10
-0.123828537762165
 20
0.811139523983002
 11
-0.124621450901032
 21
0.798175394535065
  0
LINE
  5
26B
100
AcDbEntity
  8
SEMA2D
100
AcDbLine
 62
7
  6
_SOLID
370
9
 10
-0.124367527663708
 20
0.811077058315277
 11
-0.117593474686146
 21
0.822810053825378
  0
LINE
  5
26C
100
AcDbEntity
  8
SEMA2D
100
AcDbLine
 62
7
  6
_SOLID
370
9
 10
-0.132733762264252
 20
0.796586275100708
 11
-0.129922032356262
 21
0.801456332206726
  0
LINE
  5
26D
100
AcDbEntity
  8
SEMA2D
100
AcDbLine
 62
7
  6
_SOLID
370
9
 10
-0.183685019612312
 20
0.816892325878143
 11
-0.185125395655632
 21
0.816892325878143
  0
LINE
  5
26E
100
AcDbEntity
  8
SEMA2D
100
AcDbLine
 62
7
  6
_SOLID
370
9
 10
-0.0527782551944256
 20
0.816430807113647
 11
-0.0602128803730011
 21
0.816430807113647
  0
LINE
  5
26F
100
AcDbEntity
  8
SEMA2D
100
AcDbLine
 62
7
  6
_SOLID
370
9
 10
-0.0527782551944256
 20
0.817353785037994
 11
-0.0602128803730011
 21
0.817353785037994
  0
LINE
  5
270
100
AcDbEntity
  8
SEMA2D
100
AcDbLine
 62
7
  6
_SOLID
370
9
 10
-0.0742355659604073
 20
0.819199800491333
 11
-0.0844772756099701
 21
0.819199800491333
  0
LINE
  5
271
100
AcDbEntity
  8
SEMA2D
100
AcDbLine
 62
7
  6
_SOLID
370
9
 10
-0.0844772756099701
 20
0.818276822566986
 11
-0.0742355659604073
 21
0.818276822566986
  0
LINE
  5
272
100
AcDbEntity
  8
SEMA2D
100
AcDbLine
 62
7
  6
_SOLID
370
9
 10
-0.0634336918592453
 20
0.814584791660309
 11
-0.0498315393924713
 21
0.814584791660309
  0
LINE
  5
273
100
AcDbEntity
  8
SEMA2D
100
AcDbLine
 62
7
  6
_SOLID
370
9
 10
-0.0875329226255417
 20
0.814584791660309
 11
-0.0704962760210037
 21
0.814584791660309
  0
LINE
  5
274
100
AcDbEntity
  8
SEMA2D
100
AcDbLine
 62
7
  6
_SOLID
370
9
 10
-0.162284478545189
 20
0.815046310424805
 11
-0.16273033618927
 21
0.815046310424805
  0
LINE
  5
275
100
AcDbEntity
  8
SEMA2D
100
AcDbLine
 62
7
  6
_SOLID
370
9
 10
-0.0622767917811871
 20
0.8155078291893
 11
-0.0507143475115299
 21
0.8155078291893
  0
LINE
  5
276
100
AcDbEntity
  8
SEMA2D
100
AcDbLine
 62
7
  6
_SOLID
370
9
 10
-0.0872734934091568
 20
0.8155078291893
 11
-0.0713688805699348
 21
0.8155078291893
  0
LINE
  5
277
100
AcDbEntity
  8
SEMA2D
100
AcDbLine
 62
7
  6
_SOLID
370
9
 10
-0.0667781457304954
 20
0.811354279518127
 11
-0.0671756714582443
 21
0.811354279518127
  0
LINE
  5
278
100
AcDbEntity
  8
SEMA2D
100
AcDbLine
 62
7
  6
_SOLID
370
9
 10
-0.132087767124176
 20
0.795201778411865
 11
-0.132087752223015
 21
0.796586275100708
  0
LINE
  5
279
100
AcDbEntity
  8
SEMA2D
100
AcDbLine
 62
7
  6
_SOLID
370
9
 10
-0.131956443190575
 20
0.795201778411865
 11
-0.131956443190575
 21
0.794397175312042
  0
LINE
  5
27A
100
AcDbEntity
  8
SEMA2D
100
AcDbLine
 62
7
  6
_SOLID
370
9
 10
-0.130251571536064
 20
0.796068429946899
 11
-0.130219906568527
 21
0.796586275100708
  0
LINE
  5
27B
100
AcDbEntity
  8
SEMA2D
100
AcDbLine
 62
7
  6
_SOLID
370
9
 10
-0.129596069455147
 20
0.806785821914673
 11
-0.130113884806633
 21
0.798319578170776
  0
LINE
  5
27C
100
AcDbEntity
  8
SEMA2D
100
AcDbLine
 62
7
  6
_SOLID
370
9
 10
-0.165364369750023
 20
0.798432290554047
 11
-0.161440998315811
 21
0.798432290554047
  0
LINE
  5
27D
100
AcDbEntity
  8
SEMA2D
100
AcDbLine
 62
7
  6
_SOLID
370
9
 10
-0.152148619294167
 20
0.798432290554047
 11
-0.149035945534706
 21
0.798432290554047
  0
LINE
  5
27E
100
AcDbEntity
  8
SEMA2D
100
AcDbLine
 62
7
  6
_SOLID
370
9
 10
-0.167361542582512
 20
0.810047507286072
 11
-0.179173141717911
 21
0.810047507286072
  0
LINE
  5
27F
100
AcDbEntity
  8
SEMA2D
100
AcDbLine
 62
7
  6
_SOLID
370
9
 10
-0.167361542582512
 20
0.808585286140442
 11
-0.179173141717911
 21
0.808585286140442
  0
LINE
  5
280
100
AcDbEntity
  8
SEMA2D
100
AcDbLine
 62
7
  6
_SOLID
370
9
 10
-0.157862216234207
 20
0.810778617858887
 11
-0.144355073571205
 21
0.810778617858887
  0
LINE
  5
281
100
AcDbEntity
  8
SEMA2D
100
AcDbLine
 62
7
  6
_SOLID
370
9
 10
-0.0454840622842312
 20
0.811354279518127
 11
-0.046135202050209
 21
0.811354279518127
  0
LINE
  5
282
100
AcDbEntity
  8
SEMA2D
100
AcDbLine
 62
7
  6
_SOLID
370
9
 10
-0.171262323856354
 20
0.811276614665985
 11
-0.179377943277359
 21
0.811276614665985
  0
LINE
  5
283
100
AcDbEntity
  8
SEMA2D
100
AcDbLine
 62
7
  6
_SOLID
370
9
 10
-0.138062700629234
 20
0.796586275100708
 11
-0.122151993215084
 21
0.82414448261261
  0
LINE
  5
284
100
AcDbEntity
  8
SEMA2D
100
AcDbLine
 62
7
  6
_SOLID
370
9
 10
-0.143391638994217
 20
0.796586275100708
 11
-0.126015990972519
 21
0.826681792736054
  0
LINE
  5
285
100
AcDbEntity
  8
SEMA2D
100
AcDbLine
 62
7
  6
_SOLID
370
9
 10
-0.187889903783798
 20
0.803970277309418
 11
-0.189043655991554
 21
0.803970277309418
  0
LINE
  5
286
100
AcDbEntity
  8
SEMA2D
100
AcDbLine
 62
7
  6
_SOLID
370
9
 10
-0.145731583237648
 20
0.808585286140442
 11
-0.157653272151947
 21
0.808585286140442
  0
LINE
  5
287
100
AcDbEntity
  8
SEMA2D
100
AcDbLine
 62
7
  6
_SOLID
370
9
 10
-0.189043655991554
 20
0.807662308216095
 11
-0.18858215212822
 21
0.807662308216095
  0
LINE
  5
288
100
AcDbEntity
  8
SEMA2D
100
AcDbLine
 62
7
  6
_SOLID
370
9
 10
-0.186931058764458
 20
0.815430104732513
 11
-0.18858215212822
 21
0.807662308216095
  0
LINE
  5
289
100
AcDbEntity
  8
SEMA2D
100
AcDbLine
 62
7
  6
_SOLID
370
9
 10
-0.189043655991554
 20
0.803970277309418
 11
-0.189043655991554
 21
0.807662308216095
  0
LINE
  5
28A
100
AcDbEntity
  8
SEMA2D
100
AcDbLine
 62
7
  6
_SOLID
370
9
 10
-0.185644447803497
 20
0.797800958156586
 11
-0.187889903783798
 21
0.803970277309418
  0
LINE
  5
28B
100
AcDbEntity
  8
SEMA2D
100
AcDbLine
 62
7
  6
_SOLID
370
9
 10
-0.179173141717911
 20
0.810047507286072
 11
-0.179173141717911
 21
0.808585286140442
  0
LINE
  5
28C
100
AcDbEntity
  8
SEMA2D
100
AcDbLine
 62
7
  6
_SOLID
370
9
 10
-0.179377943277359
 20
0.811276614665985
 11
-0.179377943277359
 21
0.81273877620697
  0
LINE
  5
28D
100
AcDbEntity
  8
SEMA2D
100
AcDbLine
 62
7
  6
_SOLID
370
9
 10
-0.167361542582512
 20
0.810047507286072
 11
-0.167361542582512
 21
0.808585286140442
  0
LINE
  5
28E
100
AcDbEntity
  8
SEMA2D
100
AcDbLine
 62
7
  6
_SOLID
370
9
 10
-0.18549881875515
 20
0.797494530677795
 11
-0.179095566272736
 21
0.808585286140442
  0
LINE
  5
28F
100
AcDbEntity
  8
SEMA2D
100
AcDbLine
 62
7
  6
_SOLID
370
9
 10
-0.163957729935646
 20
0.836595833301544
 11
-0.167626410722733
 21
0.815789699554443
  0
LINE
  5
290
100
AcDbEntity
  8
SEMA2D
100
AcDbLine
 62
7
  6
_SOLID
370
9
 10
-0.162139773368835
 20
0.836659133434296
 11
-0.162139773368835
 21
0.838121294975281
  0
LINE
  5
291
100
AcDbEntity
  8
SEMA2D
100
AcDbLine
 62
7
  6
_SOLID
370
9
 10
-0.181864127516747
 20
0.815349698066711
 11
-0.180994033813477
 21
0.810127913951874
  0
LINE
  5
292
100
AcDbEntity
  8
SEMA2D
100
AcDbLine
 62
7
  6
_SOLID
370
9
 10
-0.187589168548584
 20
0.812333941459656
 11
-0.184957399964333
 21
0.816892325878143
  0
LINE
  5
293
100
AcDbEntity
  8
SEMA2D
100
AcDbLine
 62
7
  6
_SOLID
370
9
 10
-0.179377943277359
 20
0.811276614665985
 11
-0.179173141717911
 21
0.810047507286072
  0
LINE
  5
294
100
AcDbEntity
  8
SEMA2D
100
AcDbLine
 62
7
  6
_SOLID
370
9
 10
-0.187580212950706
 20
0.803119421005249
 11
-0.18156287074089
 21
0.813541769981384
  0
LINE
  5
295
100
AcDbEntity
  8
SEMA2D
100
AcDbLine
 62
7
  6
_SOLID
370
9
 10
-0.171262323856354
 20
0.811276614665985
 11
-0.171262323856354
 21
0.81273877620697
  0
LINE
  5
296
100
AcDbEntity
  8
SEMA2D
100
AcDbLine
 62
7
  6
_SOLID
370
9
 10
-0.165965408086777
 20
0.814932465553284
 11
-0.163367718458176
 21
0.814932346343994
  0
LINE
  5
297
100
AcDbEntity
  8
SEMA2D
100
AcDbLine
 62
7
  6
_SOLID
370
9
 10
-0.108887724578381
 20
0.810198843479156
 11
-0.095972828567028
 21
0.832568109035492
  0
LINE
  5
298
100
AcDbEntity
  8
SEMA2D
100
AcDbLine
 62
7
  6
_SOLID
370
9
 10
-0.10291264206171
 20
0.798175394535065
 11
-0.104821801185608
 21
0.811759769916534
  0
LINE
  5
299
100
AcDbEntity
  8
SEMA2D
100
AcDbLine
 62
7
  6
_SOLID
370
9
 10
-0.13391686975956
 20
0.83258330821991
 11
-0.139227837324142
 21
0.83258330821991
  0
LINE
  5
29A
100
AcDbEntity
  8
SEMA2D
100
AcDbLine
 62
7
  6
_SOLID
370
9
 10
-0.103849999606609
 20
0.78250241279602
 11
-0.103849999606609
 21
0.781818330287933
  0
LINE
  5
29B
100
AcDbEntity
  8
SEMA2D
100
AcDbLine
 62
7
  6
_SOLID
370
9
 10
-0.102912589907646
 20
0.796586275100708
 11
-0.102912589907646
 21
0.798175394535065
  0
LINE
  5
29C
100
AcDbEntity
  8
SEMA2D
100
AcDbLine
 62
7
  6
_SOLID
370
9
 10
-0.102824851870537
 20
0.811470031738281
 11
-0.0906351059675217
 21
0.83258330821991
  0
LINE
  5
29D
100
AcDbEntity
  8
SEMA2D
100
AcDbLine
 62
7
  6
_SOLID
370
9
 10
-0.102395862340927
 20
0.831057846546173
 11
-0.127088457345963
 21
0.831057846546173
  0
LINE
  5
29E
100
AcDbEntity
  8
SEMA2D
100
AcDbLine
 62
7
  6
_SOLID
370
9
 10
-0.0958844423294067
 20
0.83258330821991
 11
-0.133601769804955
 21
0.83258330821991
  0
LINE
  5
29F
100
AcDbEntity
  8
SEMA2D
100
AcDbLine
 62
7
  6
_SOLID
370
9
 10
-0.0441627241671085
 20
0.83258330821991
 11
-0.09556744992733
 21
0.83258330821991
  0
LINE
  5
2A0
100
AcDbEntity
  8
SEMA2D
100
AcDbLine
 62
7
  6
_SOLID
370
9
 10
-0.161646798253059
 20
0.814932227134705
 11
-0.159049302339554
 21
0.814932107925415
  0
LINE
  5
2A1
100
AcDbEntity
  8
SEMA2D
100
AcDbLine
 62
7
  6
_SOLID
370
9
 10
-0.0415944084525108
 20
0.820584297180176
 11
-0.0404406562447548
 21
0.820584297180176
  0
LINE
  5
2A2
100
AcDbEntity
  8
SEMA2D
100
AcDbLine
 62
7
  6
_SOLID
370
9
 10
-0.113819159567356
 20
0.824738025665283
 11
-0.115665160119534
 21
0.824737787246704
  0
LINE
  5
2A3
100
AcDbEntity
  8
SEMA2D
100
AcDbLine
 62
7
  6
_SOLID
370
9
 10
-0.0404406562447548
 20
0.824276328086853
 11
-0.0409021563827991
 21
0.824276328086853
  0
LINE
  5
2A4
100
AcDbEntity
  8
SEMA2D
100
AcDbLine
 62
7
  6
_SOLID
370
9
 10
-0.11447598785162
 20
0.809749662876129
 11
-0.105630874633789
 21
0.825069904327393
  0
LINE
  5
2A5
100
AcDbEntity
  8
SEMA2D
100
AcDbLine
 62
7
  6
_SOLID
370
9
 10
-0.119635753333569
 20
0.810042679309845
 11
-0.112290382385254
 21
0.822765290737152
  0
LINE
  5
2A6
100
AcDbEntity
  8
SEMA2D
100
AcDbLine
 62
7
  6
_SOLID
370
9
 10
-0.0715609192848206
 20
0.816224455833435
 11
-0.0713688805699348
 21
0.8155078291893
  0
LINE
  5
2A7
100
AcDbEntity
  8
SEMA2D
100
AcDbLine
 62
7
  6
_SOLID
370
9
 10
-0.0515622198581696
 20
0.817189514636993
 11
-0.0429418012499809
 21
0.832120537757874
  0
LINE
  5
2A8
100
AcDbEntity
  8
SEMA2D
100
AcDbLine
 62
7
  6
_SOLID
370
9
 10
-0.0689587742090225
 20
0.812722504138947
 11
-0.0697778165340424
 21
0.815779268741608
  0
LINE
  5
2A9
100
AcDbEntity
  8
SEMA2D
100
AcDbLine
 62
7
  6
_SOLID
370
9
 10
-0.0602128803730011
 20
0.817353785037994
 11
-0.0602128803730011
 21
0.816430807113647
  0
LINE
  5
2AA
100
AcDbEntity
  8
SEMA2D
100
AcDbLine
 62
7
  6
_SOLID
370
9
 10
-0.0622767731547356
 20
0.8155078291893
 11
-0.0622767731547356
 21
0.814584791660309
  0
LINE
  5
2AB
100
AcDbEntity
  8
SEMA2D
100
AcDbLine
 62
7
  6
_SOLID
370
9
 10
-0.0624651610851288
 20
0.816765069961548
 11
-0.053332507610321
 21
0.83258330821991
  0
LINE
  5
2AC
100
AcDbEntity
  8
SEMA2D
100
AcDbLine
 62
7
  6
_SOLID
370
9
 10
-0.0693294256925583
 20
0.814105808734894
 11
-0.0586614497005939
 21
0.83258330821991
  0
LINE
  5
2AD
100
AcDbEntity
  8
SEMA2D
100
AcDbLine
 62
7
  6
_SOLID
370
9
 10
-0.0713688880205154
 20
0.8155078291893
 11
-0.0713688880205154
 21
0.814584791660309
  0
LINE
  5
2AE
100
AcDbEntity
  8
SEMA2D
100
AcDbLine
 62
7
  6
_SOLID
370
9
 10
-0.0567963197827339
 20
0.817353785037994
 11
-0.0480035655200481
 21
0.83258330821991
  0
LINE
  5
2AF
100
AcDbEntity
  8
SEMA2D
100
AcDbLine
 62
7
  6
_SOLID
370
9
 10
-0.064670629799366
 20
0.813933253288269
 11
-0.0649950429797173
 21
0.812722504138947
  0
LINE
  5
2B0
100
AcDbEntity
  8
SEMA2D
100
AcDbLine
 62
7
  6
_SOLID
370
9
 10
-0.0409021563827991
 20
0.824276328086853
 11
-0.0423570647835732
 21
0.83112108707428
  0
LINE
  5
2B1
100
AcDbEntity
  8
SEMA2D
100
AcDbLine
 62
7
  6
_SOLID
370
9
 10
-0.0404406562447548
 20
0.820584297180176
 11
-0.0404406562447548
 21
0.824276328086853
  0
LINE
  5
2B2
100
AcDbEntity
  8
SEMA2D
100
AcDbLine
 62
7
  6
_SOLID
370
9
 10
-0.0527782551944256
 20
0.817353785037994
 11
-0.0527782551944256
 21
0.816430807113647
  0
LINE
  5
2B3
100
AcDbEntity
  8
SEMA2D
100
AcDbLine
 62
7
  6
_SOLID
370
9
 10
-0.0482289232313633
 20
0.813732981681824
 11
-0.0412357151508331
 21
0.825845539569855
  0
LINE
  5
2B4
100
AcDbEntity
  8
SEMA2D
100
AcDbLine
 62
7
  6
_SOLID
370
9
 10
-0.0507143624126911
 20
0.8155078291893
 11
-0.0507143624126911
 21
0.814584791660309
  0
LINE
  5
2B5
100
AcDbEntity
  8
SEMA2D
100
AcDbLine
 62
7
  6
_SOLID
370
9
 10
-0.0437009632587433
 20
0.812722504138947
 11
-0.0415944084525108
 21
0.820584297180176
  0
LINE
  5
2B6
100
AcDbEntity
  8
SEMA2D
100
AcDbLine
 62
7
  6
_SOLID
370
9
 10
-0.0477831438183785
 20
0.812508225440979
 11
-0.0484415739774704
 21
0.814317226409912
  0
LINE
  5
2B7
100
AcDbEntity
  8
SEMA2D
100
AcDbLine
 62
7
  6
_SOLID
370
9
 10
-0.0742355659604073
 20
0.818276822566986
 11
-0.0742355659604073
 21
0.819199800491333
  0
LINE
  5
2B8
100
AcDbEntity
  8
SEMA2D
100
AcDbLine
 62
7
  6
_SOLID
370
9
 10
-0.097428485751152
 20
0.798175394535065
 11
-0.0987421423196793
 21
0.807522535324097
  0
LINE
  5
2B9
100
AcDbEntity
  8
SEMA2D
100
AcDbLine
 62
7
  6
_SOLID
370
9
 10
-0.101226225495338
 20
0.795964539051056
 11
-0.101335860788822
 21
0.796586275100708
  0
LINE
  5
2BA
100
AcDbEntity
  8
SEMA2D
100
AcDbLine
 62
7
  6
_SOLID
370
9
 10
-0.0960754826664925
 20
0.796586275100708
 11
-0.0960754901170731
 21
0.795663297176361
  0
LINE
  5
2BB
100
AcDbEntity
  8
SEMA2D
100
AcDbLine
 62
7
  6
_SOLID
370
9
 10
-0.0917500704526901
 20
0.795996367931366
 11
-0.0890473648905754
 21
0.815227091312408
  0
LINE
  5
2BC
100
AcDbEntity
  8
SEMA2D
100
AcDbLine
 62
7
  6
_SOLID
370
9
 10
-0.0935736149549484
 20
0.796586275100708
 11
-0.0935736298561096
 21
0.795201778411865
  0
LINE
  5
2BD
100
AcDbEntity
  8
SEMA2D
100
AcDbLine
 62
7
  6
_SOLID
370
9
 10
-0.0990816950798035
 20
0.808723390102386
 11
-0.0853061676025391
 21
0.83258330821991
  0
LINE
  5
2BE
100
AcDbEntity
  8
SEMA2D
100
AcDbLine
 62
7
  6
_SOLID
370
9
 10
-0.103849999606609
 20
0.78250241279602
 11
-0.100447162985802
 21
0.795201778411865
  0
LINE
  5
2BF
100
AcDbEntity
  8
SEMA2D
100
AcDbLine
 62
7
  6
_SOLID
370
9
 10
-0.0979011058807373
 20
0.801538228988647
 11
-0.0799772217869759
 21
0.83258330821991
  0
LINE
  5
2C0
100
AcDbEntity
  8
SEMA2D
100
AcDbLine
 62
7
  6
_SOLID
370
9
 10
-0.0985227599740028
 20
0.838121294975281
 11
-0.162139773368835
 21
0.838121294975281
  0
LINE
  5
2C1
100
AcDbEntity
  8
SEMA2D
100
AcDbLine
 62
7
  6
_SOLID
370
9
 10
-0.0985227599740028
 20
0.836659133434296
 11
-0.162139773368835
 21
0.836659133434296
  0
LINE
  5
2C2
100
AcDbEntity
  8
SEMA2D
100
AcDbLine
 62
7
  6
_SOLID
370
9
 10
-0.0872734934091568
 20
0.8155078291893
 11
-0.0872193276882172
 21
0.815893173217773
  0
LINE
  5
2C3
100
AcDbEntity
  8
SEMA2D
100
AcDbLine
 62
7
  6
_SOLID
370
9
 10
-0.0844772756099701
 20
0.818276822566986
 11
-0.0844772756099701
 21
0.819199800491333
  0
LINE
  5
2C4
100
AcDbEntity
  8
SEMA2D
100
AcDbLine
 62
7
  6
_SOLID
370
9
 10
-0.0770463049411774
 20
0.819199800491333
 11
-0.0693193376064301
 21
0.83258330821991
  0
LINE
  5
2C5
100
AcDbEntity
  8
SEMA2D
100
AcDbLine
 62
7
  6
_SOLID
370
9
 10
-0.092760793864727
 20
0.833123981952667
 11
-0.0972174406051636
 21
0.837580621242523
  0
LINE
  5
2C6
100
AcDbEntity
  8
SEMA2D
100
AcDbLine
 62
7
  6
_SOLID
370
9
 10
-0.0720389410853386
 20
0.818642795085907
 11
-0.0639903917908669
 21
0.83258330821991
  0
LINE
  5
2C7
100
AcDbEntity
  8
SEMA2D
100
AcDbLine
 62
7
  6
_SOLID
370
9
 10
-0.0954311564564705
 20
0.796586275100708
 11
-0.0904561132192612
 21
0.805203318595886
  0
LINE
  5
2C8
100
AcDbEntity
  8
SEMA2D
100
AcDbLine
 62
7
  6
_SOLID
370
9
 10
-0.101175352931023
 20
0.78250241279602
 11
-0.0979881659150124
 21
0.794397175312042
  0
LINE
  5
2C9
100
AcDbEntity
  8
SEMA2D
100
AcDbLine
 62
7
  6
_SOLID
370
9
 10
-0.08237524330616
 20
0.819199800491333
 11
-0.0746482759714127
 21
0.83258330821991
  0
LINE
  5
2CA
100
AcDbEntity
  8
SEMA2D
100
AcDbLine
 62
7
  6
_SOLID
370
9
 10
-0.0872734934091568
 20
0.8155078291893
 11
-0.0872734934091568
 21
0.814584791660309
  0
LINE
  5
2CB
100
AcDbEntity
  8
SEMA2D
100
AcDbLine
 62
7
  6
_SOLID
370
9
 10
-0.0944469571113586
 20
0.83258330821991
 11
-0.0985227599740028
 21
0.836659133434296
  0
ARC
  5
2CC
100
AcDbEntity
  8
SEMA2D
100
AcDbCircle
 62
7
  6
_SOLID
370
9
 10
-0.133960723876953
 20
0.825112104415894
 40
0.0074713034555316
100
AcDbArc
 50
42.147346496582
 51
90
  0
ARC
  5
2CD
100
AcDbEntity
  8
SEMA2D
100
AcDbCircle
 62
7
  6
_SOLID
370
9
 10
-0.115638695657253
 20
0.84259569644928
 40
0.0178576968610287
100
AcDbArc
 50
224.290725708008
 51
270
  0
ARC
  5
2CE
100
AcDbEntity
  8
SEMA2D
100
AcDbCircle
 62
7
  6
_SOLID
370
9
 10
-0.113882929086685
 20
0.842755675315857
 40
0.0180177893489599
100
AcDbArc
 50
270
 51
317.41796875
  0
ARC
  5
2CF
100
AcDbEntity
  8
SEMA2D
100
AcDbCircle
 62
7
  6
_SOLID
370
9
 10
-0.0961572080850601
 20
0.826736450195313
 40
0.00587653322145343
100
AcDbArc
 50
84.2402114868164
 51
139.357604980469
  0
ARC
  5
2D0
100
AcDbEntity
  8
SEMA2D
100
AcDbCircle
 62
7
  6
_SOLID
370
9
 10
-0.123330183327198
 20
0.804482221603394
 40
0.00667593209072947
100
AcDbArc
 50
56.3997917175293
 51
159.81428527832
  0
ARC
  5
2D1
100
AcDbEntity
  8
SEMA2D
100
AcDbCircle
 62
7
  6
_SOLID
370
9
 10
-0.104721710085869
 20
0.805423200130463
 40
0.00633737538009882
100
AcDbArc
 50
19.3452129364014
 51
131.099792480469
  0
ARC
  5
2D2
100
AcDbEntity
  8
SEMA2D
100
AcDbCircle
 62
7
  6
_SOLID
370
9
 10
-0.114828288555145
 20
0.849121034145355
 40
0.0393729098141193
100
AcDbArc
 50
262.986633300781
 51
278.677886962891
  0
LINE
  5
2D3
100
AcDbEntity
  8
SEMA2D
100
AcDbLine
 62
7
  6
_SOLID
370
9
 10
-0.161440998315811
 20
0.798432290554047
 11
-0.160805806517601
 21
0.797047793865204
  0
MTEXT
  5
2D4
100
AcDbEntity
  8
SEMATEXT
100
AcDbMText
 62
7
 10
-0.0792175009846687
 20
0.89267885684967
 40
0.00800000037997961
 71
7
  1
{\fArial Narrow;= Deckbreite}
  7
STANDARD
 73
2
  0
MTEXT
  5
2D5
100
AcDbEntity
  8
SEMATEXT
100
AcDbMText
 62
7
 10
-0.296033650636673
 20
0.311578869819641
 40
0.00800000037997961
 50
90
 71
7
  1
{\fArial Narrow;Lattweite = 300 - 372 mm}
  7
STANDARD
 73
2
  0
LINE
  5
2D6
100
AcDbEntity
  8
SEMA2D
100
AcDbLine
 62
7
  6
_SOLID
370
9
 10
-0.291073054075241
 20
0.190110713243485
 11
-0.291073054075241
 21
0.576699674129486
  0
LINE
  5
2D7
100
AcDbEntity
  8
SEMA2D
100
AcDbLine
 62
7
  6
_SOLID
370
9
 10
-0.294517487287521
 20
0.582578837871551
 11
-0.287550777196884
 21
0.570320188999176
  0
LINE
  5
2D8
100
AcDbEntity
  8
SEMA2D
100
AcDbLine
 62
7
  6
_SOLID
370
9
 10
-0.297517508268356
 20
0.576778888702393
 11
-0.284517496824265
 21
0.576778888702393
  0
LINE
  5
2D9
100
AcDbEntity
  8
SEMA2D
100
AcDbLine
 62
7
  6
_SOLID
370
9
 10
-0.297817498445511
 20
0.190078854560852
 11
-0.284017503261566
 21
0.190078854560852
  0
LINE
  5
2DA
100
AcDbEntity
  8
SEMA2D
100
AcDbLine
 62
7
  6
_SOLID
370
9
 10
-0.287717491388321
 20
0.183878853917122
 11
-0.294372409582138
 21
0.195968195796013
  0
LINE
  5
2DB
100
AcDbEntity
  8
SEMA2D
100
AcDbLine
 62
7
  6
_DOT
370
9
 10
-0.291073054075241
 20
0.576699674129486
 11
-0.342457562685013
 21
0.576699674129486
  0
LINE
  5
2DC
100
AcDbEntity
  8
SEMA2D
100
AcDbLine
 62
7
  6
_DOT
370
9
 10
-0.291073054075241
 20
0.190110713243485
 11
-0.34107306599617
 21
0.190110713243485
  0
ENDSEC
  0
SECTION
  2
OBJECTS
  0
DICTIONARY
  5
 13
330
0
100
AcDbDictionary
281
     1
  3
ACAD_GROUP
350
 14
 3
ACAD_MLINESTYLE
350
 16
  3
ACAD_PLOTSETTINGS
350
 17
  3
ACAD_PLOTSTYLENAME
350
 18
  0
DICTIONARY
  5
 14
330
 13
100
AcDbDictionary
281
     1
  0
DICTIONARY
  5
 16
330
 13
100
AcDbDictionary
281
     1
  0
DICTIONARY
  5
 17
102
{ACAD_REACTORS
330
 13
102
}
330
 13
100
AcDbDictionary
281
     1
  0
ACDBDICTIONARYWDFLT
  5
 18
102
{ACAD_REACTORS
330
 13
102
}
330
 13
100
AcDbDictionary
281
     1
  3
Normal
350
 19
100
AcDbDictionaryWithDefault
340
 19
  0
ACDBPLACEHOLDER
  5
 19
102
{ACAD_REACTORS
330
 18
102
}
330
 18
  0
ENDSEC
  0
EOF
