  0
SECTION
  2
HEADER
  9
$ACADVER
  1
AC1015
  9
$HANDSEED
  5
1BC
  9
$LIMMIN
 10
0.600497186183929
 20
0.0660044550895691
  9
$LIMMAX
 10
1.24500524997711
 20
0.872398018836975
  9
$MEASUREMENT
 70
1
  0
ENDSEC
  0
SECTION
  2
TABLES
  0
TABLE
  2
VPORT
  5
  1
100
AcDbSymbolTable
  0
ENDTAB
  0
TABLE
  2
LTYPE
  5
  2
100
AcDbSymbolTable
  0
LTYPE
  5
  3
100
AcDbSymbolTableRecord
100
AcDbLinetypeTableRecord
  2
BYBLOCK
 70
     0
  0
LTYPE
  5
  4
100
AcDbSymbolTableRecord
100
AcDbLinetypeTableRecord
  2
BYLAYER
 70
     0
  0
LTYPE
  5
20
100
AcDbSymbolTableRecord
100
AcDbLinetypeTableRecord
  2
_SOLID
  3

 70
0
 72
65
 73
2
 40
5
 49
5
 74
0
 49
0
 74
0
  0
LTYPE
  5
21
100
AcDbSymbolTableRecord
100
AcDbLinetypeTableRecord
  2
_DASH
  3

 70
0
 72
65
 73
2
 40
7
 49
5
 74
0
 49
-2
 74
0
  0
LTYPE
  5
22
100
AcDbSymbolTableRecord
100
AcDbLinetypeTableRecord
  2
_DOT
  3

 70
0
 72
65
 73
2
 40
4
 49
2
 74
0
 49
-2
 74
0
  0
LTYPE
  5
23
100
AcDbSymbolTableRecord
100
AcDbLinetypeTableRecord
  2
_DASHDOT
  3

 70
0
 72
65
 73
4
 40
11
 49
5
 74
0
 49
-2
 74
0
 49
2
 74
0
 49
-2
 74
0
  0
LTYPE
  5
24
100
AcDbSymbolTableRecord
100
AcDbLinetypeTableRecord
  2
_DASHDOTDOT
  3

 70
0
 72
65
 73
6
 40
15
 49
5
 74
0
 49
-2
 74
0
 49
2
 74
0
 49
-2
 74
0
 49
2
 74
0
 49
-2
 74
0
  0
LTYPE
  5
25
100
AcDbSymbolTableRecord
100
AcDbLinetypeTableRecord
  2
ISO128-20-02
  3

 70
0
 72
65
 73
2
 40
15
 49
12
 74
0
 49
-3
 74
0
  0
LTYPE
  5
26
100
AcDbSymbolTableRecord
100
AcDbLinetypeTableRecord
  2
ISO128-20-03
  3

 70
0
 72
65
 73
2
 40
30
 49
12
 74
0
 49
-18
 74
0
  0
LTYPE
  5
27
100
AcDbSymbolTableRecord
100
AcDbLinetypeTableRecord
  2
ISO128-20-04
  3

 70
0
 72
65
 73
4
 40
30
 49
24
 74
0
 49
-3
 74
0
 49
0
 74
0
 49
-3
 74
0
  0
LTYPE
  5
28
100
AcDbSymbolTableRecord
100
AcDbLinetypeTableRecord
  2
ISO128-20-05
  3

 70
0
 72
65
 73
6
 40
33
 49
24
 74
0
 49
-3
 74
0
 49
0
 74
0
 49
-3
 74
0
 49
0
 74
0
 49
-3
 74
0
  0
LTYPE
  5
29
100
AcDbSymbolTableRecord
100
AcDbLinetypeTableRecord
  2
ISO128-20-06
  3

 70
0
 72
65
 73
8
 40
36
 49
24
 74
0
 49
-3
 74
0
 49
0
 74
0
 49
-3
 74
0
 49
0
 74
0
 49
-3
 74
0
 49
0
 74
0
 49
-3
 74
0
  0
LTYPE
  5
2A
100
AcDbSymbolTableRecord
100
AcDbLinetypeTableRecord
  2
ISO128-20-07
  3

 70
0
 72
65
 73
2
 40
3
 49
0
 74
0
 49
-3
 74
0
  0
LTYPE
  5
2B
100
AcDbSymbolTableRecord
100
AcDbLinetypeTableRecord
  2
ISO128-20-08
  3

 70
0
 72
65
 73
4
 40
36
 49
24
 74
0
 49
-3
 74
0
 49
6
 74
0
 49
-3
 74
0
  0
LTYPE
  5
2C
100
AcDbSymbolTableRecord
100
AcDbLinetypeTableRecord
  2
ISO128-20-09
  3

 70
0
 72
65
 73
6
 40
45
 49
24
 74
0
 49
-3
 74
0
 49
6
 74
0
 49
-3
 74
0
 49
6
 74
0
 49
-3
 74
0
  0
LTYPE
  5
2D
100
AcDbSymbolTableRecord
100
AcDbLinetypeTableRecord
  2
ISO128-20-10
  3

 70
0
 72
65
 73
4
 40
18
 49
12
 74
0
 49
-3
 74
0
 49
0
 74
0
 49
-3
 74
0
  0
LTYPE
  5
2E
100
AcDbSymbolTableRecord
100
AcDbLinetypeTableRecord
  2
ISO128-20-11
  3

 70
0
 72
65
 73
6
 40
33
 49
12
 74
0
 49
-3
 74
0
 49
12
 74
0
 49
-3
 74
0
 49
0
 74
0
 49
-3
 74
0
  0
LTYPE
  5
2F
100
AcDbSymbolTableRecord
100
AcDbLinetypeTableRecord
  2
ISO128-20-12
  3

 70
0
 72
65
 73
6
 40
21
 49
12
 74
0
 49
-3
 74
0
 49
0
 74
0
 49
-3
 74
0
 49
0
 74
0
 49
-3
 74
0
  0
LTYPE
  5
30
100
AcDbSymbolTableRecord
100
AcDbLinetypeTableRecord
  2
ISO128-20-13
  3

 70
0
 72
65
 73
8
 40
36
 49
12
 74
0
 49
-3
 74
0
 49
12
 74
0
 49
-3
 74
0
 49
0
 74
0
 49
-3
 74
0
 49
0
 74
0
 49
-3
 74
0
  0
LTYPE
  5
31
100
AcDbSymbolTableRecord
100
AcDbLinetypeTableRecord
  2
ISO128-20-14
  3

 70
0
 72
65
 73
8
 40
24
 49
12
 74
0
 49
-3
 74
0
 49
0
 74
0
 49
-3
 74
0
 49
0
 74
0
 49
-3
 74
0
 49
0
 74
0
 49
-3
 74
0
  0
LTYPE
  5
32
100
AcDbSymbolTableRecord
100
AcDbLinetypeTableRecord
  2
ISO128-20-15
  3

 70
0
 72
65
 73
10
 40
39
 49
12
 74
0
 49
-3
 74
0
 49
12
 74
0
 49
-3
 74
0
 49
0
 74
0
 49
-3
 74
0
 49
0
 74
0
 49
-3
 74
0
 49
0
 74
0
 49
-3
 74
0
  0
ENDTAB
  0
TABLE
  2
LAYER
  5
 1A
330
  0
100
AcDbSymbolTable
  0
LAYER
  5
1B8
330
 1A
100
AcDbSymbolTableRecord
100
AcDbLayerTableRecord
  2
0
 70
0
 62
7
  6
Continuous
370
-3
390
 19
  0
LAYER
  5
1B9
330
 1A
100
AcDbSymbolTableRecord
100
AcDbLayerTableRecord
  2
SEMA2D
 70
0
 62
7
  6
Continuous
370
-3
390
 19
  0
LAYER
  5
1BA
330
 1A
100
AcDbSymbolTableRecord
100
AcDbLayerTableRecord
  2
SEMATEXT
 70
0
 62
7
  6
Continuous
370
-3
390
 19
  0
ENDTAB
  0
TABLE
  2
STYLE
  5
  5
100
AcDbSymbolTable
  0
STYLE
  5
  6
100
AcDbSymbolTableRecord
100
AcDbTextStyleTableRecord
  2
STANDARD
 70
     0
 40
0.0
 41
1.0
 50
0.0
 71
     0
 42
10.0
  3
txt
  4

  0
ENDTAB
  0
TABLE
  2
VIEW
  5
  7
100
AcDbSymbolTable
  0
ENDTAB
  0
TABLE
  2
UCS
  5
  8
100
AcDbSymbolTable
  0
ENDTAB
  0
TABLE
  2
APPID
  5
  9
100
AcDbSymbolTable
  0
APPID
  5
  A
100
AcDbSymbolTableRecord
100
AcDbRegAppTableRecord
  2
ACAD
 70
0
  0
ENDTAB
  0
TABLE
  2
DIMSTYLE
  5
  B
100
AcDbSymbolTable
 70
     1
100
AcDbDimStyleTable
 71
     0
  0
DIMSTYLE
105
 1B
330
B
100
AcDbSymbolTableRecord
100
AcDbDimStyleTableRecord
  2
STANDARD
 70
    0
340
  6
  0
ENDTAB
  0
TABLE
  2
BLOCK_RECORD
  5
  C
100
AcDbSymbolTable
  0
BLOCK_RECORD
  5
  D
100
AcDbSymbolTableRecord
100
AcDbBlockTableRecord
  2
*MODEL_SPACE
  0
BLOCK_RECORD
  5
  E
100
AcDbSymbolTableRecord
100
AcDbBlockTableRecord
  2
*PAPER_SPACE
  0
ENDTAB
  0
ENDSEC
  0
SECTION
  2
BLOCKS
  0
BLOCK
  5
  F
330
  D
100
AcDbEntity
  8
0
100
AcDbBlockBegin
  2
*MODEL_SPACE
 70
     0
  0
ENDBLK
  5
 10
100
AcDbEntity
  8
0
100
AcDbBlockEnd
  0
BLOCK
  5
 11
330
  E
100
AcDbEntity
  8
0
100
AcDbBlockBegin
  2
*PAPER_SPACE
 70
     0
  0
ENDBLK
  5
 12
100
AcDbEntity
  8
0
100
AcDbBlockEnd
  0
ENDSEC
  0
SECTION
  2
ENTITIES
  0
ARC
  5
33
100
AcDbEntity
  8
SEMA2D
100
AcDbCircle
 62
7
  6
_SOLID
370
9
 10
1.01653432846069
 20
0.872398018836975
 40
0.0532424375414848
100
AcDbArc
 50
243.315704345703
 51
262.446685791016
  0
ARC
  5
34
100
AcDbEntity
  8
SEMA2D
100
AcDbCircle
 62
7
  6
_SOLID
370
9
 10
1.08024907112122
 20
0.850344777107239
 40
0.0264599993824959
100
AcDbArc
 50
233.470199584961
 51
262.570648193359
  0
ARC
  5
35
100
AcDbEntity
  8
SEMA2D
100
AcDbCircle
 62
7
  6
_SOLID
370
9
 10
1.01653432846069
 20
0.872398018836975
 40
0.0532424375414848
100
AcDbArc
 50
275.622619628906
 51
294.905456542969
  0
ARC
  5
36
100
AcDbEntity
  8
SEMA2D
100
AcDbCircle
 62
7
  6
_SOLID
370
9
 10
1.01653432846069
 20
0.872398018836975
 40
0.040957435965538
100
AcDbArc
 50
220.836975097656
 51
297.793212890625
  0
ARC
  5
37
100
AcDbEntity
  8
SEMA2D
100
AcDbCircle
 62
7
  6
_SOLID
370
9
 10
1.08065414428711
 20
0.850339949131012
 40
0.0141749996691942
100
AcDbArc
 50
199.468490600586
 51
270
  0
LINE
  5
38
100
AcDbEntity
  8
SEMA2D
100
AcDbLine
 62
7
  6
_SOLID
370
9
 10
1.16823470592499
 20
0.834275603294373
 11
1.17217540740967
 21
0.834275603294373
  0
LINE
  5
39
100
AcDbEntity
  8
SEMA2D
100
AcDbLine
 62
7
  6
_SOLID
370
9
 10
1.13648319244385
 20
0.80970561504364
 11
1.13311207294464
 21
0.80970561504364
  0
LINE
  5
3A
100
AcDbEntity
  8
SEMA2D
100
AcDbLine
 62
7
  6
_SOLID
370
9
 10
0.980270147323608
 20
0.814525306224823
 11
1.00047135353088
 21
0.834726512432098
  0
LINE
  5
3B
100
AcDbEntity
  8
SEMA2D
100
AcDbLine
 62
7
  6
_SOLID
370
9
 10
0.934256196022034
 20
0.768511414527893
 11
0.949235737323761
 21
0.783490896224976
  0
LINE
  5
3C
100
AcDbEntity
  8
SEMA2D
100
AcDbLine
 62
7
  6
_SOLID
370
9
 10
0.982132613658905
 20
0.80970561504364
 11
0.991087198257446
 21
0.818660199642181
  0
LINE
  5
3D
100
AcDbEntity
  8
SEMA2D
100
AcDbLine
 62
7
  6
_SOLID
370
9
 10
0.933886647224426
 20
0.761459648609161
 11
0.948866128921509
 21
0.776439130306244
  0
LINE
  5
3E
100
AcDbEntity
  8
SEMA2D
100
AcDbLine
 62
7
  6
_SOLID
370
9
 10
0.951100707054138
 20
0.819077253341675
 11
0.95307445526123
 21
0.820112466812134
  0
LINE
  5
3F
100
AcDbEntity
  8
SEMA2D
100
AcDbLine
 62
7
  6
_SOLID
370
9
 10
0.979098737239838
 20
0.820036113262177
 11
0.996017515659332
 21
0.836954832077026
  0
LINE
  5
40
100
AcDbEntity
  8
SEMA2D
100
AcDbLine
 62
7
  6
_SOLID
370
9
 10
0.946310758590698
 20
0.72767961025238
 11
0.958464920520782
 21
0.750459671020508
  0
LINE
  5
41
100
AcDbEntity
  8
SEMA2D
100
AcDbLine
 62
7
  6
_SOLID
370
9
 10
0.988854587078094
 20
0.80970561504364
 11
0.992624580860138
 21
0.824826240539551
  0
LINE
  5
42
100
AcDbEntity
  8
SEMA2D
100
AcDbLine
 62
7
  6
_SOLID
370
9
 10
1.00600385665894
 20
0.820212483406067
 11
1.01723837852478
 21
0.831447064876556
  0
LINE
  5
43
100
AcDbEntity
  8
SEMA2D
100
AcDbLine
 62
7
  6
_SOLID
370
9
 10
0.933147490024567
 20
0.747356235980988
 11
0.948127031326294
 21
0.76233571767807
  0
LINE
  5
44
100
AcDbEntity
  8
SEMA2D
100
AcDbLine
 62
7
  6
_SOLID
370
9
 10
1.01004564762115
 20
0.817572236061096
 11
1.02475035190582
 21
0.832276880741119
  0
LINE
  5
45
100
AcDbEntity
  8
SEMA2D
100
AcDbLine
 62
7
  6
_SOLID
370
9
 10
0.932777941226959
 20
0.740304470062256
 11
0.947757422924042
 21
0.755284011363983
  0
LINE
  5
46
100
AcDbEntity
  8
SEMA2D
100
AcDbLine
 62
7
  6
_SOLID
370
9
 10
0.933517098426819
 20
0.754407942295074
 11
0.948496580123901
 21
0.769387423992157
  0
LINE
  5
47
100
AcDbEntity
  8
SEMA2D
100
AcDbLine
 62
7
  6
_SOLID
370
9
 10
0.995793640613556
 20
0.823366641998291
 11
1.00540840625763
 21
0.83298134803772
  0
LINE
  5
48
100
AcDbEntity
  8
SEMA2D
100
AcDbLine
 62
7
  6
_SOLID
370
9
 10
1.00068187713623
 20
0.821572721004486
 11
1.01093769073486
 21
0.831828534603119
  0
LINE
  5
49
100
AcDbEntity
  8
SEMA2D
100
AcDbLine
 62
7
  6
_SOLID
370
9
 10
0.959821820259094
 20
0.809233129024506
 11
0.959831595420837
 21
0.80970561504364
  0
LINE
  5
4A
100
AcDbEntity
  8
SEMA2D
100
AcDbLine
 62
7
  6
_SOLID
370
9
 10
0.964711487293243
 20
0.8323774933815
 11
0.977949619293213
 21
0.84561562538147
  0
LINE
  5
4B
100
AcDbEntity
  8
SEMA2D
100
AcDbLine
 62
7
  6
_SOLID
370
9
 10
0.935734450817108
 20
0.796718299388886
 11
0.950713992118835
 21
0.811697781085968
  0
LINE
  5
4C
100
AcDbEntity
  8
SEMA2D
100
AcDbLine
 62
7
  6
_SOLID
370
9
 10
0.962124526500702
 20
0.809233129024506
 11
0.958464920520782
 21
0.750459671020508
  0
LINE
  5
4D
100
AcDbEntity
  8
SEMA2D
100
AcDbLine
 62
7
  6
_SOLID
370
9
 10
0.951100707054138
 20
0.819077253341675
 11
0.946310758590698
 21
0.72767961025238
  0
LINE
  5
4E
100
AcDbEntity
  8
SEMA2D
100
AcDbLine
 62
7
  6
_SOLID
370
9
 10
0.95307445526123
 20
0.820112466812134
 11
0.952681958675385
 21
0.80970561504364
  0
LINE
  5
4F
100
AcDbEntity
  8
SEMA2D
100
AcDbLine
 62
7
  6
_SOLID
370
9
 10
0.93610405921936
 20
0.803770005702972
 11
0.951083540916443
 21
0.818749487400055
  0
LINE
  5
50
100
AcDbEntity
  8
SEMA2D
100
AcDbLine
 62
7
  6
_SOLID
370
9
 10
0.936473608016968
 20
0.810821712017059
 11
0.971267461776733
 21
0.84561562538147
  0
LINE
  5
51
100
AcDbEntity
  8
SEMA2D
100
AcDbLine
 62
7
  6
_SOLID
370
9
 10
0.934995353221893
 20
0.782614827156067
 11
0.949974834918976
 21
0.797594308853149
  0
LINE
  5
52
100
AcDbEntity
  8
SEMA2D
100
AcDbLine
 62
7
  6
_SOLID
370
9
 10
0.979677379131317
 20
0.80970561504364
 11
0.97940456867218
 21
0.809233129024506
  0
LINE
  5
53
100
AcDbEntity
  8
SEMA2D
100
AcDbLine
 62
7
  6
_SOLID
370
9
 10
0.934625804424286
 20
0.77556312084198
 11
0.949605286121368
 21
0.790542602539063
  0
LINE
  5
54
100
AcDbEntity
  8
SEMA2D
100
AcDbLine
 62
7
  6
_SOLID
370
9
 10
0.977438151836395
 20
0.825057625770569
 11
0.991992950439453
 21
0.839612483978271
  0
LINE
  5
55
100
AcDbEntity
  8
SEMA2D
100
AcDbLine
 62
7
  6
_SOLID
370
9
 10
0.935364902019501
 20
0.789666533470154
 11
0.950344383716583
 21
0.804646074771881
  0
LINE
  5
56
100
AcDbEntity
  8
SEMA2D
100
AcDbLine
 62
7
  6
_SOLID
370
9
 10
0.970378339290619
 20
0.831362187862396
 11
0.984631776809692
 21
0.84561562538147
  0
LINE
  5
57
100
AcDbEntity
  8
SEMA2D
100
AcDbLine
 62
7
  6
_SOLID
370
9
 10
0.931493759155273
 20
0.733883738517761
 11
0.932544648647308
 21
0.735853254795074
  0
LINE
  5
58
100
AcDbEntity
  8
SEMA2D
100
AcDbLine
 62
7
  6
_SOLID
370
9
 10
0.974491536617279
 20
0.828793168067932
 11
0.98836761713028
 21
0.842669308185577
  0
LINE
  5
59
100
AcDbEntity
  8
SEMA2D
100
AcDbLine
 62
7
  6
_SOLID
370
9
 10
1.07146048545837
 20
0.825529754161835
 11
1.08156979084015
 21
0.83563905954361
  0
LINE
  5
5A
100
AcDbEntity
  8
SEMA2D
100
AcDbLine
 62
7
  6
_SOLID
370
9
 10
1.06695294380188
 20
0.82770437002182
 11
1.07615005970001
 21
0.836901485919952
  0
LINE
  5
5B
100
AcDbEntity
  8
SEMA2D
100
AcDbLine
 62
7
  6
_SOLID
370
9
 10
1.08161616325378
 20
0.822321176528931
 11
1.09156787395477
 21
0.832272827625275
  0
LINE
  5
5C
100
AcDbEntity
  8
SEMA2D
100
AcDbLine
 62
7
  6
_SOLID
370
9
 10
1.07678115367889
 20
0.824168264865875
 11
1.0863071680069
 21
0.833694279193878
  0
LINE
  5
5D
100
AcDbEntity
  8
SEMA2D
100
AcDbLine
 62
7
  6
_SOLID
370
9
 10
1.00917208194733
 20
0.80970561504364
 11
1.00929868221283
 21
0.809233129024506
  0
LINE
  5
5E
100
AcDbEntity
  8
SEMA2D
100
AcDbLine
 62
7
  6
_SOLID
370
9
 10
0.996263146400452
 20
0.80970561504364
 11
1.00444710254669
 21
0.795530617237091
  0
LINE
  5
5F
100
AcDbEntity
  8
SEMA2D
100
AcDbLine
 62
7
  6
_SOLID
370
9
 10
1.03326952457428
 20
0.795530617237091
 11
1.03706777095795
 21
0.80970561504364
  0
LINE
  5
60
100
AcDbEntity
  8
SEMA2D
100
AcDbLine
 62
7
  6
_SOLID
370
9
 10
1.00953578948975
 20
0.819617569446564
 11
1.01200711727142
 21
0.80970561504364
  0
LINE
  5
61
100
AcDbEntity
  8
SEMA2D
100
AcDbLine
 62
7
  6
_SOLID
370
9
 10
1.09622478485107
 20
0.810201108455658
 11
1.13163924217224
 21
0.84561562538147
  0
LINE
  5
62
100
AcDbEntity
  8
SEMA2D
100
AcDbLine
 62
7
  6
_SOLID
370
9
 10
1.09489119052887
 20
0.815549671649933
 11
1.11284339427948
 21
0.833501935005188
  0
LINE
  5
63
100
AcDbEntity
  8
SEMA2D
100
AcDbLine
 62
7
  6
_SOLID
370
9
 10
1.11364185810089
 20
0.820936024188995
 11
1.13832139968872
 21
0.84561562538147
  0
LINE
  5
64
100
AcDbEntity
  8
SEMA2D
100
AcDbLine
 62
7
  6
_SOLID
370
9
 10
1.10241150856018
 20
0.80970561504364
 11
1.10472023487091
 21
0.81201434135437
  0
LINE
  5
65
100
AcDbEntity
  8
SEMA2D
100
AcDbLine
 62
7
  6
_SOLID
370
9
 10
1.0923410654068
 20
0.819681644439697
 11
1.10434341430664
 21
0.831683993339539
  0
LINE
  5
66
100
AcDbEntity
  8
SEMA2D
100
AcDbLine
 62
7
  6
_SOLID
370
9
 10
1.08674418926239
 20
0.820767045021057
 11
1.09748923778534
 21
0.831511974334717
  0
LINE
  5
67
100
AcDbEntity
  8
SEMA2D
100
AcDbLine
 62
7
  6
_SOLID
370
9
 10
1.02581191062927
 20
0.819974184036255
 11
1.05145335197449
 21
0.84561562538147
  0
LINE
  5
68
100
AcDbEntity
  8
SEMA2D
100
AcDbLine
 62
7
  6
_SOLID
370
9
 10
1.01554334163666
 20
0.80970561504364
 11
1.0205887556076
 21
0.814751029014587
  0
LINE
  5
69
100
AcDbEntity
  8
SEMA2D
100
AcDbLine
 62
7
  6
_SOLID
370
9
 10
1.02145707607269
 20
0.80970561504364
 11
1.02133047580719
 21
0.809233129024506
  0
LINE
  5
6A
100
AcDbEntity
  8
SEMA2D
100
AcDbLine
 62
7
  6
_SOLID
370
9
 10
1.01933085918427
 20
0.80970561504364
 11
1.02175080776215
 21
0.819411754608154
  0
LINE
  5
6B
100
AcDbEntity
  8
SEMA2D
100
AcDbLine
 62
7
  6
_SOLID
370
9
 10
0.931408286094665
 20
0.732252657413483
 11
0.947387874126434
 21
0.748232245445251
  0
LINE
  5
6C
100
AcDbEntity
  8
SEMA2D
100
AcDbLine
 62
7
  6
_SOLID
370
9
 10
0.981294572353363
 20
0.80970561504364
 11
0.978833973407745
 21
0.821281909942627
  0
LINE
  5
6D
100
AcDbEntity
  8
SEMA2D
100
AcDbLine
 62
7
  6
_SOLID
370
9
 10
0.933517396450043
 20
0.72767961025238
 11
0.947018325328827
 21
0.741180539131165
  0
LINE
  5
6E
100
AcDbEntity
  8
SEMA2D
100
AcDbLine
 62
7
  6
_SOLID
370
9
 10
1.01137924194336
 20
0.812223613262177
 11
1.03499960899353
 21
0.835843920707703
  0
LINE
  5
6F
100
AcDbEntity
  8
SEMA2D
100
AcDbLine
 62
7
  6
_SOLID
370
9
 10
0.931493759155273
 20
0.733883738517761
 11
0.932439148426056
 21
0.733840227127075
  0
LINE
  5
70
100
AcDbEntity
  8
SEMA2D
100
AcDbLine
 62
7
  6
_SOLID
370
9
 10
0.933241546154022
 20
0.72767961025238
 11
0.946310758590698
 21
0.72767961025238
  0
LINE
  5
71
100
AcDbEntity
  8
SEMA2D
100
AcDbLine
 62
7
  6
_SOLID
370
9
 10
1.06164455413818
 20
0.829078078269959
 11
1.07182216644287
 21
0.839255809783935
  0
LINE
  5
72
100
AcDbEntity
  8
SEMA2D
100
AcDbLine
 62
7
  6
_SOLID
370
9
 10
1.0549623966217
 20
0.829078078269959
 11
1.06866478919983
 21
0.842780470848083
  0
LINE
  5
73
100
AcDbEntity
  8
SEMA2D
100
AcDbLine
 62
7
  6
_SOLID
370
9
 10
1.03497219085693
 20
0.822452187538147
 11
1.05813550949097
 21
0.84561562538147
  0
LINE
  5
74
100
AcDbEntity
  8
SEMA2D
100
AcDbLine
 62
7
  6
_SOLID
370
9
 10
0.940199553966522
 20
0.72767961025238
 11
0.946648776531219
 21
0.734128832817078
  0
LINE
  5
75
100
AcDbEntity
  8
SEMA2D
100
AcDbLine
 62
7
  6
_SOLID
370
9
 10
0.931291818618774
 20
0.730030953884125
 11
0.932910740375519
 21
0.730042099952698
  0
LINE
  5
76
100
AcDbEntity
  8
SEMA2D
100
AcDbLine
 62
7
  6
_SOLID
370
9
 10
1.04475688934326
 20
0.825554847717285
 11
1.06481766700745
 21
0.84561562538147
  0
LINE
  5
77
100
AcDbEntity
  8
SEMA2D
100
AcDbLine
 62
7
  6
_SOLID
370
9
 10
0.932439148426056
 20
0.733840227127075
 11
0.938297092914581
 21
0.84561562538147
  0
LINE
  5
78
100
AcDbEntity
  8
SEMA2D
100
AcDbLine
 62
7
  6
_SOLID
370
9
 10
0.931493759155273
 20
0.733883738517761
 11
0.931291818618774
 21
0.730030953884125
  0
LINE
  5
79
100
AcDbEntity
  8
SEMA2D
100
AcDbLine
 62
7
  6
_SOLID
370
9
 10
0.936843156814575
 20
0.817873477935791
 11
0.964585304260254
 21
0.84561562538147
  0
LINE
  5
7A
100
AcDbEntity
  8
SEMA2D
100
AcDbLine
 62
7
  6
_SOLID
370
9
 10
0.937212765216827
 20
0.824925184249878
 11
0.957903146743774
 21
0.84561562538147
  0
LINE
  5
7B
100
AcDbEntity
  8
SEMA2D
100
AcDbLine
 62
7
  6
_SOLID
370
9
 10
0.937951862812042
 20
0.839028656482697
 11
0.944538831710815
 21
0.84561562538147
  0
LINE
  5
7C
100
AcDbEntity
  8
SEMA2D
100
AcDbLine
 62
7
  6
_SOLID
370
9
 10
0.933241546154022
 20
0.72767961025238
 11
0.932910740375519
 21
0.730042099952698
  0
LINE
  5
7D
100
AcDbEntity
  8
SEMA2D
100
AcDbLine
 62
7
  6
_SOLID
370
9
 10
0.937582314014435
 20
0.831976890563965
 11
0.951220989227295
 21
0.84561562538147
  0
LINE
  5
7E
100
AcDbEntity
  8
SEMA2D
100
AcDbLine
 62
7
  6
_SOLID
370
9
 10
1.12497639656067
 20
0.825588345527649
 11
1.12897777557373
 21
0.82958972454071
  0
LINE
  5
7F
100
AcDbEntity
  8
SEMA2D
100
AcDbLine
 62
7
  6
_SOLID
370
9
 10
0.952681958675385
 20
0.80970561504364
 11
1.1372195482254
 21
0.80970561504364
  0
LINE
  5
80
100
AcDbEntity
  8
SEMA2D
100
AcDbLine
 62
7
  6
_SOLID
370
9
 10
1.17375659942627
 20
0.834275603294373
 11
1.18509662151337
 21
0.84561562538147
  0
LINE
  5
81
100
AcDbEntity
  8
SEMA2D
100
AcDbLine
 62
7
  6
_SOLID
370
9
 10
0.97940456867218
 20
0.809233129024506
 11
0.959821820259094
 21
0.809233129024506
  0
LINE
  5
82
100
AcDbEntity
  8
SEMA2D
100
AcDbLine
 62
7
  6
_SOLID
370
9
 10
1.16707444190979
 20
0.834275603294373
 11
1.17841446399689
 21
0.84561562538147
  0
LINE
  5
83
100
AcDbEntity
  8
SEMA2D
100
AcDbLine
 62
7
  6
_SOLID
370
9
 10
1.11041367053986
 20
0.809233129024506
 11
1.12244546413422
 21
0.809233129024506
  0
LINE
  5
84
100
AcDbEntity
  8
SEMA2D
100
AcDbLine
 62
7
  6
_SOLID
370
9
 10
1.00929868221283
 20
0.809233129024506
 11
1.02133047580719
 21
0.809233129024506
  0
LINE
  5
85
100
AcDbEntity
  8
SEMA2D
100
AcDbLine
 62
7
  6
_SOLID
370
9
 10
1.12257206439972
 20
0.80970561504364
 11
1.12244546413422
 21
0.809233129024506
  0
LINE
  5
86
100
AcDbEntity
  8
SEMA2D
100
AcDbLine
 62
7
  6
_SOLID
370
9
 10
1.09391045570374
 20
0.819483518600464
 11
1.09634828567505
 21
0.80970561504364
  0
LINE
  5
87
100
AcDbEntity
  8
SEMA2D
100
AcDbLine
 62
7
  6
_SOLID
370
9
 10
1.17780697345734
 20
0.824961662292481
 11
1.18513560295105
 21
0.832290291786194
  0
LINE
  5
88
100
AcDbEntity
  8
SEMA2D
100
AcDbLine
 62
7
  6
_SOLID
370
9
 10
1.12446212768555
 20
0.795530617237091
 11
1.1326459646225
 21
0.80970561504364
  0
LINE
  5
89
100
AcDbEntity
  8
SEMA2D
100
AcDbLine
 62
7
  6
_SOLID
370
9
 10
1.18408644199371
 20
0.824825584888458
 11
1.17785453796387
 21
0.824825584888458
  0
LINE
  5
8A
100
AcDbEntity
  8
SEMA2D
100
AcDbLine
 62
7
  6
_SOLID
370
9
 10
1.17607450485229
 20
0.829911410808563
 11
1.18609571456909
 21
0.83993262052536
  0
LINE
  5
8B
100
AcDbEntity
  8
SEMA2D
100
AcDbLine
 62
7
  6
_SOLID
370
9
 10
1.091841340065
 20
0.80970561504364
 11
1.09563958644867
 21
0.795530617237091
  0
LINE
  5
8C
100
AcDbEntity
  8
SEMA2D
100
AcDbLine
 62
7
  6
_SOLID
370
9
 10
1.15800952911377
 20
0.824825584888458
 11
1.16226208209991
 21
0.824825584888458
  0
LINE
  5
8D
100
AcDbEntity
  8
SEMA2D
100
AcDbLine
 62
7
  6
_SOLID
370
9
 10
1.09563958644867
 20
0.795530617237091
 11
1.12446212768555
 21
0.795530617237091
  0
LINE
  5
8E
100
AcDbEntity
  8
SEMA2D
100
AcDbLine
 62
7
  6
_SOLID
370
9
 10
1.00444710254669
 20
0.795530617237091
 11
1.03326952457428
 21
0.795530617237091
  0
LINE
  5
8F
100
AcDbEntity
  8
SEMA2D
100
AcDbLine
 62
7
  6
_SOLID
370
9
 10
1.12860059738159
 20
0.815848231315613
 11
1.13912427425385
 21
0.826371967792511
  0
LINE
  5
90
100
AcDbEntity
  8
SEMA2D
100
AcDbLine
 62
7
  6
_SOLID
370
9
 10
1.12726700305939
 20
0.821196794509888
 11
1.12897777557373
 21
0.822907567024231
  0
LINE
  5
91
100
AcDbEntity
  8
SEMA2D
100
AcDbLine
 62
7
  6
_SOLID
370
9
 10
1.1291116476059
 20
0.829723656177521
 11
1.1450035572052
 21
0.84561562538147
  0
LINE
  5
92
100
AcDbEntity
  8
SEMA2D
100
AcDbLine
 62
7
  6
_SOLID
370
9
 10
1.14058196544647
 20
0.834511876106262
 11
1.15168571472168
 21
0.84561562538147
  0
LINE
  5
93
100
AcDbEntity
  8
SEMA2D
100
AcDbLine
 62
7
  6
_SOLID
370
9
 10
1.12897777557373
 20
0.822907567024231
 11
1.13998651504517
 21
0.833916366100311
  0
LINE
  5
94
100
AcDbEntity
  8
SEMA2D
100
AcDbLine
 62
7
  6
_SOLID
370
9
 10
1.13582229614258
 20
0.80970561504364
 11
1.13739991188049
 21
0.811283230781555
  0
LINE
  5
95
100
AcDbEntity
  8
SEMA2D
100
AcDbLine
 62
7
  6
_SOLID
370
9
 10
1.10414457321167
 20
0.80970561504364
 11
1.10660552978516
 21
0.819575905799866
  0
LINE
  5
96
100
AcDbEntity
  8
SEMA2D
100
AcDbLine
 62
7
  6
_SOLID
370
9
 10
1.15790140628815
 20
0.825102627277374
 11
1.16380798816681
 21
0.831009149551392
  0
LINE
  5
97
100
AcDbEntity
  8
SEMA2D
100
AcDbLine
 62
7
  6
_SOLID
370
9
 10
1.15602576732636
 20
0.829909145832062
 11
1.17173230648041
 21
0.84561562538147
  0
LINE
  5
98
100
AcDbEntity
  8
SEMA2D
100
AcDbLine
 62
7
  6
_SOLID
370
9
 10
1.14726412296295
 20
0.834511876106262
 11
1.15836787223816
 21
0.84561562538147
  0
LINE
  5
99
100
AcDbEntity
  8
SEMA2D
100
AcDbLine
 62
7
  6
_SOLID
370
9
 10
1.15394628047943
 20
0.834511876106262
 11
1.16505002975464
 21
0.84561562538147
  0
LINE
  5
9A
100
AcDbEntity
  8
SEMA2D
100
AcDbLine
 62
7
  6
_SOLID
370
9
 10
1.12993407249451
 20
0.810499608516693
 11
1.13826203346252
 21
0.818827629089356
  0
LINE
  5
9B
100
AcDbEntity
  8
SEMA2D
100
AcDbLine
 62
7
  6
_SOLID
370
9
 10
1.18635952472687
 20
0.838055610656738
 11
1.18529713153839
 21
0.84561562538147
  0
LINE
  5
9C
100
AcDbEntity
  8
SEMA2D
100
AcDbLine
 62
7
  6
_SOLID
370
9
 10
1.1400545835495
 20
0.834511876106262
 11
1.1542295217514
 21
0.834511876106262
  0
LINE
  5
9D
100
AcDbEntity
  8
SEMA2D
100
AcDbLine
 62
7
  6
_SOLID
370
9
 10
1.1854145526886
 20
0.834275603294373
 11
1.18635952472687
 21
0.834275603294373
  0
LINE
  5
9E
100
AcDbEntity
  8
SEMA2D
100
AcDbLine
 62
7
  6
_SOLID
370
9
 10
1.11028707027435
 20
0.80970561504364
 11
1.11041367053986
 21
0.809233129024506
  0
LINE
  5
9F
100
AcDbEntity
  8
SEMA2D
100
AcDbLine
 62
7
  6
_SOLID
370
9
 10
0.938297092914581
 20
0.84561562538147
 11
1.18529713153839
 21
0.84561562538147
  0
LINE
  5
A0
100
AcDbEntity
  8
SEMA2D
100
AcDbLine
 62
7
  6
_SOLID
370
9
 10
1.16297078132629
 20
0.827660620212555
 11
1.17686235904694
 21
0.827660620212555
  0
LINE
  5
A1
100
AcDbEntity
  8
SEMA2D
100
AcDbLine
 62
7
  6
_SOLID
370
9
 10
1.13927161693573
 20
0.827660620212555
 11
1.15690326690674
 21
0.827660620212555
  0
LINE
  5
A2
100
AcDbEntity
  8
SEMA2D
100
AcDbLine
 62
7
  6
_SOLID
370
9
 10
1.16462457180023
 20
0.834275603294373
 11
1.17454707622528
 21
0.834275603294373
  0
LINE
  5
A3
100
AcDbEntity
  8
SEMA2D
100
AcDbLine
 62
7
  6
_SOLID
370
9
 10
1.05124759674072
 20
0.829078078269959
 11
1.06490409374237
 21
0.829078078269959
  0
LINE
  5
A4
100
AcDbEntity
  8
SEMA2D
100
AcDbLine
 62
7
  6
_SOLID
370
9
 10
1.18408644199371
 20
0.824825584888458
 11
1.1854145526886
 21
0.834275603294373
  0
LINE
  5
A5
100
AcDbEntity
  8
SEMA2D
100
AcDbLine
 62
7
  6
_SOLID
370
9
 10
1.15800952911377
 20
0.824825584888458
 11
1.1542295217514
 21
0.834511876106262
  0
LINE
  5
A6
100
AcDbEntity
  8
SEMA2D
100
AcDbLine
 62
7
  6
_SOLID
370
9
 10
1.17785453796387
 20
0.824825584888458
 11
1.17454707622528
 21
0.834275603294373
  0
LINE
  5
A7
100
AcDbEntity
  8
SEMA2D
100
AcDbLine
 62
7
  6
_SOLID
370
9
 10
1.18635952472687
 20
0.838055610656738
 11
1.18635952472687
 21
0.834275603294373
  0
LINE
  5
A8
100
AcDbEntity
  8
SEMA2D
100
AcDbLine
 62
7
  6
_SOLID
370
9
 10
1.12326371669769
 20
0.824758410453796
 11
1.12729704380035
 21
0.80970561504364
  0
LINE
  5
A9
100
AcDbEntity
  8
SEMA2D
100
AcDbLine
 62
7
  6
_SOLID
370
9
 10
1.1400545835495
 20
0.834511876106262
 11
1.1372195482254
 21
0.80970561504364
  0
LINE
  5
AA
100
AcDbEntity
  8
SEMA2D
100
AcDbLine
 62
7
  6
_SOLID
370
9
 10
1.16462457180023
 20
0.834275603294373
 11
1.16226208209991
 21
0.824825584888458
  0
LINE
  5
AB
100
AcDbEntity
  8
SEMA2D
100
AcDbLine
 62
7
  6
_SOLID
370
9
 10
1.13013207912445
 20
0.80970561504364
 11
1.12602639198303
 21
0.826172828674316
  0
ARC
  5
AC
100
AcDbEntity
  8
SEMA2D
100
AcDbCircle
 62
7
  6
_SOLID
370
9
 10
0.965123414993286
 20
0.818366408348083
 40
0.0140170911327004
100
AcDbArc
 50
12.0048122406006
 51
91.683967590332
  0
ARC
  5
AD
100
AcDbEntity
  8
SEMA2D
100
AcDbCircle
 62
7
  6
_SOLID
370
9
 10
0.964022934436798
 20
0.819467663764954
 40
0.0129281282424927
100
AcDbArc
 50
86.9469451904297
 51
181.730682373047
  0
ARC
  5
AE
100
AcDbEntity
  8
SEMA2D
100
AcDbCircle
 62
7
  6
_SOLID
370
9
 10
1.03562498092651
 20
0.850339949131012
 40
0.0141749996691942
100
AcDbArc
 50
270
 51
340.531524658203
  0
ARC
  5
AF
100
AcDbEntity
  8
SEMA2D
100
AcDbCircle
 62
7
  6
_SOLID
370
9
 10
1.09961724281311
 20
0.872398018836975
 40
0.040957435965538
100
AcDbArc
 50
242.206802368164
 51
319.163024902344
  0
ARC
  5
B0
100
AcDbEntity
  8
SEMA2D
100
AcDbCircle
 62
7
  6
_SOLID
370
9
 10
1.03549754619598
 20
0.850339949131012
 40
0.0264599993824959
100
AcDbArc
 50
277.429351806641
 51
306.529815673828
  0
ARC
  5
B1
100
AcDbEntity
  8
SEMA2D
100
AcDbCircle
 62
7
  6
_SOLID
370
9
 10
1.09924924373627
 20
0.872398018836975
 40
0.0532424375414848
100
AcDbArc
 50
245.09455871582
 51
264.377380371094
  0
ARC
  5
B2
100
AcDbEntity
  8
SEMA2D
100
AcDbCircle
 62
7
  6
_SOLID
370
9
 10
1.09960687160492
 20
0.872398018836975
 40
0.0532424375414848
100
AcDbArc
 50
277.553314208984
 51
299.749603271484
  0
LINE
  5
B3
100
AcDbEntity
  8
SEMA2D
100
AcDbLine
 62
7
  6
_SOLID
370
35
 10
1.23216032981873
 20
0.80970561504364
 11
0.976263105869293
 21
0.80970561504364
  0
LINE
  5
B4
100
AcDbEntity
  8
SEMA2D
100
AcDbLine
 62
7
  6
_SOLID
370
35
 10
1.23216032981873
 20
0.784705579280853
 11
1.00126314163208
 21
0.784705579280853
  0
LINE
  5
B5
100
AcDbEntity
  8
SEMA2D
100
AcDbLine
 62
7
  6
_SOLID
370
35
 10
0.976263105869293
 20
0.80970561504364
 11
0.976263105869293
 21
0.704405605792999
  0
LINE
  5
B6
100
AcDbEntity
  8
SEMA2D
100
AcDbLine
 62
7
  6
_SOLID
370
35
 10
1.00126314163208
 20
0.704405605792999
 11
1.00126314163208
 21
0.80970561504364
  0
LINE
  5
B7
100
AcDbEntity
  8
SEMA2D
100
AcDbLine
 62
7
  6
_SOLID
370
35
 10
0.976263105869293
 20
0.704405605792999
 11
1.00126314163208
 21
0.704405605792999
  0
LINE
  5
B8
100
AcDbEntity
  8
SEMA2D
100
AcDbLine
 62
7
  6
_SOLID
370
9
 10
0.931291818618774
 20
0.65440559387207
 11
1.14626312255859
 21
0.65440559387207
  0
LINE
  5
B9
100
AcDbEntity
  8
SEMA2D
100
AcDbLine
 62
7
  6
_SOLID
370
9
 10
0.931291818618774
 20
0.65440559387207
 11
0.931291818618774
 21
0.663155615329742
  0
LINE
  5
BA
100
AcDbEntity
  8
SEMA2D
100
AcDbLine
 62
7
  6
_SOLID
370
9
 10
0.931291818618774
 20
0.65440559387207
 11
0.931291818618774
 21
0.645655572414398
  0
LINE
  5
BB
100
AcDbEntity
  8
SEMA2D
100
AcDbLine
 62
7
  6
_SOLID
370
9
 10
0.931291818618774
 20
0.65440559387207
 11
0.938869535923004
 21
0.658780574798584
  0
LINE
  5
BC
100
AcDbEntity
  8
SEMA2D
100
AcDbLine
 62
7
  6
_SOLID
370
9
 10
0.931291818618774
 20
0.65440559387207
 11
0.923714101314545
 21
0.650030612945557
  0
LINE
  5
BD
100
AcDbEntity
  8
SEMA2D
100
AcDbLine
 62
7
  6
_DOT
370
9
 10
0.931291818618774
 20
0.704405605792999
 11
0.931291818618774
 21
0.65440559387207
  0
LINE
  5
BE
100
AcDbEntity
  8
SEMA2D
100
AcDbLine
 62
7
  6
_DOT
370
9
 10
0.931291818618774
 20
0.704405605792999
 11
0.931291818618774
 21
0.704405605792999
  0
MTEXT
  5
BF
100
AcDbEntity
  8
SEMATEXT
100
AcDbMText
 62
7
 10
0.947343945503235
 20
0.660774827003479
 40
0.00999999977648258
 71
7
  1
{\fArial Narrow;45}
  7
STANDARD
 73
2
  0
LINE
  5
C0
100
AcDbEntity
  8
SEMA2D
100
AcDbLine
 62
7
  6
_SOLID
370
9
 10
0.976263105869293
 20
0.65440559387207
 11
0.976263105869293
 21
0.663155615329742
  0
LINE
  5
C1
100
AcDbEntity
  8
SEMA2D
100
AcDbLine
 62
7
  6
_SOLID
370
9
 10
0.976263105869293
 20
0.65440559387207
 11
0.976263105869293
 21
0.645655572414398
  0
LINE
  5
C2
100
AcDbEntity
  8
SEMA2D
100
AcDbLine
 62
7
  6
_SOLID
370
9
 10
0.976263105869293
 20
0.65440559387207
 11
0.983840882778168
 21
0.658780574798584
  0
LINE
  5
C3
100
AcDbEntity
  8
SEMA2D
100
AcDbLine
 62
7
  6
_SOLID
370
9
 10
0.976263105869293
 20
0.65440559387207
 11
0.968685388565063
 21
0.650030612945557
  0
LINE
  5
C4
100
AcDbEntity
  8
SEMA2D
100
AcDbLine
 62
7
  6
_DOT
370
9
 10
0.976263105869293
 20
0.704405605792999
 11
0.976263105869293
 21
0.65440559387207
  0
LINE
  5
C5
100
AcDbEntity
  8
SEMA2D
100
AcDbLine
 62
7
  6
_DOT
370
9
 10
0.976263105869293
 20
0.704405605792999
 11
0.976263105869293
 21
0.704405605792999
  0
MTEXT
  5
C6
100
AcDbEntity
  8
SEMATEXT
100
AcDbMText
 62
7
 10
1.05161285400391
 20
0.660774827003479
 40
0.00999999977648258
 71
7
  1
{\fArial Narrow;170}
  7
STANDARD
 73
2
  0
LINE
  5
C7
100
AcDbEntity
  8
SEMA2D
100
AcDbLine
 62
7
  6
_SOLID
370
9
 10
1.14626312255859
 20
0.65440559387207
 11
1.14626312255859
 21
0.663155615329742
  0
LINE
  5
C8
100
AcDbEntity
  8
SEMA2D
100
AcDbLine
 62
7
  6
_SOLID
370
9
 10
1.14626312255859
 20
0.65440559387207
 11
1.14626312255859
 21
0.645655572414398
  0
LINE
  5
C9
100
AcDbEntity
  8
SEMA2D
100
AcDbLine
 62
7
  6
_SOLID
370
9
 10
1.14626312255859
 20
0.65440559387207
 11
1.15384089946747
 21
0.658780574798584
  0
LINE
  5
CA
100
AcDbEntity
  8
SEMA2D
100
AcDbLine
 62
7
  6
_SOLID
370
9
 10
1.14626312255859
 20
0.65440559387207
 11
1.13868546485901
 21
0.650030612945557
  0
LINE
  5
CB
100
AcDbEntity
  8
SEMA2D
100
AcDbLine
 62
7
  6
_DOT
370
9
 10
1.14626312255859
 20
0.704405605792999
 11
1.14626312255859
 21
0.65440559387207
  0
LINE
  5
CC
100
AcDbEntity
  8
SEMA2D
100
AcDbLine
 62
7
  6
_DOT
370
9
 10
1.14626312255859
 20
0.65440559387207
 11
1.14626312255859
 21
0.704405605792999
  0
LINE
  5
CD
100
AcDbEntity
  8
SEMA2D
100
AcDbLine
 62
7
  6
_SOLID
370
9
 10
1.23625528812408
 20
0.174754455685616
 11
1.23625528812408
 21
0.603674471378326
  0
LINE
  5
CE
100
AcDbEntity
  8
SEMA2D
100
AcDbLine
 62
7
  6
_SOLID
370
9
 10
1.23625528812408
 20
0.174754455685616
 11
1.22750520706177
 21
0.174754455685616
  0
LINE
  5
CF
100
AcDbEntity
  8
SEMA2D
100
AcDbLine
 62
7
  6
_SOLID
370
9
 10
1.23625528812408
 20
0.174754455685616
 11
1.24500524997711
 21
0.174754455685616
  0
LINE
  5
D0
100
AcDbEntity
  8
SEMA2D
100
AcDbLine
 62
7
  6
_SOLID
370
9
 10
1.23625528812408
 20
0.174754455685616
 11
1.23188018798828
 21
0.182332187891006
  0
LINE
  5
D1
100
AcDbEntity
  8
SEMA2D
100
AcDbLine
 62
7
  6
_SOLID
370
9
 10
1.23625528812408
 20
0.174754455685616
 11
1.2406302690506
 21
0.167176738381386
  0
LINE
  5
D2
100
AcDbEntity
  8
SEMA2D
100
AcDbLine
 62
7
  6
_DOT
370
9
 10
1.18625521659851
 20
0.174754455685616
 11
1.23625528812408
 21
0.174754455685616
  0
LINE
  5
D3
100
AcDbEntity
  8
SEMA2D
100
AcDbLine
 62
7
  6
_DOT
370
9
 10
1.18625521659851
 20
0.174754455685616
 11
1.18625521659851
 21
0.174754455685616
  0
MTEXT
  5
D4
100
AcDbEntity
  8
SEMATEXT
100
AcDbMText
 62
7
 10
1.22988605499268
 20
0.378357827663422
 40
0.00999999977648258
 50
90
 71
7
  1
{\fArial Narrow;429}
  7
STANDARD
 73
2
  0
LINE
  5
D5
100
AcDbEntity
  8
SEMA2D
100
AcDbLine
 62
7
  6
_SOLID
370
9
 10
1.23625528812408
 20
0.603674471378326
 11
1.22750520706177
 21
0.603674471378326
  0
LINE
  5
D6
100
AcDbEntity
  8
SEMA2D
100
AcDbLine
 62
7
  6
_SOLID
370
9
 10
1.23625528812408
 20
0.603674471378326
 11
1.24500524997711
 21
0.603674471378326
  0
LINE
  5
D7
100
AcDbEntity
  8
SEMA2D
100
AcDbLine
 62
7
  6
_SOLID
370
9
 10
1.23625528812408
 20
0.603674471378326
 11
1.23188018798828
 21
0.611252188682556
  0
LINE
  5
D8
100
AcDbEntity
  8
SEMA2D
100
AcDbLine
 62
7
  6
_SOLID
370
9
 10
1.23625528812408
 20
0.603674471378326
 11
1.2406302690506
 21
0.596096754074097
  0
LINE
  5
D9
100
AcDbEntity
  8
SEMA2D
100
AcDbLine
 62
7
  6
_DOT
370
9
 10
1.18625521659851
 20
0.603674471378326
 11
1.23625528812408
 21
0.603674471378326
  0
LINE
  5
DA
100
AcDbEntity
  8
SEMA2D
100
AcDbLine
 62
7
  6
_DOT
370
9
 10
1.18625521659851
 20
0.603674471378326
 11
1.18625521659851
 21
0.603674471378326
  0
LINE
  5
DB
100
AcDbEntity
  8
SEMA2D
100
AcDbLine
 62
7
  6
_SOLID
370
9
 10
0.919763386249542
 20
0.124754458665848
 11
1.18635952472687
 21
0.124754458665848
  0
LINE
  5
DC
100
AcDbEntity
  8
SEMA2D
100
AcDbLine
 62
7
  6
_SOLID
370
9
 10
0.919763386249542
 20
0.124754458665848
 11
0.919763386249542
 21
0.133504465222359
  0
LINE
  5
DD
100
AcDbEntity
  8
SEMA2D
100
AcDbLine
 62
7
  6
_SOLID
370
9
 10
0.919763386249542
 20
0.124754458665848
 11
0.919763386249542
 21
0.116004459559917
  0
LINE
  5
DE
100
AcDbEntity
  8
SEMA2D
100
AcDbLine
 62
7
  6
_SOLID
370
9
 10
0.919763386249542
 20
0.124754458665848
 11
0.927341163158417
 21
0.129129454493523
  0
LINE
  5
DF
100
AcDbEntity
  8
SEMA2D
100
AcDbLine
 62
7
  6
_SOLID
370
9
 10
0.919763386249542
 20
0.124754458665848
 11
0.912185668945313
 21
0.120379455387592
  0
LINE
  5
E0
100
AcDbEntity
  8
SEMA2D
100
AcDbLine
 62
7
  6
_DOT
370
9
 10
0.919763386249542
 20
0.174754455685616
 11
0.919763386249542
 21
0.124754458665848
  0
LINE
  5
E1
100
AcDbEntity
  8
SEMA2D
100
AcDbLine
 62
7
  6
_DOT
370
9
 10
0.919763386249542
 20
0.174754455685616
 11
0.919763386249542
 21
0.174754455685616
  0
MTEXT
  5
E2
100
AcDbEntity
  8
SEMATEXT
100
AcDbMText
 62
7
 10
1.04341113567352
 20
0.131123676896095
 40
0.00999999977648258
 71
7
  1
{\fArial Narrow;267}
  7
STANDARD
 73
2
  0
LINE
  5
E3
100
AcDbEntity
  8
SEMA2D
100
AcDbLine
 62
7
  6
_SOLID
370
9
 10
1.18635952472687
 20
0.124754458665848
 11
1.18635952472687
 21
0.133504465222359
  0
LINE
  5
E4
100
AcDbEntity
  8
SEMA2D
100
AcDbLine
 62
7
  6
_SOLID
370
9
 10
1.18635952472687
 20
0.124754458665848
 11
1.18635952472687
 21
0.116004459559917
  0
LINE
  5
E5
100
AcDbEntity
  8
SEMA2D
100
AcDbLine
 62
7
  6
_SOLID
370
9
 10
1.18635952472687
 20
0.124754458665848
 11
1.19393730163574
 21
0.129129454493523
  0
LINE
  5
E6
100
AcDbEntity
  8
SEMA2D
100
AcDbLine
 62
7
  6
_SOLID
370
9
 10
1.18635952472687
 20
0.124754458665848
 11
1.17878186702728
 21
0.120379455387592
  0
LINE
  5
E7
100
AcDbEntity
  8
SEMA2D
100
AcDbLine
 62
7
  6
_DOT
370
9
 10
1.18635952472687
 20
0.174754455685616
 11
1.18635952472687
 21
0.124754458665848
  0
LINE
  5
E8
100
AcDbEntity
  8
SEMA2D
100
AcDbLine
 62
7
  6
_DOT
370
9
 10
1.18635952472687
 20
0.174754455685616
 11
1.18635952472687
 21
0.174754455685616
  0
LINE
  5
E9
100
AcDbEntity
  8
SEMA2D
100
AcDbLine
 62
7
  6
_SOLID
370
9
 10
0.608074903488159
 20
0.124754458665848
 11
0.659577429294586
 21
0.124754458665848
  0
LINE
  5
EA
100
AcDbEntity
  8
SEMA2D
100
AcDbLine
 62
7
  6
_SOLID
370
9
 10
0.608074903488159
 20
0.124754458665848
 11
0.608074903488159
 21
0.133504465222359
  0
LINE
  5
EB
100
AcDbEntity
  8
SEMA2D
100
AcDbLine
 62
7
  6
_SOLID
370
9
 10
0.608074903488159
 20
0.124754458665848
 11
0.608074903488159
 21
0.116004459559917
  0
LINE
  5
EC
100
AcDbEntity
  8
SEMA2D
100
AcDbLine
 62
7
  6
_SOLID
370
9
 10
0.608074903488159
 20
0.124754458665848
 11
0.615652680397034
 21
0.129129454493523
  0
LINE
  5
ED
100
AcDbEntity
  8
SEMA2D
100
AcDbLine
 62
7
  6
_SOLID
370
9
 10
0.608074903488159
 20
0.124754458665848
 11
0.600497186183929
 21
0.120379455387592
  0
LINE
  5
EE
100
AcDbEntity
  8
SEMA2D
100
AcDbLine
 62
7
  6
_DOT
370
9
 10
0.608074903488159
 20
0.174754455685616
 11
0.608074903488159
 21
0.124754458665848
  0
LINE
  5
EF
100
AcDbEntity
  8
SEMA2D
100
AcDbLine
 62
7
  6
_DOT
370
9
 10
0.608074903488159
 20
0.174754455685616
 11
0.608074903488159
 21
0.174754455685616
  0
MTEXT
  5
F0
100
AcDbEntity
  8
SEMATEXT
100
AcDbMText
 62
7
 10
0.627392590045929
 20
0.131123676896095
 40
0.00999999977648258
 71
7
  1
{\fArial Narrow;52}
  7
STANDARD
 73
2
  0
LINE
  5
F1
100
AcDbEntity
  8
SEMA2D
100
AcDbLine
 62
7
  6
_SOLID
370
9
 10
0.659577429294586
 20
0.124754458665848
 11
0.659577429294586
 21
0.133504465222359
  0
LINE
  5
F2
100
AcDbEntity
  8
SEMA2D
100
AcDbLine
 62
7
  6
_SOLID
370
9
 10
0.659577429294586
 20
0.124754458665848
 11
0.659577429294586
 21
0.116004459559917
  0
LINE
  5
F3
100
AcDbEntity
  8
SEMA2D
100
AcDbLine
 62
7
  6
_SOLID
370
9
 10
0.659577429294586
 20
0.124754458665848
 11
0.667155146598816
 21
0.129129454493523
  0
LINE
  5
F4
100
AcDbEntity
  8
SEMA2D
100
AcDbLine
 62
7
  6
_SOLID
370
9
 10
0.659577429294586
 20
0.124754458665848
 11
0.651999711990356
 21
0.120379455387592
  0
LINE
  5
F5
100
AcDbEntity
  8
SEMA2D
100
AcDbLine
 62
7
  6
_DOT
370
9
 10
0.659577429294586
 20
0.174754455685616
 11
0.659577429294586
 21
0.124754458665848
  0
LINE
  5
F6
100
AcDbEntity
  8
SEMA2D
100
AcDbLine
 62
7
  6
_DOT
370
9
 10
0.659577429294586
 20
0.174754455685616
 11
0.659577429294586
 21
0.174754455685616
  0
LINE
  5
F7
100
AcDbEntity
  8
SEMA2D
100
AcDbLine
 62
7
  6
_SOLID
370
9
 10
0.608074903488159
 20
0.07475446164608
 11
0.748414874076843
 21
0.07475446164608
  0
LINE
  5
F8
100
AcDbEntity
  8
SEMA2D
100
AcDbLine
 62
7
  6
_SOLID
370
9
 10
0.608074903488159
 20
0.07475446164608
 11
0.608074903488159
 21
0.0835044607520103
  0
LINE
  5
F9
100
AcDbEntity
  8
SEMA2D
100
AcDbLine
 62
7
  6
_SOLID
370
9
 10
0.608074903488159
 20
0.07475446164608
 11
0.608074903488159
 21
0.0660044550895691
  0
LINE
  5
FA
100
AcDbEntity
  8
SEMA2D
100
AcDbLine
 62
7
  6
_SOLID
370
9
 10
0.608074903488159
 20
0.07475446164608
 11
0.615652680397034
 21
0.0791294574737549
  0
LINE
  5
FB
100
AcDbEntity
  8
SEMA2D
100
AcDbLine
 62
7
  6
_SOLID
370
9
 10
0.608074903488159
 20
0.07475446164608
 11
0.600497186183929
 21
0.0703794583678246
  0
LINE
  5
FC
100
AcDbEntity
  8
SEMA2D
100
AcDbLine
 62
7
  6
_DOT
370
9
 10
0.608074903488159
 20
0.124754458665848
 11
0.608074903488159
 21
0.07475446164608
  0
LINE
  5
FD
100
AcDbEntity
  8
SEMA2D
100
AcDbLine
 62
7
  6
_DOT
370
9
 10
0.608074903488159
 20
0.124754458665848
 11
0.608074903488159
 21
0.124754458665848
  0
MTEXT
  5
FE
100
AcDbEntity
  8
SEMATEXT
100
AcDbMText
 62
7
 10
0.668594598770142
 20
0.0811236798763275
 40
0.00999999977648258
 71
7
  1
{\fArial Narrow;140}
  7
STANDARD
 73
2
  0
LINE
  5
FF
100
AcDbEntity
  8
SEMA2D
100
AcDbLine
 62
7
  6
_SOLID
370
9
 10
0.748414874076843
 20
0.07475446164608
 11
0.748414874076843
 21
0.0835044607520103
  0
LINE
  5
100
100
AcDbEntity
  8
SEMA2D
100
AcDbLine
 62
7
  6
_SOLID
370
9
 10
0.748414874076843
 20
0.07475446164608
 11
0.748414874076843
 21
0.0660044550895691
  0
LINE
  5
101
100
AcDbEntity
  8
SEMA2D
100
AcDbLine
 62
7
  6
_SOLID
370
9
 10
0.748414874076843
 20
0.07475446164608
 11
0.755992650985718
 21
0.0791294574737549
  0
LINE
  5
102
100
AcDbEntity
  8
SEMA2D
100
AcDbLine
 62
7
  6
_SOLID
370
9
 10
0.748414874076843
 20
0.07475446164608
 11
0.740837156772614
 21
0.0703794583678246
  0
LINE
  5
103
100
AcDbEntity
  8
SEMA2D
100
AcDbLine
 62
7
  6
_DOT
370
9
 10
0.748414874076843
 20
0.124754458665848
 11
0.748414874076843
 21
0.07475446164608
  0
LINE
  5
104
100
AcDbEntity
  8
SEMA2D
100
AcDbLine
 62
7
  6
_DOT
370
9
 10
0.748414874076843
 20
0.124754458665848
 11
0.748414874076843
 21
0.124754458665848
  0
LINE
  5
105
100
AcDbEntity
  8
SEMA2D
100
AcDbLine
 62
7
  6
_SOLID
370
9
 10
0.608074903488159
 20
0.653674483299255
 11
0.658984899520874
 21
0.653674483299255
  0
LINE
  5
106
100
AcDbEntity
  8
SEMA2D
100
AcDbLine
 62
7
  6
_SOLID
370
9
 10
0.608074903488159
 20
0.653674483299255
 11
0.608074903488159
 21
0.662424445152283
  0
LINE
  5
107
100
AcDbEntity
  8
SEMA2D
100
AcDbLine
 62
7
  6
_SOLID
370
9
 10
0.608074903488159
 20
0.653674483299255
 11
0.608074903488159
 21
0.644924461841583
  0
LINE
  5
108
100
AcDbEntity
  8
SEMA2D
100
AcDbLine
 62
7
  6
_SOLID
370
9
 10
0.608074903488159
 20
0.653674483299255
 11
0.615652680397034
 21
0.658049464225769
  0
LINE
  5
109
100
AcDbEntity
  8
SEMA2D
100
AcDbLine
 62
7
  6
_SOLID
370
9
 10
0.608074903488159
 20
0.653674483299255
 11
0.600497186183929
 21
0.649299442768097
  0
LINE
  5
10A
100
AcDbEntity
  8
SEMA2D
100
AcDbLine
 62
7
  6
_DOT
370
9
 10
0.608074903488159
 20
0.603674471378326
 11
0.608074903488159
 21
0.653674483299255
  0
LINE
  5
10B
100
AcDbEntity
  8
SEMA2D
100
AcDbLine
 62
7
  6
_DOT
370
9
 10
0.608074903488159
 20
0.603674471378326
 11
0.608074903488159
 21
0.603674471378326
  0
MTEXT
  5
10C
100
AcDbEntity
  8
SEMATEXT
100
AcDbMText
 62
7
 10
0.619596362113953
 20
0.660043656826019
 40
0.00999999977648258
 71
7
  1
{\fArial Narrow;36}
  7
STANDARD
 73
2
  0
LINE
  5
10D
100
AcDbEntity
  8
SEMA2D
100
AcDbLine
 62
7
  6
_SOLID
370
9
 10
0.643984913825989
 20
0.653674483299255
 11
0.643984913825989
 21
0.662424445152283
  0
LINE
  5
10E
100
AcDbEntity
  8
SEMA2D
100
AcDbLine
 62
7
  6
_SOLID
370
9
 10
0.643984913825989
 20
0.653674483299255
 11
0.643984913825989
 21
0.644924461841583
  0
LINE
  5
10F
100
AcDbEntity
  8
SEMA2D
100
AcDbLine
 62
7
  6
_SOLID
370
9
 10
0.643984913825989
 20
0.653674483299255
 11
0.651562631130218
 21
0.658049464225769
  0
LINE
  5
110
100
AcDbEntity
  8
SEMA2D
100
AcDbLine
 62
7
  6
_SOLID
370
9
 10
0.643984913825989
 20
0.653674483299255
 11
0.636407196521759
 21
0.649299442768097
  0
LINE
  5
111
100
AcDbEntity
  8
SEMA2D
100
AcDbLine
 62
7
  6
_DOT
370
9
 10
0.643984913825989
 20
0.603674471378326
 11
0.643984913825989
 21
0.653674483299255
  0
LINE
  5
112
100
AcDbEntity
  8
SEMA2D
100
AcDbLine
 62
7
  6
_DOT
370
9
 10
0.643984913825989
 20
0.603674471378326
 11
0.643984913825989
 21
0.603674471378326
  0
MTEXT
  5
113
100
AcDbEntity
  8
SEMATEXT
100
AcDbMText
 62
7
 10
0.64505136013031
 20
0.660043656826019
 40
0.00999999977648258
 71
7
  1
{\fArial Narrow;15}
  7
STANDARD
 73
2
  0
LINE
  5
114
100
AcDbEntity
  8
SEMA2D
100
AcDbLine
 62
7
  6
_SOLID
370
9
 10
0.658984899520874
 20
0.653674483299255
 11
0.658984899520874
 21
0.662424445152283
  0
LINE
  5
115
100
AcDbEntity
  8
SEMA2D
100
AcDbLine
 62
7
  6
_SOLID
370
9
 10
0.658984899520874
 20
0.653674483299255
 11
0.658984899520874
 21
0.644924461841583
  0
LINE
  5
116
100
AcDbEntity
  8
SEMA2D
100
AcDbLine
 62
7
  6
_SOLID
370
9
 10
0.658984899520874
 20
0.653674483299255
 11
0.666562676429748
 21
0.658049464225769
  0
LINE
  5
117
100
AcDbEntity
  8
SEMA2D
100
AcDbLine
 62
7
  6
_SOLID
370
9
 10
0.658984899520874
 20
0.653674483299255
 11
0.651407182216644
 21
0.649299442768097
  0
LINE
  5
118
100
AcDbEntity
  8
SEMA2D
100
AcDbLine
 62
7
  6
_DOT
370
9
 10
0.658984899520874
 20
0.603674471378326
 11
0.658984899520874
 21
0.653674483299255
  0
LINE
  5
119
100
AcDbEntity
  8
SEMA2D
100
AcDbLine
 62
7
  6
_DOT
370
9
 10
0.658984899520874
 20
0.653674483299255
 11
0.658984899520874
 21
0.603674471378326
  0
ARC
  5
11A
100
AcDbEntity
  8
SEMA2D
100
AcDbCircle
 62
7
  6
_SOLID
370
9
 10
0.631699919700623
 20
0.199213787913322
 40
0.023624999448657
100
AcDbArc
 50
180
 51
265
  0
LINE
  5
11B
100
AcDbEntity
  8
SEMA2D
100
AcDbLine
 62
7
  6
_SOLID
370
9
 10
0.644457399845123
 20
0.573707282543182
 11
0.643984913825989
 21
0.573879241943359
  0
LINE
  5
11C
100
AcDbEntity
  8
SEMA2D
100
AcDbLine
 62
7
  6
_SOLID
370
9
 10
0.615634918212891
 20
0.186727613210678
 11
0.612789154052734
 21
0.185053214430809
  0
LINE
  5
11D
100
AcDbEntity
  8
SEMA2D
100
AcDbLine
 62
7
  6
_SOLID
370
9
 10
0.608074903488159
 20
0.56785124540329
 11
0.613744914531708
 21
0.568850994110107
  0
LINE
  5
11E
100
AcDbEntity
  8
SEMA2D
100
AcDbLine
 62
7
  6
_SOLID
370
9
 10
0.608074903488159
 20
0.592806935310364
 11
0.613744914531708
 21
0.590743243694305
  0
LINE
  5
11F
100
AcDbEntity
  8
SEMA2D
100
AcDbLine
 62
7
  6
_SOLID
370
9
 10
0.748189926147461
 20
0.19357305765152
 11
0.703230857849121
 21
0.58813065290451
  0
LINE
  5
120
100
AcDbEntity
  8
SEMA2D
100
AcDbLine
 62
7
  6
_SOLID
370
9
 10
0.644457399845123
 20
0.565874457359314
 11
0.643984913825989
 21
0.56669282913208
  0
LINE
  5
121
100
AcDbEntity
  8
SEMA2D
100
AcDbLine
 62
7
  6
_SOLID
370
9
 10
0.635007441043854
 20
0.536149978637695
 11
0.643984913825989
 21
0.53374445438385
  0
LINE
  5
122
100
AcDbEntity
  8
SEMA2D
100
AcDbLine
 62
7
  6
_SOLID
370
9
 10
0.608074903488159
 20
0.60261195898056
 11
0.615634918212891
 21
0.603674471378326
  0
LINE
  5
123
100
AcDbEntity
  8
SEMA2D
100
AcDbLine
 62
7
  6
_SOLID
370
9
 10
0.613744914531708
 20
0.582618832588196
 11
0.615634918212891
 21
0.582884430885315
  0
LINE
  5
124
100
AcDbEntity
  8
SEMA2D
100
AcDbLine
 62
7
  6
_SOLID
370
9
 10
0.615634918212891
 20
0.603674471378326
 11
0.619414925575256
 21
0.603674471378326
  0
LINE
  5
125
100
AcDbEntity
  8
SEMA2D
100
AcDbLine
 62
9
  6
_SOLID
370
9
 10
0.613744914531708
 20
0.586664438247681
 11
0.626029908657074
 21
0.586664438247681
  0
LINE
  5
126
100
AcDbEntity
  8
SEMA2D
100
AcDbLine
 62
7
  6
_SOLID
370
9
 10
0.615634918212891
 20
0.582884430885315
 11
0.619414925575256
 21
0.582884430885315
  0
LINE
  5
127
100
AcDbEntity
  8
SEMA2D
100
AcDbLine
 62
7
  6
_SOLID
370
9
 10
0.658984899520874
 20
0.581139922142029
 11
0.635007441043854
 21
0.576912045478821
  0
LINE
  5
128
100
AcDbEntity
  8
SEMA2D
100
AcDbLine
 62
7
  6
_SOLID
370
9
 10
0.658984899520874
 20
0.590695917606354
 11
0.635007441043854
 21
0.597120642662048
  0
LINE
  5
129
100
AcDbEntity
  8
SEMA2D
100
AcDbLine
 62
7
  6
_SOLID
370
9
 10
0.619414925575256
 20
0.58241194486618
 11
0.628864943981171
 21
0.581083834171295
  0
LINE
  5
12A
100
AcDbEntity
  8
SEMA2D
100
AcDbLine
 62
7
  6
_SOLID
370
9
 10
0.643984913825989
 20
0.594715118408203
 11
0.643984913825989
 21
0.56669282913208
  0
LINE
  5
12B
100
AcDbEntity
  8
SEMA2D
100
AcDbLine
 62
7
  6
_SOLID
370
9
 10
0.635007441043854
 20
0.576912045478821
 11
0.635007441043854
 21
0.536149978637695
  0
LINE
  5
12C
100
AcDbEntity
  8
SEMA2D
100
AcDbLine
 62
7
  6
_SOLID
370
9
 10
0.635007441043854
 20
0.600538074970245
 11
0.635007441043854
 21
0.597120642662048
  0
LINE
  5
12D
100
AcDbEntity
  8
SEMA2D
100
AcDbLine
 62
7
  6
_SOLID
370
9
 10
0.640204906463623
 20
0.174754455685616
 11
0.640204906463623
 21
0.177049234509468
  0
LINE
  5
12E
100
AcDbEntity
  8
SEMA2D
100
AcDbLine
 62
7
  6
_SOLID
370
9
 10
0.658984899520874
 20
0.590916931629181
 11
0.658984899520874
 21
0.580994486808777
  0
LINE
  5
12F
100
AcDbEntity
  8
SEMA2D
100
AcDbLine
 62
7
  6
_SOLID
370
9
 10
0.644457399845123
 20
0.545084476470947
 11
0.644457399845123
 21
0.573707282543182
  0
LINE
  5
130
100
AcDbEntity
  8
SEMA2D
100
AcDbLine
 62
7
  6
_SOLID
370
9
 10
0.659577429294586
 20
0.187175363302231
 11
0.659577429294586
 21
0.17788901925087
  0
LINE
  5
131
100
AcDbEntity
  8
SEMA2D
100
AcDbLine
 62
7
  6
_SOLID
370
9
 10
0.643984913825989
 20
0.192224100232124
 11
0.643984913825989
 21
0.544266045093536
  0
LINE
  5
132
100
AcDbEntity
  8
SEMA2D
100
AcDbLine
 62
7
  6
_SOLID
370
9
 10
0.643984913825989
 20
0.174754455685616
 11
0.643984913825989
 21
0.17758946120739
  0
LINE
  5
133
100
AcDbEntity
  8
SEMA2D
100
AcDbLine
 62
7
  6
_SOLID
370
9
 10
0.644079446792602
 20
0.175712734460831
 11
0.644079446792602
 21
0.19838173687458
  0
LINE
  5
134
100
AcDbEntity
  8
SEMA2D
100
AcDbLine
 62
7
  6
_SOLID
370
9
 10
0.620136320590973
 20
0.602672815322876
 11
0.619421064853668
 21
0.602773308753967
  0
LINE
  5
135
100
AcDbEntity
  8
SEMA2D
100
AcDbLine
 62
7
  6
_SOLID
370
9
 10
0.619414925575256
 20
0.602729439735413
 11
0.635007441043854
 21
0.600538074970245
  0
LINE
  5
136
100
AcDbEntity
  8
SEMA2D
100
AcDbLine
 62
7
  6
_SOLID
370
9
 10
0.635007441043854
 20
0.600398182868958
 11
0.703230857849121
 21
0.58813065290451
  0
LINE
  5
137
100
AcDbEntity
  8
SEMA2D
100
AcDbLine
 62
7
  6
_SOLID
370
9
 10
0.621275007724762
 20
0.602468013763428
 11
0.620136320590973
 21
0.602672815322876
  0
LINE
  5
138
100
AcDbEntity
  8
SEMA2D
100
AcDbLine
 62
7
  6
_SOLID
370
9
 10
0.615634918212891
 20
0.187039464712143
 11
0.611395239830017
 21
0.187136501073837
  0
LINE
  5
139
100
AcDbEntity
  8
SEMA2D
100
AcDbLine
 62
7
  6
_SOLID
370
9
 10
0.615634918212891
 20
0.187039464712143
 11
0.619414925575256
 21
0.187039464712143
  0
LINE
  5
13A
100
AcDbEntity
  8
SEMA2D
100
AcDbLine
 62
7
  6
_SOLID
370
9
 10
0.659577429294586
 20
0.187170654535294
 11
0.628864943981171
 21
0.197149738669395
  0
LINE
  5
13B
100
AcDbEntity
  8
SEMA2D
100
AcDbLine
 62
7
  6
_SOLID
370
9
 10
0.643984913825989
 20
0.175699457526207
 11
0.659577429294586
 21
0.177890837192535
  0
LINE
  5
13C
100
AcDbEntity
  8
SEMA2D
100
AcDbLine
 62
7
  6
_SOLID
370
9
 10
0.748414874076843
 20
0.193598702549934
 11
0.659577429294586
 21
0.177970051765442
  0
LINE
  5
13D
100
AcDbEntity
  8
SEMA2D
100
AcDbLine
 62
7
  6
_SOLID
370
9
 10
0.644079446792602
 20
0.187757894396782
 11
0.619414925575256
 21
0.187193363904953
  0
LINE
  5
13E
100
AcDbEntity
  8
SEMA2D
100
AcDbLine
 62
7
  6
_SOLID
370
9
 10
0.619414925575256
 20
0.186532214283943
 11
0.644079446792602
 21
0.187632098793983
  0
LINE
  5
13F
100
AcDbEntity
  8
SEMA2D
100
AcDbLine
 62
7
  6
_SOLID
370
9
 10
0.619414925575256
 20
0.186219498515129
 11
0.619414925575256
 21
0.603674471378326
  0
LINE
  5
140
100
AcDbEntity
  8
SEMA2D
100
AcDbLine
 62
7
  6
_SOLID
370
9
 10
0.615634918212891
 20
0.186714753508568
 11
0.615634918212891
 21
0.603674471378326
  0
LINE
  5
141
100
AcDbEntity
  8
SEMA2D
100
AcDbLine
 62
7
  6
_SOLID
370
9
 10
0.628864943981171
 20
0.581083834171295
 11
0.628864943981171
 21
0.197136878967285
  0
LINE
  5
142
100
AcDbEntity
  8
SEMA2D
100
AcDbLine
 62
7
  6
_SOLID
370
9
 10
0.626029908657074
 20
0.581482291221619
 11
0.626029908657074
 21
0.601799786090851
  0
LINE
  5
143
100
AcDbEntity
  8
SEMA2D
100
AcDbLine
 62
7
  6
_SOLID
370
9
 10
0.608074903488159
 20
0.60261195898056
 11
0.608074903488159
 21
0.592806935310364
  0
LINE
  5
144
100
AcDbEntity
  8
SEMA2D
100
AcDbLine
 62
7
  6
_SOLID
370
9
 10
0.643984913825989
 20
0.544266045093536
 11
0.644457399845123
 21
0.545084476470947
  0
LINE
  5
145
100
AcDbEntity
  8
SEMA2D
100
AcDbLine
 62
7
  6
_SOLID
370
9
 10
0.613744914531708
 20
0.568850994110107
 11
0.613744914531708
 21
0.590743243694305
  0
LINE
  5
146
100
AcDbEntity
  8
SEMA2D
100
AcDbLine
 62
7
  6
_SOLID
370
9
 10
0.608074903488159
 20
0.56785124540329
 11
0.608074903488159
 21
0.199200928211212
  0
LINE
  5
147
100
AcDbEntity
  8
SEMA2D
100
AcDbLine
 62
7
  6
_SOLID
370
9
 10
0.619414925575256
 20
0.186232358217239
 11
0.643984913825989
 21
0.177289605140686
  0
LINE
  5
148
100
AcDbEntity
  8
SEMA2D
100
AcDbLine
 62
7
  6
_SOLID
370
9
 10
0.629640877246857
 20
0.175678700208664
 11
0.640204906463623
 21
0.174754455685616
  0
LINE
  5
149
100
AcDbEntity
  8
SEMA2D
100
AcDbLine
 62
7
  6
_SOLID
370
9
 10
0.640204906463623
 20
0.177049234509468
 11
0.615634918212891
 21
0.186727613210678
  0
LINE
  5
14A
100
AcDbEntity
  8
SEMA2D
100
AcDbLine
 62
7
  6
_SOLID
370
9
 10
0.619414925575256
 20
0.186532214283943
 11
0.643984913825989
 21
0.17758946120739
  0
LINE
  5
14B
100
AcDbEntity
  8
SEMA2D
100
AcDbLine
 62
7
  6
_SOLID
370
9
 10
0.640204906463623
 20
0.174754455685616
 11
0.643984913825989
 21
0.174754455685616
  0
LINE
  5
14C
100
AcDbEntity
  8
SEMA2D
100
AcDbLine
 62
7
  6
_SOLID
370
9
 10
0.708891630172729
 20
0.5384521484375
 11
0.649774193763733
 21
0.53171581029892
  0
LINE
  5
14D
100
AcDbEntity
  8
SEMA2D
100
AcDbLine
 62
7
  6
_SOLID
370
9
 10
0.708891630172729
 20
0.5384521484375
 11
0.709882259368897
 21
0.529758393764496
  0
LINE
  5
14E
100
AcDbEntity
  8
SEMA2D
100
AcDbLine
 62
7
  6
_SOLID
370
9
 10
0.708891630172729
 20
0.5384521484375
 11
0.707901000976563
 21
0.547145843505859
  0
LINE
  5
14F
100
AcDbEntity
  8
SEMA2D
100
AcDbLine
 62
7
  6
_SOLID
370
9
 10
0.708891630172729
 20
0.5384521484375
 11
0.701857984066009
 21
0.533247351646423
  0
LINE
  5
150
100
AcDbEntity
  8
SEMA2D
100
AcDbLine
 62
7
  6
_SOLID
370
9
 10
0.708891630172729
 20
0.5384521484375
 11
0.715925335884094
 21
0.543656885623932
  0
LINE
  5
151
100
AcDbEntity
  8
SEMA2D
100
AcDbLine
 62
7
  6
_DOT
370
9
 10
0.703230857849121
 20
0.58813065290451
 11
0.708891630172729
 21
0.5384521484375
  0
LINE
  5
152
100
AcDbEntity
  8
SEMA2D
100
AcDbLine
 62
7
  6
_DOT
370
9
 10
0.703230857849121
 20
0.58813065290451
 11
0.703230857849121
 21
0.58813065290451
  0
MTEXT
  5
153
100
AcDbEntity
  8
SEMATEXT
100
AcDbMText
 62
7
 10
0.671420633792877
 20
0.540592789649963
 40
0.00999999977648258
 50
6.5007004737854
 71
7
  1
{\fArial Narrow;60}
  7
STANDARD
 73
2
  0
LINE
  5
154
100
AcDbEntity
  8
SEMA2D
100
AcDbLine
 62
7
  6
_SOLID
370
9
 10
0.649774193763733
 20
0.53171581029892
 11
0.6507648229599
 21
0.523022055625916
  0
LINE
  5
155
100
AcDbEntity
  8
SEMA2D
100
AcDbLine
 62
7
  6
_SOLID
370
9
 10
0.649774193763733
 20
0.53171581029892
 11
0.648783564567566
 21
0.540409564971924
  0
LINE
  5
156
100
AcDbEntity
  8
SEMA2D
100
AcDbLine
 62
7
  6
_SOLID
370
9
 10
0.649774193763733
 20
0.53171581029892
 11
0.642740547657013
 21
0.526511013507843
  0
LINE
  5
157
100
AcDbEntity
  8
SEMA2D
100
AcDbLine
 62
7
  6
_SOLID
370
9
 10
0.649774193763733
 20
0.53171581029892
 11
0.656807899475098
 21
0.536920607089996
  0
LINE
  5
158
100
AcDbEntity
  8
SEMA2D
100
AcDbLine
 62
7
  6
_DOT
370
9
 10
0.644113421440125
 20
0.58139431476593
 11
0.649774193763733
 21
0.53171581029892
  0
LINE
  5
159
100
AcDbEntity
  8
SEMA2D
100
AcDbLine
 62
7
  6
_DOT
370
9
 10
0.644113421440125
 20
0.58139431476593
 11
0.644113421440125
 21
0.58139431476593
  0
LINE
  5
15A
100
AcDbEntity
  8
SEMA2D
100
AcDbLine
 62
7
  6
_SOLID
370
9
 10
0.608074903488159
 20
0.70367443561554
 11
0.703230857849121
 21
0.70367443561554
  0
LINE
  5
15B
100
AcDbEntity
  8
SEMA2D
100
AcDbLine
 62
7
  6
_SOLID
370
9
 10
0.608074903488159
 20
0.70367443561554
 11
0.608074903488159
 21
0.712424457073212
  0
LINE
  5
15C
100
AcDbEntity
  8
SEMA2D
100
AcDbLine
 62
7
  6
_SOLID
370
9
 10
0.608074903488159
 20
0.70367443561554
 11
0.608074903488159
 21
0.694924473762512
  0
LINE
  5
15D
100
AcDbEntity
  8
SEMA2D
100
AcDbLine
 62
7
  6
_SOLID
370
9
 10
0.608074903488159
 20
0.70367443561554
 11
0.615652680397034
 21
0.708049476146698
  0
LINE
  5
15E
100
AcDbEntity
  8
SEMA2D
100
AcDbLine
 62
7
  6
_SOLID
370
9
 10
0.608074903488159
 20
0.70367443561554
 11
0.600497186183929
 21
0.699299454689026
  0
LINE
  5
15F
100
AcDbEntity
  8
SEMA2D
100
AcDbLine
 62
7
  6
_DOT
370
9
 10
0.608074903488159
 20
0.653674483299255
 11
0.608074903488159
 21
0.70367443561554
  0
LINE
  5
160
100
AcDbEntity
  8
SEMA2D
100
AcDbLine
 62
7
  6
_DOT
370
9
 10
0.608074903488159
 20
0.653674483299255
 11
0.608074903488159
 21
0.653674483299255
  0
MTEXT
  5
161
100
AcDbEntity
  8
SEMATEXT
100
AcDbMText
 62
7
 10
0.649219334125519
 20
0.710043668746948
 40
0.00999999977648258
 71
7
  1
{\fArial Narrow;95}
  7
STANDARD
 73
2
  0
LINE
  5
162
100
AcDbEntity
  8
SEMA2D
100
AcDbLine
 62
7
  6
_SOLID
370
9
 10
0.703230857849121
 20
0.70367443561554
 11
0.703230857849121
 21
0.712424457073212
  0
LINE
  5
163
100
AcDbEntity
  8
SEMA2D
100
AcDbLine
 62
7
  6
_SOLID
370
9
 10
0.703230857849121
 20
0.70367443561554
 11
0.703230857849121
 21
0.694924473762512
  0
LINE
  5
164
100
AcDbEntity
  8
SEMA2D
100
AcDbLine
 62
7
  6
_SOLID
370
9
 10
0.703230857849121
 20
0.70367443561554
 11
0.710808575153351
 21
0.708049476146698
  0
LINE
  5
165
100
AcDbEntity
  8
SEMA2D
100
AcDbLine
 62
7
  6
_SOLID
370
9
 10
0.703230857849121
 20
0.70367443561554
 11
0.695653140544891
 21
0.699299454689026
  0
LINE
  5
166
100
AcDbEntity
  8
SEMA2D
100
AcDbLine
 62
7
  6
_DOT
370
9
 10
0.703230857849121
 20
0.653674483299255
 11
0.703230857849121
 21
0.70367443561554
  0
LINE
  5
167
100
AcDbEntity
  8
SEMA2D
100
AcDbLine
 62
7
  6
_DOT
370
9
 10
0.703230857849121
 20
0.653674483299255
 11
0.703230857849121
 21
0.653674483299255
  0
ARC
  5
168
100
AcDbEntity
  8
SEMA2D
100
AcDbCircle
 62
7
  6
_SOLID
370
9
 10
1.01058959960938
 20
0.199796959757805
 40
0.025049289688468
100
AcDbArc
 50
181.333999633789
 51
358.665985107422
  0
ARC
  5
169
100
AcDbEntity
  8
SEMA2D
100
AcDbCircle
 62
7
  6
_SOLID
370
9
 10
1.10591650009155
 20
0.200151339173317
 40
0.0254141744226217
100
AcDbArc
 50
182.114151000977
 51
357.885864257812
  0
ARC
  5
16A
100
AcDbEntity
  8
SEMA2D
100
AcDbCircle
 62
7
  6
_SOLID
370
9
 10
1.16273462772369
 20
0.586664438247681
 40
0.00377999991178513
100
AcDbArc
 50
180
 51
270
  0
ARC
  5
16B
100
AcDbEntity
  8
SEMA2D
100
AcDbCircle
 62
7
  6
_SOLID
370
9
 10
1.16273462772369
 20
0.586664438247681
 40
0.00404562242329121
100
AcDbArc
 50
180
 51
270
  0
LINE
  5
16C
100
AcDbEntity
  8
SEMA2D
100
AcDbLine
 62
7
  6
_SOLID
370
9
 10
0.91988480091095
 20
0.197263970971107
 11
0.943452596664429
 21
0.584919691085815
  0
LINE
  5
16D
100
AcDbEntity
  8
SEMA2D
100
AcDbLine
 62
7
  6
_SOLID
370
9
 10
0.919469356536865
 20
0.193753719329834
 11
0.943447470664978
 21
0.588154494762421
  0
LINE
  5
16E
100
AcDbEntity
  8
SEMA2D
100
AcDbLine
 62
7
  6
_SOLID
370
9
 10
1.12776958942413
 20
0.587475717067719
 11
1.13295269012451
 21
0.590743243694305
  0
LINE
  5
16F
100
AcDbEntity
  8
SEMA2D
100
AcDbLine
 62
7
  6
_SOLID
370
9
 10
0.920827090740204
 20
0.197212308645248
 11
0.944394886493683
 21
0.58486807346344
  0
LINE
  5
170
100
AcDbEntity
  8
SEMA2D
100
AcDbLine
 62
7
  6
_SOLID
370
9
 10
0.923712372779846
 20
0.175802513957024
 11
0.923654913902283
 21
0.174754455685616
  0
LINE
  5
171
100
AcDbEntity
  8
SEMA2D
100
AcDbLine
 62
7
  6
_SOLID
370
9
 10
0.949103474617004
 20
0.590743243694305
 11
0.949513792991638
 21
0.592806935310364
  0
LINE
  5
172
100
AcDbEntity
  8
SEMA2D
100
AcDbLine
 62
7
  6
_SOLID
370
9
 10
0.9248006939888
 20
0.174754455685616
 11
0.925025582313538
 21
0.178855761885643
  0
LINE
  5
173
100
AcDbEntity
  8
SEMA2D
100
AcDbLine
 62
7
  6
_SOLID
370
9
 10
0.923855602741241
 20
0.174754455685616
 11
0.924083292484283
 21
0.178907424211502
  0
LINE
  5
174
100
AcDbEntity
  8
SEMA2D
100
AcDbLine
 62
7
  6
_SOLID
370
9
 10
0.949513792991638
 20
0.592806935310364
 11
0.950051307678223
 21
0.60261195898056
  0
LINE
  5
175
100
AcDbEntity
  8
SEMA2D
100
AcDbLine
 62
7
  6
_SOLID
370
9
 10
0.927935004234314
 20
0.199210792779922
 11
0.948145568370819
 21
0.56785124540329
  0
LINE
  5
176
100
AcDbEntity
  8
SEMA2D
100
AcDbLine
 62
7
  6
_SOLID
370
9
 10
1.15789210796356
 20
0.60261195898056
 11
1.15895462036133
 21
0.603674471378326
  0
LINE
  5
177
100
AcDbEntity
  8
SEMA2D
100
AcDbLine
 62
7
  6
_SOLID
370
9
 10
0.985547065734863
 20
0.199213787913322
 11
0.985547065734863
 21
0.562007665634155
  0
LINE
  5
178
100
AcDbEntity
  8
SEMA2D
100
AcDbLine
 62
7
  6
_SOLID
370
9
 10
0.948768258094788
 20
0.603674471378326
 11
0.948546230792999
 21
0.599624812602997
  0
LINE
  5
179
100
AcDbEntity
  8
SEMA2D
100
AcDbLine
 62
7
  6
_SOLID
370
9
 10
0.948567569255829
 20
0.603674471378326
 11
0.948518216609955
 21
0.602774202823639
  0
LINE
  5
17A
100
AcDbEntity
  8
SEMA2D
100
AcDbLine
 62
7
  6
_SOLID
370
9
 10
0.949103474617004
 20
0.590743243694305
 11
0.947903215885162
 21
0.568850994110107
  0
LINE
  5
17B
100
AcDbEntity
  8
SEMA2D
100
AcDbLine
 62
7
  6
_SOLID
370
9
 10
0.949713349342346
 20
0.603674471378326
 11
0.949488520622253
 21
0.599573135375977
  0
LINE
  5
17C
100
AcDbEntity
  8
SEMA2D
100
AcDbLine
 62
7
  6
_SOLID
370
9
 10
1.06728959083557
 20
0.199213787913322
 11
1.04886209964752
 21
0.199213787913322
  0
LINE
  5
17D
100
AcDbEntity
  8
SEMA2D
100
AcDbLine
 62
7
  6
_SOLID
370
9
 10
1.18529713153839
 20
0.199213787913322
 11
1.13131332397461
 21
0.199213787913322
  0
LINE
  5
17E
100
AcDbEntity
  8
SEMA2D
100
AcDbLine
 62
7
  6
_SOLID
370
9
 10
0.920705676078796
 20
0.197216004133224
 11
0.919763386249542
 21
0.197267651557922
  0
LINE
  5
17F
100
AcDbEntity
  8
SEMA2D
100
AcDbLine
 62
7
  6
_SOLID
370
9
 10
0.985547065734863
 20
0.199213787913322
 11
0.927825570106506
 21
0.199213787913322
  0
LINE
  5
180
100
AcDbEntity
  8
SEMA2D
100
AcDbLine
 62
7
  6
_SOLID
370
9
 10
0.923654913902283
 20
0.174754455685616
 11
1.18224906921387
 21
0.174754455685616
  0
LINE
  5
181
100
AcDbEntity
  8
SEMA2D
100
AcDbLine
 62
7
  6
_SOLID
370
9
 10
0.925025582313538
 20
0.178855761885643
 11
0.924083292484283
 21
0.178907424211502
  0
LINE
  5
182
100
AcDbEntity
  8
SEMA2D
100
AcDbLine
 62
7
  6
_SOLID
370
9
 10
0.988396406173706
 20
0.568850994110107
 11
0.993579566478729
 21
0.570433974266052
  0
LINE
  5
183
100
AcDbEntity
  8
SEMA2D
100
AcDbLine
 62
7
  6
_SOLID
370
9
 10
1.18172371387482
 20
0.175678700208664
 11
0.925405025482178
 21
0.175678700208664
  0
LINE
  5
184
100
AcDbEntity
  8
SEMA2D
100
AcDbLine
 62
7
  6
_SOLID
370
9
 10
0.923712372779846
 20
0.175802513957024
 11
0.919347941875458
 21
0.19375741481781
  0
LINE
  5
185
100
AcDbEntity
  8
SEMA2D
100
AcDbLine
 62
7
  6
_SOLID
370
9
 10
1.18635952472687
 20
0.187039464712143
 11
1.18576371669769
 21
0.187136501073837
  0
LINE
  5
186
100
AcDbEntity
  8
SEMA2D
100
AcDbLine
 62
7
  6
_SOLID
370
9
 10
0.925025582313538
 20
0.178855761885643
 11
0.920705676078796
 21
0.197216004133224
  0
LINE
  5
187
100
AcDbEntity
  8
SEMA2D
100
AcDbLine
 62
7
  6
_SOLID
370
9
 10
0.924083292484283
 20
0.178907424211502
 11
0.919763386249542
 21
0.197267651557922
  0
LINE
  5
188
100
AcDbEntity
  8
SEMA2D
100
AcDbLine
 62
7
  6
_SOLID
370
9
 10
0.943452596664429
 20
0.584919691085815
 11
0.948546230792999
 21
0.599624812602997
  0
LINE
  5
189
100
AcDbEntity
  8
SEMA2D
100
AcDbLine
 62
7
  6
_SOLID
370
9
 10
0.943447470664978
 20
0.588154494762421
 11
0.948474824428558
 21
0.602672815322876
  0
LINE
  5
18A
100
AcDbEntity
  8
SEMA2D
100
AcDbLine
 62
7
  6
_SOLID
370
9
 10
0.944394886493683
 20
0.58486807346344
 11
0.949488520622253
 21
0.599573135375977
  0
LINE
  5
18B
100
AcDbEntity
  8
SEMA2D
100
AcDbLine
 62
7
  6
_SOLID
370
9
 10
1.08051955699921
 20
0.174754455685616
 11
1.08051955699921
 21
0.562007665634155
  0
LINE
  5
18C
100
AcDbEntity
  8
SEMA2D
100
AcDbLine
 62
7
  6
_SOLID
370
9
 10
1.12776958942413
 20
0.570433974266052
 11
1.12776958942413
 21
0.587475717067719
  0
LINE
  5
18D
100
AcDbEntity
  8
SEMA2D
100
AcDbLine
 62
7
  6
_SOLID
370
9
 10
0.925405025482178
 20
0.175678700208664
 11
0.9248006939888
 21
0.174754455685616
  0
LINE
  5
18E
100
AcDbEntity
  8
SEMA2D
100
AcDbLine
 62
7
  6
_SOLID
370
9
 10
1.06728959083557
 20
0.562007665634155
 11
1.06728959083557
 21
0.199213787913322
  0
LINE
  5
18F
100
AcDbEntity
  8
SEMA2D
100
AcDbLine
 62
7
  6
_SOLID
370
9
 10
1.15895462036133
 20
0.603674471378326
 11
1.15895462036133
 21
0.586664438247681
  0
LINE
  5
190
100
AcDbEntity
  8
SEMA2D
100
AcDbLine
 62
7
  6
_SOLID
370
9
 10
1.15868890285492
 20
0.590743243694305
 11
1.15868890285492
 21
0.586664438247681
  0
LINE
  5
191
100
AcDbEntity
  8
SEMA2D
100
AcDbLine
 62
7
  6
_SOLID
370
9
 10
1.18529713153839
 20
0.56785124540329
 11
1.18529713153839
 21
0.199213787913322
  0
LINE
  5
192
100
AcDbEntity
  8
SEMA2D
100
AcDbLine
 62
7
  6
_SOLID
370
9
 10
1.16273462772369
 20
0.582618832588196
 11
1.16273462772369
 21
0.582884430885315
  0
LINE
  5
193
100
AcDbEntity
  8
SEMA2D
100
AcDbLine
 62
7
  6
_SOLID
370
9
 10
1.13295269012451
 20
0.590743243694305
 11
1.13295269012451
 21
0.568850994110107
  0
LINE
  5
194
100
AcDbEntity
  8
SEMA2D
100
AcDbLine
 62
7
  6
_SOLID
370
9
 10
1.13131332397461
 20
0.562007665634155
 11
1.13131332397461
 21
0.199213787913322
  0
LINE
  5
195
100
AcDbEntity
  8
SEMA2D
100
AcDbLine
 62
7
  6
_SOLID
370
9
 10
1.15789210796356
 20
0.60261195898056
 11
1.15789210796356
 21
0.592806935310364
  0
LINE
  5
196
100
AcDbEntity
  8
SEMA2D
100
AcDbLine
 62
7
  6
_SOLID
370
9
 10
1.18172371387482
 20
0.175678700208664
 11
1.18190288543701
 21
0.174754455685616
  0
LINE
  5
197
100
AcDbEntity
  8
SEMA2D
100
AcDbLine
 62
7
  6
_SOLID
370
9
 10
1.03563213348389
 20
0.174754455685616
 11
1.03563213348389
 21
0.562007665634155
  0
LINE
  5
198
100
AcDbEntity
  8
SEMA2D
100
AcDbLine
 62
7
  6
_SOLID
370
9
 10
0.950051307678223
 20
0.60261195898056
 11
0.949713349342346
 21
0.603674471378326
  0
LINE
  5
199
100
AcDbEntity
  8
SEMA2D
100
AcDbLine
 62
7
  6
_SOLID
370
9
 10
1.18529713153839
 20
0.56785124540329
 11
1.18609392642975
 21
0.568850994110107
  0
LINE
  5
19A
100
AcDbEntity
  8
SEMA2D
100
AcDbLine
 62
7
  6
_SOLID
370
9
 10
1.04886209964752
 20
0.562007665634155
 11
1.04886209964752
 21
0.199213787913322
  0
LINE
  5
19B
100
AcDbEntity
  8
SEMA2D
100
AcDbLine
 62
7
  6
_SOLID
370
9
 10
0.993579566478729
 20
0.570433974266052
 11
0.993579566478729
 21
0.587475717067719
  0
LINE
  5
19C
100
AcDbEntity
  8
SEMA2D
100
AcDbLine
 62
7
  6
_SOLID
370
9
 10
0.988396406173706
 20
0.568850994110107
 11
0.988396406173706
 21
0.590743243694305
  0
LINE
  5
19D
100
AcDbEntity
  8
SEMA2D
100
AcDbLine
 62
7
  6
_SOLID
370
9
 10
1.18609392642975
 20
0.582618832588196
 11
1.18635952472687
 21
0.582884430885315
  0
LINE
  5
19E
100
AcDbEntity
  8
SEMA2D
100
AcDbLine
 62
7
  6
_SOLID
370
9
 10
0.948145568370819
 20
0.56785124540329
 11
0.947903215885162
 21
0.568850994110107
  0
LINE
  5
19F
100
AcDbEntity
  8
SEMA2D
100
AcDbLine
 62
7
  6
_SOLID
370
9
 10
1.18625521659851
 20
0.186727613210678
 11
1.18527328968048
 21
0.185053214430809
  0
LINE
  5
1A0
100
AcDbEntity
  8
SEMA2D
100
AcDbLine
 62
7
  6
_SOLID
370
9
 10
1.18301689624786
 20
0.177049234509468
 11
1.18190288543701
 21
0.174754455685616
  0
LINE
  5
1A1
100
AcDbEntity
  8
SEMA2D
100
AcDbLine
 62
7
  6
_SOLID
370
9
 10
0.948567569255829
 20
0.603674471378326
 11
1.15895462036133
 21
0.603674471378326
  0
LINE
  5
1A2
100
AcDbEntity
  8
SEMA2D
100
AcDbLine
 62
7
  6
_SOLID
370
9
 10
0.950051307678223
 20
0.60261195898056
 11
1.15789210796356
 21
0.60261195898056
  0
LINE
  5
1A3
100
AcDbEntity
  8
SEMA2D
100
AcDbLine
 62
7
  6
_SOLID
370
9
 10
0.949513792991638
 20
0.592806935310364
 11
1.15789210796356
 21
0.592806935310364
  0
LINE
  5
1A4
100
AcDbEntity
  8
SEMA2D
100
AcDbLine
 62
7
  6
_SOLID
370
9
 10
1.13295269012451
 20
0.590743243694305
 11
1.15868890285492
 21
0.590743243694305
  0
LINE
  5
1A5
100
AcDbEntity
  8
SEMA2D
100
AcDbLine
 62
7
  6
_SOLID
370
9
 10
1.12776958942413
 20
0.570433974266052
 11
1.13295269012451
 21
0.568850994110107
  0
LINE
  5
1A6
100
AcDbEntity
  8
SEMA2D
100
AcDbLine
 62
7
  6
_SOLID
370
9
 10
0.944394886493683
 20
0.58486807346344
 11
0.943452596664429
 21
0.584919691085815
  0
LINE
  5
1A7
100
AcDbEntity
  8
SEMA2D
100
AcDbLine
 62
7
  6
_SOLID
370
9
 10
0.949488520622253
 20
0.599573135375977
 11
0.948546230792999
 21
0.599624812602997
  0
LINE
  5
1A8
100
AcDbEntity
  8
SEMA2D
100
AcDbLine
 62
7
  6
_SOLID
370
9
 10
1.18529713153839
 20
0.56785124540329
 11
0.948145568370819
 21
0.56785124540329
  0
LINE
  5
1A9
100
AcDbEntity
  8
SEMA2D
100
AcDbLine
 62
7
  6
_SOLID
370
9
 10
1.04886209964752
 20
0.562007665634155
 11
0.985547065734863
 21
0.562007665634155
  0
LINE
  5
1AA
100
AcDbEntity
  8
SEMA2D
100
AcDbLine
 62
7
  6
_SOLID
370
9
 10
1.13295269012451
 20
0.568850994110107
 11
1.18609392642975
 21
0.568850994110107
  0
LINE
  5
1AB
100
AcDbEntity
  8
SEMA2D
100
AcDbLine
 62
7
  6
_SOLID
370
9
 10
0.947903215885162
 20
0.568850994110107
 11
0.988396406173706
 21
0.568850994110107
  0
LINE
  5
1AC
100
AcDbEntity
  8
SEMA2D
100
AcDbLine
 62
7
  6
_SOLID
370
9
 10
1.18635952472687
 20
0.187039464712143
 11
1.18635952472687
 21
0.582884430885315
  0
LINE
  5
1AD
100
AcDbEntity
  8
SEMA2D
100
AcDbLine
 62
7
  6
_SOLID
370
9
 10
1.18609392642975
 20
0.568850994110107
 11
1.18609392642975
 21
0.582618832588196
  0
LINE
  5
1AE
100
AcDbEntity
  8
SEMA2D
100
AcDbLine
 62
7
  6
_SOLID
370
9
 10
1.13131332397461
 20
0.562007665634155
 11
1.06728959083557
 21
0.562007665634155
  0
LINE
  5
1AF
100
AcDbEntity
  8
SEMA2D
100
AcDbLine
 62
7
  6
_SOLID
370
9
 10
0.993579566478729
 20
0.587475717067719
 11
0.988396406173706
 21
0.590743243694305
  0
LINE
  5
1B0
100
AcDbEntity
  8
SEMA2D
100
AcDbLine
 62
7
  6
_SOLID
370
9
 10
1.15868890285492
 20
0.586664438247681
 11
1.15895462036133
 21
0.586664438247681
  0
LINE
  5
1B1
100
AcDbEntity
  8
SEMA2D
100
AcDbLine
 62
7
  6
_SOLID
370
9
 10
1.16273462772369
 20
0.582884430885315
 11
1.18635952472687
 21
0.582884430885315
  0
LINE
  5
1B2
100
AcDbEntity
  8
SEMA2D
100
AcDbLine
 62
7
  6
_SOLID
370
9
 10
0.949103474617004
 20
0.590743243694305
 11
0.988396406173706
 21
0.590743243694305
  0
LINE
  5
1B3
100
AcDbEntity
  8
SEMA2D
100
AcDbLine
 62
7
  6
_SOLID
370
9
 10
1.12776958942413
 20
0.587475717067719
 11
0.993579566478729
 21
0.587475717067719
  0
LINE
  5
1B4
100
AcDbEntity
  8
SEMA2D
100
AcDbLine
 62
7
  6
_SOLID
370
9
 10
1.15789210796356
 20
0.592806935310364
 11
1.15868890285492
 21
0.590743243694305
  0
LINE
  5
1B5
100
AcDbEntity
  8
SEMA2D
100
AcDbLine
 62
7
  6
_SOLID
370
9
 10
1.12776958942413
 20
0.570433974266052
 11
0.993579566478729
 21
0.570433974266052
  0
LINE
  5
1B6
100
AcDbEntity
  8
SEMA2D
100
AcDbLine
 62
7
  6
_SOLID
370
9
 10
1.16273462772369
 20
0.582618832588196
 11
1.18609392642975
 21
0.582618832588196
  0
LINE
  5
1B7
100
AcDbEntity
  8
SEMA2D
100
AcDbLine
 62
7
  6
_SOLID
370
9
 10
1.18224906921387
 20
0.174754455685616
 11
1.18635952472687
 21
0.187039464712143
  0
ENDSEC
  0
SECTION
  2
OBJECTS
  0
DICTIONARY
  5
 13
330
0
100
AcDbDictionary
281
     1
  3
ACAD_GROUP
350
 14
 3
ACAD_MLINESTYLE
350
 16
  3
ACAD_PLOTSETTINGS
350
 17
  3
ACAD_PLOTSTYLENAME
350
 18
  0
DICTIONARY
  5
 14
330
 13
100
AcDbDictionary
281
     1
  0
DICTIONARY
  5
 16
330
 13
100
AcDbDictionary
281
     1
  0
DICTIONARY
  5
 17
102
{ACAD_REACTORS
330
 13
102
}
330
 13
100
AcDbDictionary
281
     1
  0
ACDBDICTIONARYWDFLT
  5
 18
102
{ACAD_REACTORS
330
 13
102
}
330
 13
100
AcDbDictionary
281
     1
  3
Normal
350
 19
100
AcDbDictionaryWithDefault
340
 19
  0
ACDBPLACEHOLDER
  5
 19
102
{ACAD_REACTORS
330
 18
102
}
330
 18
  0
ENDSEC
  0
EOF
