  0
SECTION
  2
HEADER
  9
$ACADVER
  1
AC1015
  9
$HANDSEED
  5
1DB
  9
$LIMMIN
 10
1.52296376228333
 20
0.066186860203743
  9
$LIMMAX
 10
2.18201637268066
 20
0.869108200073242
  9
$MEASUREMENT
 70
1
  0
ENDSEC
  0
SECTION
  2
TABLES
  0
TABLE
  2
VPORT
  5
  1
100
AcDbSymbolTable
  0
ENDTAB
  0
TABLE
  2
LTYPE
  5
  2
100
AcDbSymbolTable
  0
LTYPE
  5
  3
100
AcDbSymbolTableRecord
100
AcDbLinetypeTableRecord
  2
BYBLOCK
 70
     0
  0
LTYPE
  5
  4
100
AcDbSymbolTableRecord
100
AcDbLinetypeTableRecord
  2
BYLAYER
 70
     0
  0
LTYPE
  5
20
100
AcDbSymbolTableRecord
100
AcDbLinetypeTableRecord
  2
_SOLID
  3

 70
0
 72
65
 73
2
 40
5
 49
5
 74
0
 49
0
 74
0
  0
LTYPE
  5
21
100
AcDbSymbolTableRecord
100
AcDbLinetypeTableRecord
  2
_DASH
  3

 70
0
 72
65
 73
2
 40
7
 49
5
 74
0
 49
-2
 74
0
  0
LTYPE
  5
22
100
AcDbSymbolTableRecord
100
AcDbLinetypeTableRecord
  2
_DOT
  3

 70
0
 72
65
 73
2
 40
4
 49
2
 74
0
 49
-2
 74
0
  0
LTYPE
  5
23
100
AcDbSymbolTableRecord
100
AcDbLinetypeTableRecord
  2
_DASHDOT
  3

 70
0
 72
65
 73
4
 40
11
 49
5
 74
0
 49
-2
 74
0
 49
2
 74
0
 49
-2
 74
0
  0
LTYPE
  5
24
100
AcDbSymbolTableRecord
100
AcDbLinetypeTableRecord
  2
_DASHDOTDOT
  3

 70
0
 72
65
 73
6
 40
15
 49
5
 74
0
 49
-2
 74
0
 49
2
 74
0
 49
-2
 74
0
 49
2
 74
0
 49
-2
 74
0
  0
LTYPE
  5
25
100
AcDbSymbolTableRecord
100
AcDbLinetypeTableRecord
  2
ISO128-20-02
  3

 70
0
 72
65
 73
2
 40
15
 49
12
 74
0
 49
-3
 74
0
  0
LTYPE
  5
26
100
AcDbSymbolTableRecord
100
AcDbLinetypeTableRecord
  2
ISO128-20-03
  3

 70
0
 72
65
 73
2
 40
30
 49
12
 74
0
 49
-18
 74
0
  0
LTYPE
  5
27
100
AcDbSymbolTableRecord
100
AcDbLinetypeTableRecord
  2
ISO128-20-04
  3

 70
0
 72
65
 73
4
 40
30
 49
24
 74
0
 49
-3
 74
0
 49
0
 74
0
 49
-3
 74
0
  0
LTYPE
  5
28
100
AcDbSymbolTableRecord
100
AcDbLinetypeTableRecord
  2
ISO128-20-05
  3

 70
0
 72
65
 73
6
 40
33
 49
24
 74
0
 49
-3
 74
0
 49
0
 74
0
 49
-3
 74
0
 49
0
 74
0
 49
-3
 74
0
  0
LTYPE
  5
29
100
AcDbSymbolTableRecord
100
AcDbLinetypeTableRecord
  2
ISO128-20-06
  3

 70
0
 72
65
 73
8
 40
36
 49
24
 74
0
 49
-3
 74
0
 49
0
 74
0
 49
-3
 74
0
 49
0
 74
0
 49
-3
 74
0
 49
0
 74
0
 49
-3
 74
0
  0
LTYPE
  5
2A
100
AcDbSymbolTableRecord
100
AcDbLinetypeTableRecord
  2
ISO128-20-07
  3

 70
0
 72
65
 73
2
 40
3
 49
0
 74
0
 49
-3
 74
0
  0
LTYPE
  5
2B
100
AcDbSymbolTableRecord
100
AcDbLinetypeTableRecord
  2
ISO128-20-08
  3

 70
0
 72
65
 73
4
 40
36
 49
24
 74
0
 49
-3
 74
0
 49
6
 74
0
 49
-3
 74
0
  0
LTYPE
  5
2C
100
AcDbSymbolTableRecord
100
AcDbLinetypeTableRecord
  2
ISO128-20-09
  3

 70
0
 72
65
 73
6
 40
45
 49
24
 74
0
 49
-3
 74
0
 49
6
 74
0
 49
-3
 74
0
 49
6
 74
0
 49
-3
 74
0
  0
LTYPE
  5
2D
100
AcDbSymbolTableRecord
100
AcDbLinetypeTableRecord
  2
ISO128-20-10
  3

 70
0
 72
65
 73
4
 40
18
 49
12
 74
0
 49
-3
 74
0
 49
0
 74
0
 49
-3
 74
0
  0
LTYPE
  5
2E
100
AcDbSymbolTableRecord
100
AcDbLinetypeTableRecord
  2
ISO128-20-11
  3

 70
0
 72
65
 73
6
 40
33
 49
12
 74
0
 49
-3
 74
0
 49
12
 74
0
 49
-3
 74
0
 49
0
 74
0
 49
-3
 74
0
  0
LTYPE
  5
2F
100
AcDbSymbolTableRecord
100
AcDbLinetypeTableRecord
  2
ISO128-20-12
  3

 70
0
 72
65
 73
6
 40
21
 49
12
 74
0
 49
-3
 74
0
 49
0
 74
0
 49
-3
 74
0
 49
0
 74
0
 49
-3
 74
0
  0
LTYPE
  5
30
100
AcDbSymbolTableRecord
100
AcDbLinetypeTableRecord
  2
ISO128-20-13
  3

 70
0
 72
65
 73
8
 40
36
 49
12
 74
0
 49
-3
 74
0
 49
12
 74
0
 49
-3
 74
0
 49
0
 74
0
 49
-3
 74
0
 49
0
 74
0
 49
-3
 74
0
  0
LTYPE
  5
31
100
AcDbSymbolTableRecord
100
AcDbLinetypeTableRecord
  2
ISO128-20-14
  3

 70
0
 72
65
 73
8
 40
24
 49
12
 74
0
 49
-3
 74
0
 49
0
 74
0
 49
-3
 74
0
 49
0
 74
0
 49
-3
 74
0
 49
0
 74
0
 49
-3
 74
0
  0
LTYPE
  5
32
100
AcDbSymbolTableRecord
100
AcDbLinetypeTableRecord
  2
ISO128-20-15
  3

 70
0
 72
65
 73
10
 40
39
 49
12
 74
0
 49
-3
 74
0
 49
12
 74
0
 49
-3
 74
0
 49
0
 74
0
 49
-3
 74
0
 49
0
 74
0
 49
-3
 74
0
 49
0
 74
0
 49
-3
 74
0
  0
ENDTAB
  0
TABLE
  2
LAYER
  5
 1A
330
  0
100
AcDbSymbolTable
  0
LAYER
  5
1D7
330
 1A
100
AcDbSymbolTableRecord
100
AcDbLayerTableRecord
  2
0
 70
0
 62
7
  6
Continuous
370
-3
390
 19
  0
LAYER
  5
1D8
330
 1A
100
AcDbSymbolTableRecord
100
AcDbLayerTableRecord
  2
SEMA2D
 70
0
 62
7
  6
Continuous
370
-3
390
 19
  0
LAYER
  5
1D9
330
 1A
100
AcDbSymbolTableRecord
100
AcDbLayerTableRecord
  2
SEMATEXT
 70
0
 62
7
  6
Continuous
370
-3
390
 19
  0
ENDTAB
  0
TABLE
  2
STYLE
  5
  5
100
AcDbSymbolTable
  0
STYLE
  5
  6
100
AcDbSymbolTableRecord
100
AcDbTextStyleTableRecord
  2
STANDARD
 70
     0
 40
0.0
 41
1.0
 50
0.0
 71
     0
 42
10.0
  3
txt
  4

  0
ENDTAB
  0
TABLE
  2
VIEW
  5
  7
100
AcDbSymbolTable
  0
ENDTAB
  0
TABLE
  2
UCS
  5
  8
100
AcDbSymbolTable
  0
ENDTAB
  0
TABLE
  2
APPID
  5
  9
100
AcDbSymbolTable
  0
APPID
  5
  A
100
AcDbSymbolTableRecord
100
AcDbRegAppTableRecord
  2
ACAD
 70
0
  0
ENDTAB
  0
TABLE
  2
DIMSTYLE
  5
  B
100
AcDbSymbolTable
 70
     1
100
AcDbDimStyleTable
 71
     0
  0
DIMSTYLE
105
 1B
330
B
100
AcDbSymbolTableRecord
100
AcDbDimStyleTableRecord
  2
STANDARD
 70
    0
340
  6
  0
ENDTAB
  0
TABLE
  2
BLOCK_RECORD
  5
  C
100
AcDbSymbolTable
  0
BLOCK_RECORD
  5
  D
100
AcDbSymbolTableRecord
100
AcDbBlockTableRecord
  2
*MODEL_SPACE
  0
BLOCK_RECORD
  5
  E
100
AcDbSymbolTableRecord
100
AcDbBlockTableRecord
  2
*PAPER_SPACE
  0
ENDTAB
  0
ENDSEC
  0
SECTION
  2
BLOCKS
  0
BLOCK
  5
  F
330
  D
100
AcDbEntity
  8
0
100
AcDbBlockBegin
  2
*MODEL_SPACE
 70
     0
  0
ENDBLK
  5
 10
100
AcDbEntity
  8
0
100
AcDbBlockEnd
  0
BLOCK
  5
 11
330
  E
100
AcDbEntity
  8
0
100
AcDbBlockBegin
  2
*PAPER_SPACE
 70
     0
  0
ENDBLK
  5
 12
100
AcDbEntity
  8
0
100
AcDbBlockEnd
  0
ENDSEC
  0
SECTION
  2
ENTITIES
  0
LINE
  5
33
100
AcDbEntity
  8
SEMA2D
100
AcDbLine
 62
7
  6
_SOLID
370
9
 10
1.83571875095367
 20
0.726784944534302
 11
1.83604943752289
 21
0.729146420955658
  0
LINE
  5
34
100
AcDbEntity
  8
SEMA2D
100
AcDbLine
 62
7
  6
_SOLID
370
9
 10
1.82939410209656
 20
0.726784944534302
 11
1.8364725112915
 21
0.733863353729248
  0
LINE
  5
35
100
AcDbEntity
  8
SEMA2D
100
AcDbLine
 62
7
  6
_SOLID
370
9
 10
1.82271480560303
 20
0.726784944534302
 11
1.83613991737366
 21
0.740210056304932
  0
LINE
  5
36
100
AcDbEntity
  8
SEMA2D
100
AcDbLine
 62
7
  6
_SOLID
370
9
 10
1.82232546806335
 20
0.733074903488159
 11
1.83580732345581
 21
0.746556758880615
  0
LINE
  5
37
100
AcDbEntity
  8
SEMA2D
100
AcDbLine
 62
7
  6
_SOLID
370
9
 10
1.83746671676636
 20
0.732968330383301
 11
1.83766770362854
 21
0.729135274887085
  0
LINE
  5
38
100
AcDbEntity
  8
SEMA2D
100
AcDbLine
 62
7
  6
_SOLID
370
9
 10
1.83061587810516
 20
0.84561562538147
 11
1.83652174472809
 21
0.732924818992615
  0
LINE
  5
39
100
AcDbEntity
  8
SEMA2D
100
AcDbLine
 62
7
  6
_SOLID
370
9
 10
1.76024317741394
 20
0.808776199817657
 11
1.76011657714844
 21
0.808303892612457
  0
LINE
  5
3A
100
AcDbEntity
  8
SEMA2D
100
AcDbLine
 62
7
  6
_SOLID
370
9
 10
1.75977087020874
 20
0.808776199817657
 11
1.76187598705292
 21
0.818680167198181
  0
LINE
  5
3B
100
AcDbEntity
  8
SEMA2D
100
AcDbLine
 62
7
  6
_SOLID
370
9
 10
1.8160548210144
 20
0.826994240283966
 11
1.83081805706024
 21
0.841757476329804
  0
LINE
  5
3C
100
AcDbEntity
  8
SEMA2D
100
AcDbLine
 62
7
  6
_SOLID
370
9
 10
1.76591074466705
 20
0.79366260766983
 11
1.77463662624359
 21
0.808776199817657
  0
LINE
  5
3D
100
AcDbEntity
  8
SEMA2D
100
AcDbLine
 62
7
  6
_SOLID
370
9
 10
1.79115748405457
 20
0.808776199817657
 11
1.79268407821655
 21
0.810302793979645
  0
LINE
  5
3E
100
AcDbEntity
  8
SEMA2D
100
AcDbLine
 62
7
  6
_SOLID
370
9
 10
1.80798661708832
 20
0.832284688949585
 11
1.8213175535202
 21
0.84561562538147
  0
LINE
  5
3F
100
AcDbEntity
  8
SEMA2D
100
AcDbLine
 62
7
  6
_SOLID
370
9
 10
1.73352313041687
 20
0.808776199817657
 11
1.7375727891922
 21
0.79366260766983
  0
LINE
  5
40
100
AcDbEntity
  8
SEMA2D
100
AcDbLine
 62
7
  6
_SOLID
370
9
 10
1.81280660629272
 20
0.830425381660461
 11
1.82799685001373
 21
0.84561562538147
  0
LINE
  5
41
100
AcDbEntity
  8
SEMA2D
100
AcDbLine
 62
7
  6
_SOLID
370
9
 10
1.58265841007233
 20
0.816332995891571
 11
1.58171379566193
 21
0.816332995891571
  0
LINE
  5
42
100
AcDbEntity
  8
SEMA2D
100
AcDbLine
 62
7
  6
_SOLID
370
9
 10
1.58372044563293
 20
0.808776199817657
 11
1.81628656387329
 21
0.808776199817657
  0
LINE
  5
43
100
AcDbEntity
  8
SEMA2D
100
AcDbLine
 62
7
  6
_SOLID
370
9
 10
1.62695419788361
 20
0.808303892612457
 11
1.63828933238983
 21
0.808303892612457
  0
LINE
  5
44
100
AcDbEntity
  8
SEMA2D
100
AcDbLine
 62
7
  6
_SOLID
370
9
 10
1.81766498088837
 20
0.821925103664398
 11
1.83115065097809
 21
0.83541077375412
  0
LINE
  5
45
100
AcDbEntity
  8
SEMA2D
100
AcDbLine
 62
7
  6
_SOLID
370
9
 10
1.78858113288879
 20
0.808303892612457
 11
1.80914974212646
 21
0.808303892612457
  0
LINE
  5
46
100
AcDbEntity
  8
SEMA2D
100
AcDbLine
 62
7
  6
_SOLID
370
9
 10
1.74903452396393
 20
0.808303892612457
 11
1.76011657714844
 21
0.808303892612457
  0
LINE
  5
47
100
AcDbEntity
  8
SEMA2D
100
AcDbLine
 62
7
  6
_SOLID
370
9
 10
1.75056326389313
 20
0.814937293529511
 11
1.76849293708801
 21
0.832867026329041
  0
LINE
  5
48
100
AcDbEntity
  8
SEMA2D
100
AcDbLine
 62
7
  6
_SOLID
370
9
 10
1.74768662452698
 20
0.818740010261536
 11
1.75973391532898
 21
0.830787301063538
  0
LINE
  5
49
100
AcDbEntity
  8
SEMA2D
100
AcDbLine
 62
7
  6
_SOLID
370
9
 10
1.75197470188141
 20
0.809669435024262
 11
1.78792083263397
 21
0.84561562538147
  0
LINE
  5
4A
100
AcDbEntity
  8
SEMA2D
100
AcDbLine
 62
7
  6
_SOLID
370
9
 10
1.7370103597641
 20
0.821422338485718
 11
1.74691879749298
 21
0.8313307762146
  0
LINE
  5
4B
100
AcDbEntity
  8
SEMA2D
100
AcDbLine
 62
7
  6
_SOLID
370
9
 10
1.73231983184814
 20
0.823411166667938
 11
1.74169647693634
 21
0.832787871360779
  0
LINE
  5
4C
100
AcDbEntity
  8
SEMA2D
100
AcDbLine
 62
7
  6
_SOLID
370
9
 10
1.71372163295746
 20
0.808776199817657
 11
1.71372163295746
 21
0.829085111618042
  0
LINE
  5
4D
100
AcDbEntity
  8
SEMA2D
100
AcDbLine
 62
7
  6
_SOLID
370
9
 10
1.74210941791534
 20
0.819842100143433
 11
1.75283229351044
 21
0.83056503534317
  0
LINE
  5
4E
100
AcDbEntity
  8
SEMA2D
100
AcDbLine
 62
7
  6
_SOLID
370
9
 10
1.62799918651581
 20
0.79366260766983
 11
1.65633714199066
 21
0.79366260766983
  0
LINE
  5
4F
100
AcDbEntity
  8
SEMA2D
100
AcDbLine
 62
7
  6
_SOLID
370
9
 10
1.78340494632721
 20
0.814382374286652
 11
1.81463813781738
 21
0.84561562538147
  0
LINE
  5
50
100
AcDbEntity
  8
SEMA2D
100
AcDbLine
 62
7
  6
_SOLID
370
9
 10
1.78473794460297
 20
0.809036076068878
 11
1.79448699951172
 21
0.818785071372986
  0
LINE
  5
51
100
AcDbEntity
  8
SEMA2D
100
AcDbLine
 62
7
  6
_SOLID
370
9
 10
1.7375727891922
 20
0.79366260766983
 11
1.76591074466705
 21
0.79366260766983
  0
LINE
  5
52
100
AcDbEntity
  8
SEMA2D
100
AcDbLine
 62
7
  6
_SOLID
370
9
 10
1.76918196678162
 20
0.820197343826294
 11
1.79460024833679
 21
0.84561562538147
  0
LINE
  5
53
100
AcDbEntity
  8
SEMA2D
100
AcDbLine
 62
7
  6
_SOLID
370
9
 10
1.75776076316834
 20
0.808776199817657
 11
1.76031339168549
 21
0.811328828334808
  0
LINE
  5
54
100
AcDbEntity
  8
SEMA2D
100
AcDbLine
 62
7
  6
_SOLID
370
9
 10
1.78207194805145
 20
0.81972873210907
 11
1.80795884132385
 21
0.84561562538147
  0
LINE
  5
55
100
AcDbEntity
  8
SEMA2D
100
AcDbLine
 62
7
  6
_SOLID
370
9
 10
1.78064215183258
 20
0.824978172779083
 11
1.80127954483032
 21
0.84561562538147
  0
LINE
  5
56
100
AcDbEntity
  8
SEMA2D
100
AcDbLine
 62
7
  6
_SOLID
370
9
 10
1.74890792369843
 20
0.808776199817657
 11
1.74903452396393
 21
0.808303892612457
  0
LINE
  5
57
100
AcDbEntity
  8
SEMA2D
100
AcDbLine
 62
7
  6
_SOLID
370
9
 10
1.78480279445648
 20
0.808776199817657
 11
1.78097379207611
 21
0.824133574962616
  0
LINE
  5
58
100
AcDbEntity
  8
SEMA2D
100
AcDbLine
 62
7
  6
_SOLID
370
9
 10
1.78845465183258
 20
0.808776199817657
 11
1.78858113288879
 21
0.808303892612457
  0
LINE
  5
59
100
AcDbEntity
  8
SEMA2D
100
AcDbLine
 62
7
  6
_SOLID
370
9
 10
1.82132756710052
 20
0.75211501121521
 11
1.83480942249298
 21
0.765596926212311
  0
LINE
  5
5A
100
AcDbEntity
  8
SEMA2D
100
AcDbLine
 62
7
  6
_SOLID
370
9
 10
1.82099497318268
 20
0.758461713790894
 11
1.83447682857513
 21
0.771943628787994
  0
LINE
  5
5B
100
AcDbEntity
  8
SEMA2D
100
AcDbLine
 62
7
  6
_SOLID
370
9
 10
1.81999707221985
 20
0.777501881122589
 11
1.83347904682159
 21
0.79098379611969
  0
LINE
  5
5C
100
AcDbEntity
  8
SEMA2D
100
AcDbLine
 62
7
  6
_SOLID
370
9
 10
1.82265508174896
 20
0.726784944534302
 11
1.81048429012299
 21
0.749462485313416
  0
LINE
  5
5D
100
AcDbEntity
  8
SEMA2D
100
AcDbLine
 62
7
  6
_SOLID
370
9
 10
1.82066237926483
 20
0.764808475971222
 11
1.83414423465729
 21
0.778290331363678
  0
LINE
  5
5E
100
AcDbEntity
  8
SEMA2D
100
AcDbLine
 62
7
  6
_SOLID
370
9
 10
1.82032978534698
 20
0.771155178546905
 11
1.83381164073944
 21
0.784637033939362
  0
LINE
  5
5F
100
AcDbEntity
  8
SEMA2D
100
AcDbLine
 62
7
  6
_SOLID
370
9
 10
1.82166016101837
 20
0.745768308639526
 11
1.83514213562012
 21
0.759250223636627
  0
LINE
  5
60
100
AcDbEntity
  8
SEMA2D
100
AcDbLine
 62
7
  6
_SOLID
370
9
 10
1.80913996696472
 20
0.808776199817657
 11
1.80914974212646
 21
0.808303892612457
  0
LINE
  5
61
100
AcDbEntity
  8
SEMA2D
100
AcDbLine
 62
7
  6
_SOLID
370
9
 10
1.81767845153809
 20
0.821744024753571
 11
1.82265508174896
 21
0.726784944534302
  0
LINE
  5
62
100
AcDbEntity
  8
SEMA2D
100
AcDbLine
 62
7
  6
_SOLID
370
9
 10
1.82199275493622
 20
0.739421606063843
 11
1.83547472953796
 21
0.752903461456299
  0
LINE
  5
63
100
AcDbEntity
  8
SEMA2D
100
AcDbLine
 62
7
  6
_SOLID
370
9
 10
1.83746671676636
 20
0.732968330383301
 11
1.83641695976257
 21
0.73492443561554
  0
LINE
  5
64
100
AcDbEntity
  8
SEMA2D
100
AcDbLine
 62
7
  6
_SOLID
370
9
 10
1.81575953960419
 20
0.822750508785248
 11
1.81767845153809
 21
0.821744024753571
  0
LINE
  5
65
100
AcDbEntity
  8
SEMA2D
100
AcDbLine
 62
7
  6
_SOLID
370
9
 10
1.81575953960419
 20
0.822750508785248
 11
1.81628656387329
 21
0.808776199817657
  0
LINE
  5
66
100
AcDbEntity
  8
SEMA2D
100
AcDbLine
 62
7
  6
_SOLID
370
9
 10
1.80683982372284
 20
0.808303892612457
 11
1.81048429012299
 21
0.749462485313416
  0
LINE
  5
67
100
AcDbEntity
  8
SEMA2D
100
AcDbLine
 62
7
  6
_SOLID
370
9
 10
1.59304893016815
 20
0.826723575592041
 11
1.60375285148621
 21
0.826723575592041
  0
LINE
  5
68
100
AcDbEntity
  8
SEMA2D
100
AcDbLine
 62
7
  6
_SOLID
370
9
 10
1.58264303207397
 20
0.826723575592041
 11
1.58454751968384
 21
0.826723575592041
  0
LINE
  5
69
100
AcDbEntity
  8
SEMA2D
100
AcDbLine
 62
7
  6
_SOLID
370
9
 10
1.81866669654846
 20
0.802888751029968
 11
1.83214855194092
 21
0.816370606422424
  0
LINE
  5
6A
100
AcDbEntity
  8
SEMA2D
100
AcDbLine
 62
7
  6
_SOLID
370
9
 10
1.74960851669312
 20
0.818500161170959
 11
1.75221407413483
 21
0.808776199817657
  0
LINE
  5
6B
100
AcDbEntity
  8
SEMA2D
100
AcDbLine
 62
7
  6
_SOLID
370
9
 10
1.81833398342133
 20
0.809235453605652
 11
1.83181595802307
 21
0.822717308998108
  0
LINE
  5
6C
100
AcDbEntity
  8
SEMA2D
100
AcDbLine
 62
7
  6
_SOLID
370
9
 10
1.81800138950348
 20
0.815582156181335
 11
1.83148324489594
 21
0.829064071178436
  0
LINE
  5
6D
100
AcDbEntity
  8
SEMA2D
100
AcDbLine
 62
7
  6
_SOLID
370
9
 10
1.61430251598358
 20
0.821764469146729
 11
1.62847149372101
 21
0.821764469146729
  0
LINE
  5
6E
100
AcDbEntity
  8
SEMA2D
100
AcDbLine
 62
7
  6
_SOLID
370
9
 10
1.59493815898895
 20
0.821764469146729
 11
1.60462033748627
 21
0.821764469146729
  0
LINE
  5
6F
100
AcDbEntity
  8
SEMA2D
100
AcDbLine
 62
7
  6
_SOLID
370
9
 10
1.81933188438416
 20
0.790195286273956
 11
1.83281373977661
 21
0.803677201271057
  0
LINE
  5
70
100
AcDbEntity
  8
SEMA2D
100
AcDbLine
 62
7
  6
_SOLID
370
9
 10
1.7923595905304
 20
0.808776199817657
 11
1.79549086093903
 21
0.823507845401764
  0
LINE
  5
71
100
AcDbEntity
  8
SEMA2D
100
AcDbLine
 62
7
  6
_SOLID
370
9
 10
1.60708391666412
 20
0.84561562538147
 11
1.83061587810516
 21
0.84561562538147
  0
LINE
  5
72
100
AcDbEntity
  8
SEMA2D
100
AcDbLine
 62
7
  6
_SOLID
370
9
 10
1.819664478302
 20
0.783848583698273
 11
1.83314633369446
 21
0.797330498695374
  0
LINE
  5
73
100
AcDbEntity
  8
SEMA2D
100
AcDbLine
 62
7
  6
_SOLID
370
9
 10
1.70571553707123
 20
0.829085111618042
 11
1.71889388561249
 21
0.829085111618042
  0
LINE
  5
74
100
AcDbEntity
  8
SEMA2D
100
AcDbLine
 62
7
  6
_SOLID
370
9
 10
1.81899929046631
 20
0.796542048454285
 11
1.83248114585876
 21
0.810023903846741
  0
LINE
  5
75
100
AcDbEntity
  8
SEMA2D
100
AcDbLine
 62
7
  6
_SOLID
370
9
 10
1.60674571990967
 20
0.831682741641998
 11
1.61076021194458
 21
0.831682741641998
  0
LINE
  5
76
100
AcDbEntity
  8
SEMA2D
100
AcDbLine
 62
7
  6
_SOLID
370
9
 10
1.58587634563446
 20
0.831682741641998
 11
1.59115982055664
 21
0.831682741641998
  0
LINE
  5
77
100
AcDbEntity
  8
SEMA2D
100
AcDbLine
 62
7
  6
_SOLID
370
9
 10
1.5829439163208
 20
0.814301252365112
 11
1.59368824958801
 21
0.825045526027679
  0
LINE
  5
78
100
AcDbEntity
  8
SEMA2D
100
AcDbLine
 62
7
  6
_SOLID
370
9
 10
1.58171379566193
 20
0.819750428199768
 11
1.59184563159943
 21
0.829882323741913
  0
LINE
  5
79
100
AcDbEntity
  8
SEMA2D
100
AcDbLine
 62
7
  6
_SOLID
370
9
 10
1.60708391666412
 20
0.84561562538147
 11
1.60375285148621
 21
0.826723575592041
  0
LINE
  5
7A
100
AcDbEntity
  8
SEMA2D
100
AcDbLine
 62
7
  6
_SOLID
370
9
 10
1.58372044563293
 20
0.808776199817657
 11
1.58265841007233
 21
0.816332995891571
  0
LINE
  5
7B
100
AcDbEntity
  8
SEMA2D
100
AcDbLine
 62
7
  6
_SOLID
370
9
 10
1.58171379566193
 20
0.816332995891571
 11
1.58171379566193
 21
0.820111393928528
  0
LINE
  5
7C
100
AcDbEntity
  8
SEMA2D
100
AcDbLine
 62
7
  6
_SOLID
370
9
 10
1.58454751968384
 20
0.826723575592041
 11
1.58587634563446
 21
0.831682741641998
  0
LINE
  5
7D
100
AcDbEntity
  8
SEMA2D
100
AcDbLine
 62
7
  6
_SOLID
370
9
 10
1.58547723293304
 20
0.830193221569061
 11
1.58696675300598
 21
0.831682741641998
  0
LINE
  5
7E
100
AcDbEntity
  8
SEMA2D
100
AcDbLine
 62
7
  6
_SOLID
370
9
 10
1.58264303207397
 20
0.826723575592041
 11
1.58171379566193
 21
0.820111393928528
  0
LINE
  5
7F
100
AcDbEntity
  8
SEMA2D
100
AcDbLine
 62
7
  6
_SOLID
370
9
 10
1.59745681285858
 20
0.808776199817657
 11
1.61328732967377
 21
0.824606716632843
  0
LINE
  5
80
100
AcDbEntity
  8
SEMA2D
100
AcDbLine
 62
7
  6
_SOLID
370
9
 10
1.60485339164734
 20
0.8228520154953
 11
1.61152970790863
 21
0.829528331756592
  0
LINE
  5
81
100
AcDbEntity
  8
SEMA2D
100
AcDbLine
 62
7
  6
_SOLID
370
9
 10
1.6041362285614
 20
0.808776199817657
 11
1.61712443828583
 21
0.821764469146729
  0
LINE
  5
82
100
AcDbEntity
  8
SEMA2D
100
AcDbLine
 62
7
  6
_SOLID
370
9
 10
1.63137221336365
 20
0.842691600322723
 11
1.63429629802704
 21
0.84561562538147
  0
LINE
  5
83
100
AcDbEntity
  8
SEMA2D
100
AcDbLine
 62
7
  6
_SOLID
370
9
 10
1.58409821987152
 20
0.808776199817657
 11
1.59708642959595
 21
0.821764469146729
  0
LINE
  5
84
100
AcDbEntity
  8
SEMA2D
100
AcDbLine
 62
7
  6
_SOLID
370
9
 10
1.60462033748627
 20
0.821764469146729
 11
1.60674571990967
 21
0.831682741641998
  0
LINE
  5
85
100
AcDbEntity
  8
SEMA2D
100
AcDbLine
 62
7
  6
_SOLID
370
9
 10
1.59077751636505
 20
0.808776199817657
 11
1.60376584529877
 21
0.821764469146729
  0
LINE
  5
86
100
AcDbEntity
  8
SEMA2D
100
AcDbLine
 62
7
  6
_SOLID
370
9
 10
1.60667502880096
 20
0.831353008747101
 11
1.60700476169586
 21
0.831682741641998
  0
LINE
  5
87
100
AcDbEntity
  8
SEMA2D
100
AcDbLine
 62
7
  6
_SOLID
370
9
 10
1.63029742240906
 20
0.834937453269959
 11
1.64005994796753
 21
0.84469997882843
  0
LINE
  5
88
100
AcDbEntity
  8
SEMA2D
100
AcDbLine
 62
7
  6
_SOLID
370
9
 10
1.69214642047882
 20
0.82331371307373
 11
1.71444821357727
 21
0.84561562538147
  0
LINE
  5
89
100
AcDbEntity
  8
SEMA2D
100
AcDbLine
 62
7
  6
_SOLID
370
9
 10
1.68176472187042
 20
0.819611430168152
 11
1.70776891708374
 21
0.84561562538147
  0
LINE
  5
8A
100
AcDbEntity
  8
SEMA2D
100
AcDbLine
 62
7
  6
_SOLID
370
9
 10
1.70263063907623
 20
0.827118635177612
 11
1.7211275100708
 21
0.84561562538147
  0
LINE
  5
8B
100
AcDbEntity
  8
SEMA2D
100
AcDbLine
 62
7
  6
_SOLID
370
9
 10
1.67522919178009
 20
0.808776199817657
 11
1.67792797088623
 21
0.818848311901092
  0
LINE
  5
8C
100
AcDbEntity
  8
SEMA2D
100
AcDbLine
 62
7
  6
_SOLID
370
9
 10
1.66698944568634
 20
0.8115154504776
 11
1.69175720214844
 21
0.836283266544342
  0
LINE
  5
8D
100
AcDbEntity
  8
SEMA2D
100
AcDbLine
 62
7
  6
_SOLID
370
9
 10
1.66565644741058
 20
0.816861748695374
 11
1.68087148666382
 21
0.832076907157898
  0
LINE
  5
8E
100
AcDbEntity
  8
SEMA2D
100
AcDbLine
 62
7
  6
_SOLID
370
9
 10
1.67092955112457
 20
0.808776199817657
 11
1.67680299282074
 21
0.814649641513825
  0
LINE
  5
8F
100
AcDbEntity
  8
SEMA2D
100
AcDbLine
 62
7
  6
_SOLID
370
9
 10
1.61927330493927
 20
0.808776199817657
 11
1.62799918651581
 21
0.79366260766983
  0
LINE
  5
90
100
AcDbEntity
  8
SEMA2D
100
AcDbLine
 62
7
  6
_SOLID
370
9
 10
1.72242963314056
 20
0.826879620552063
 11
1.73197436332703
 21
0.836424350738525
  0
LINE
  5
91
100
AcDbEntity
  8
SEMA2D
100
AcDbLine
 62
7
  6
_SOLID
370
9
 10
1.71795570850372
 20
0.829085111618042
 11
1.72717022895813
 21
0.838299572467804
  0
LINE
  5
92
100
AcDbEntity
  8
SEMA2D
100
AcDbLine
 62
7
  6
_SOLID
370
9
 10
1.72718906402588
 20
0.824959754943848
 11
1.73701727390289
 21
0.834787905216217
  0
LINE
  5
93
100
AcDbEntity
  8
SEMA2D
100
AcDbLine
 62
7
  6
_SOLID
370
9
 10
1.66526281833649
 20
0.81844037771225
 11
1.66767239570618
 21
0.808776199817657
  0
LINE
  5
94
100
AcDbEntity
  8
SEMA2D
100
AcDbLine
 62
7
  6
_SOLID
370
9
 10
1.83746671676636
 20
0.732968330383301
 11
1.83652174472809
 21
0.732924818992615
  0
LINE
  5
95
100
AcDbEntity
  8
SEMA2D
100
AcDbLine
 62
7
  6
_SOLID
370
9
 10
1.71127641201019
 20
0.829085111618042
 11
1.72362184524536
 21
0.841430485248566
  0
LINE
  5
96
100
AcDbEntity
  8
SEMA2D
100
AcDbLine
 62
7
  6
_SOLID
370
9
 10
1.83604943752289
 20
0.729146420955658
 11
1.83766770362854
 21
0.729135274887085
  0
LINE
  5
97
100
AcDbEntity
  8
SEMA2D
100
AcDbLine
 62
7
  6
_SOLID
370
9
 10
1.82265508174896
 20
0.726784944534302
 11
1.83571875095367
 21
0.726784944534302
  0
LINE
  5
98
100
AcDbEntity
  8
SEMA2D
100
AcDbLine
 62
7
  6
_SOLID
370
9
 10
1.63828933238983
 20
0.808303892612457
 11
1.64215624332428
 21
0.826496183872223
  0
LINE
  5
99
100
AcDbEntity
  8
SEMA2D
100
AcDbLine
 62
7
  6
_SOLID
370
9
 10
1.59115982055664
 20
0.831682741641998
 11
1.59493815898895
 21
0.821764469146729
  0
LINE
  5
9A
100
AcDbEntity
  8
SEMA2D
100
AcDbLine
 62
7
  6
_SOLID
370
9
 10
1.63085353374481
 20
0.808776199817657
 11
1.64042401313782
 21
0.818346738815308
  0
LINE
  5
9B
100
AcDbEntity
  8
SEMA2D
100
AcDbLine
 62
7
  6
_SOLID
370
9
 10
1.62417423725128
 20
0.808776199817657
 11
1.65092813968658
 21
0.83553022146225
  0
LINE
  5
9C
100
AcDbEntity
  8
SEMA2D
100
AcDbLine
 62
7
  6
_SOLID
370
9
 10
1.61081552505493
 20
0.808776199817657
 11
1.62380373477936
 21
0.821764469146729
  0
LINE
  5
9D
100
AcDbEntity
  8
SEMA2D
100
AcDbLine
 62
7
  6
_SOLID
370
9
 10
1.62847149372101
 20
0.821764469146729
 11
1.63177752494812
 21
0.84561562538147
  0
LINE
  5
9E
100
AcDbEntity
  8
SEMA2D
100
AcDbLine
 62
7
  6
_SOLID
370
9
 10
1.61749482154846
 20
0.808776199817657
 11
1.6468870639801
 21
0.838168323040009
  0
LINE
  5
9F
100
AcDbEntity
  8
SEMA2D
100
AcDbLine
 62
7
  6
_SOLID
370
9
 10
1.62922263145447
 20
0.827183246612549
 11
1.64326858520508
 21
0.841229319572449
  0
LINE
  5
A0
100
AcDbEntity
  8
SEMA2D
100
AcDbLine
 62
7
  6
_SOLID
370
9
 10
1.66111481189728
 20
0.818999469280243
 11
1.67271518707275
 21
0.830599904060364
  0
LINE
  5
A1
100
AcDbEntity
  8
SEMA2D
100
AcDbLine
 62
7
  6
_SOLID
370
9
 10
1.65570139884949
 20
0.820265352725983
 11
1.66613352298737
 21
0.830697596073151
  0
LINE
  5
A2
100
AcDbEntity
  8
SEMA2D
100
AcDbLine
 62
7
  6
_SOLID
370
9
 10
1.65633714199066
 20
0.79366260766983
 11
1.66038680076599
 21
0.808776199817657
  0
LINE
  5
A3
100
AcDbEntity
  8
SEMA2D
100
AcDbLine
 62
7
  6
_SOLID
370
9
 10
1.6268275976181
 20
0.808776199817657
 11
1.62695419788361
 21
0.808303892612457
  0
LINE
  5
A4
100
AcDbEntity
  8
SEMA2D
100
AcDbLine
 62
7
  6
_SOLID
370
9
 10
1.61076021194458
 20
0.831682741641998
 11
1.61430251598358
 21
0.821764469146729
  0
LINE
  5
A5
100
AcDbEntity
  8
SEMA2D
100
AcDbLine
 62
7
  6
_SOLID
370
9
 10
1.64619839191437
 20
0.824121057987213
 11
1.65542769432068
 21
0.833350419998169
  0
LINE
  5
A6
100
AcDbEntity
  8
SEMA2D
100
AcDbLine
 62
7
  6
_SOLID
370
9
 10
1.65074968338013
 20
0.821993052959442
 11
1.66045141220093
 21
0.831694722175598
  0
LINE
  5
A7
100
AcDbEntity
  8
SEMA2D
100
AcDbLine
 62
7
  6
_SOLID
370
9
 10
1.63753283023834
 20
0.808776199817657
 11
1.63862109184265
 21
0.809864401817322
  0
ARC
  5
A8
100
AcDbEntity
  8
SEMA2D
100
AcDbCircle
 62
7
  6
_SOLID
370
9
 10
1.66996991634369
 20
0.869108200073242
 40
0.0508859902620316
100
AcDbArc
 50
278.997436523438
 51
297.992858886719
  0
ARC
  5
A9
100
AcDbEntity
  8
SEMA2D
100
AcDbCircle
 62
7
  6
_SOLID
370
9
 10
1.73463726043701
 20
0.850337982177734
 40
0.0264487992972136
100
AcDbArc
 50
233.470199584961
 51
261.678619384766
  0
ARC
  5
AA
100
AcDbEntity
  8
SEMA2D
100
AcDbCircle
 62
7
  6
_SOLID
370
9
 10
1.73463726043701
 20
0.850337982177734
 40
0.0141690000891685
100
AcDbArc
 50
199.468475341797
 51
270
  0
ARC
  5
AB
100
AcDbEntity
  8
SEMA2D
100
AcDbCircle
 62
7
  6
_SOLID
370
9
 10
1.66996991634369
 20
0.869108200073242
 40
0.0508859902620316
100
AcDbArc
 50
236.866790771484
 51
264.692413330078
  0
ARC
  5
AC
100
AcDbEntity
  8
SEMA2D
100
AcDbCircle
 62
7
  6
_SOLID
370
9
 10
1.66996991634369
 20
0.869108200073242
 40
0.0386061891913414
100
AcDbArc
 50
217.482482910156
 51
301.439147949219
  0
LINE
  5
AD
100
AcDbEntity
  8
SEMA2D
100
AcDbLine
 62
7
  6
_SOLID
370
9
 10
1.83158552646637
 20
0.827113509178162
 11
1.83178639411926
 21
0.823279976844788
  0
ARC
  5
AE
100
AcDbEntity
  8
SEMA2D
100
AcDbCircle
 62
7
  6
_SOLID
370
9
 10
1.7546933889389
 20
0.869108200073242
 40
0.0508859902620316
100
AcDbArc
 50
242.00715637207
 51
264.272308349609
  0
ARC
  5
AF
100
AcDbEntity
  8
SEMA2D
100
AcDbCircle
 62
7
  6
_SOLID
370
9
 10
1.6899721622467
 20
0.850337982177734
 40
0.0264487992972136
100
AcDbArc
 50
278.321380615234
 51
306.529815673828
  0
ARC
  5
B0
100
AcDbEntity
  8
SEMA2D
100
AcDbCircle
 62
7
  6
_SOLID
370
9
 10
1.6899721622467
 20
0.850337982177734
 40
0.0141690000891685
100
AcDbArc
 50
270
 51
340.531524658203
  0
ARC
  5
B1
100
AcDbEntity
  8
SEMA2D
100
AcDbCircle
 62
7
  6
_SOLID
370
9
 10
1.75463950634003
 20
0.869108200073242
 40
0.0386061891913414
100
AcDbArc
 50
238.560836791992
 51
322.517517089844
  0
ARC
  5
B2
100
AcDbEntity
  8
SEMA2D
100
AcDbCircle
 62
7
  6
_SOLID
370
9
 10
1.75716888904572
 20
0.869108200073242
 40
0.0508859902620316
100
AcDbArc
 50
275.307586669922
 51
297.892028808594
  0
ARC
  5
B3
100
AcDbEntity
  8
SEMA2D
100
AcDbCircle
 62
7
  6
_SOLID
370
9
 10
1.80645322799683
 20
0.821148633956909
 40
0.0112410811707377
100
AcDbArc
 50
3.03600764274597
 51
82.1597366333008
  0
ARC
  5
B4
100
AcDbEntity
  8
SEMA2D
100
AcDbCircle
 62
7
  6
_SOLID
370
9
 10
1.8074221611023
 20
0.819804608821869
 40
0.0124928038567305
100
AcDbArc
 50
87.4106063842773
 51
162.756790161133
  0
LINE
  5
B5
100
AcDbEntity
  8
SEMA2D
100
AcDbLine
 62
7
  6
_SOLID
370
35
 10
1.53673946857452
 20
0.808776199817657
 11
1.79263663291931
 21
0.808776199817657
  0
LINE
  5
B6
100
AcDbEntity
  8
SEMA2D
100
AcDbLine
 62
7
  6
_SOLID
370
35
 10
1.53673946857452
 20
0.783776223659515
 11
1.76763665676117
 21
0.783776223659515
  0
LINE
  5
B7
100
AcDbEntity
  8
SEMA2D
100
AcDbLine
 62
7
  6
_SOLID
370
35
 10
1.79263663291931
 20
0.808776199817657
 11
1.79263663291931
 21
0.703476190567017
  0
LINE
  5
B8
100
AcDbEntity
  8
SEMA2D
100
AcDbLine
 62
7
  6
_SOLID
370
35
 10
1.76763665676117
 20
0.703476190567017
 11
1.76763665676117
 21
0.808776199817657
  0
LINE
  5
B9
100
AcDbEntity
  8
SEMA2D
100
AcDbLine
 62
7
  6
_SOLID
370
35
 10
1.79263663291931
 20
0.703476190567017
 11
1.76763665676117
 21
0.703476190567017
  0
LINE
  5
BA
100
AcDbEntity
  8
SEMA2D
100
AcDbLine
 62
7
  6
_SOLID
370
9
 10
2.15554666519165
 20
0.602745175361633
 11
2.14893436431885
 21
0.603674471378326
  0
LINE
  5
BB
100
AcDbEntity
  8
SEMA2D
100
AcDbLine
 62
7
  6
_SOLID
370
9
 10
2.16593718528748
 20
0.603674471378326
 11
2.17443871498108
 21
0.602479636669159
  0
LINE
  5
BC
100
AcDbEntity
  8
SEMA2D
100
AcDbLine
 62
7
  6
_SOLID
370
9
 10
2.14515614509583
 20
0.603674471378326
 11
2.16598653793335
 21
0.603674471378326
  0
LINE
  5
BD
100
AcDbEntity
  8
SEMA2D
100
AcDbLine
 62
7
  6
_SOLID
370
9
 10
2.13759922981262
 20
0.598933398723602
 11
2.07828545570374
 21
0.588623940944672
  0
LINE
  5
BE
100
AcDbEntity
  8
SEMA2D
100
AcDbLine
 62
7
  6
_SOLID
370
9
 10
2.13759922981262
 20
0.601667821407318
 11
2.14515614509583
 21
0.602729856967926
  0
LINE
  5
BF
100
AcDbEntity
  8
SEMA2D
100
AcDbLine
 62
7
  6
_SOLID
370
9
 10
2.15554666519165
 20
0.603010714054108
 11
2.17066025733948
 21
0.603010714054108
  0
LINE
  5
C0
100
AcDbEntity
  8
SEMA2D
100
AcDbLine
 62
7
  6
_SOLID
370
9
 10
2.14515614509583
 20
0.175881460309029
 11
2.13759922981262
 21
0.175881460309029
  0
LINE
  5
C1
100
AcDbEntity
  8
SEMA2D
100
AcDbLine
 62
7
  6
_SOLID
370
9
 10
2.13712692260742
 20
0.17635215818882
 11
2.1446545124054
 21
0.175951957702637
  0
LINE
  5
C2
100
AcDbEntity
  8
SEMA2D
100
AcDbLine
 62
7
  6
_SOLID
370
9
 10
2.13712692260742
 20
0.175914645195007
 11
2.13759922981262
 21
0.175881460309029
  0
LINE
  5
C3
100
AcDbEntity
  8
SEMA2D
100
AcDbLine
 62
7
  6
_SOLID
370
9
 10
2.14893436431885
 20
0.174936860799789
 11
2.13759922981262
 21
0.174936860799789
  0
LINE
  5
C4
100
AcDbEntity
  8
SEMA2D
100
AcDbLine
 62
7
  6
_SOLID
370
9
 10
2.14893436431885
 20
0.175597995519638
 11
2.15546870231628
 21
0.176169663667679
  0
LINE
  5
C5
100
AcDbEntity
  8
SEMA2D
100
AcDbLine
 62
7
  6
_SOLID
370
9
 10
2.13712692260742
 20
0.175947830080986
 11
2.12295794487
 21
0.177939161658287
  0
LINE
  5
C6
100
AcDbEntity
  8
SEMA2D
100
AcDbLine
 62
7
  6
_SOLID
370
9
 10
2.14515614509583
 20
0.201385661959648
 11
2.14893436431885
 21
0.201385661959648
  0
LINE
  5
C7
100
AcDbEntity
  8
SEMA2D
100
AcDbLine
 62
7
  6
_SOLID
370
9
 10
2.13759922981262
 20
0.203392297029495
 11
2.14515614509583
 21
0.202330261468887
  0
LINE
  5
C8
100
AcDbEntity
  8
SEMA2D
100
AcDbLine
 62
7
  6
_SOLID
370
9
 10
2.13712692260742
 20
0.571830749511719
 11
2.13759922981262
 21
0.572002649307251
  0
LINE
  5
C9
100
AcDbEntity
  8
SEMA2D
100
AcDbLine
 62
7
  6
_SOLID
370
9
 10
2.13759922981262
 20
0.197607263922691
 11
2.15058755874634
 21
0.197607263922691
  0
LINE
  5
CA
100
AcDbEntity
  8
SEMA2D
100
AcDbLine
 62
7
  6
_SOLID
370
9
 10
2.14515614509583
 20
0.175881460309029
 11
2.1446545124054
 21
0.175951957702637
  0
LINE
  5
CB
100
AcDbEntity
  8
SEMA2D
100
AcDbLine
 62
7
  6
_SOLID
370
9
 10
2.03338098526001
 20
0.193967014551163
 11
2.12295794487
 21
0.178016290068626
  0
LINE
  5
CC
100
AcDbEntity
  8
SEMA2D
100
AcDbLine
 62
7
  6
_SOLID
370
9
 10
2.14893436431885
 20
0.201385661959648
 11
2.15956878662109
 21
0.202880203723907
  0
LINE
  5
CD
100
AcDbEntity
  8
SEMA2D
100
AcDbLine
 62
7
  6
_SOLID
370
9
 10
2.16829872131348
 20
0.590808391571045
 11
2.16829872131348
 21
0.568476736545563
  0
LINE
  5
CE
100
AcDbEntity
  8
SEMA2D
100
AcDbLine
 62
7
  6
_SOLID
370
9
 10
2.17443871498108
 20
0.602479636669159
 11
2.17443871498108
 21
0.592339277267456
  0
LINE
  5
CF
100
AcDbEntity
  8
SEMA2D
100
AcDbLine
 62
7
  6
_SOLID
370
9
 10
2.17443871498108
 20
0.196871787309647
 11
2.17443871498108
 21
0.567394077777863
  0
LINE
  5
D0
100
AcDbEntity
  8
SEMA2D
100
AcDbLine
 62
7
  6
_SOLID
370
9
 10
2.15957880020142
 20
0.204880177974701
 11
2.16050577163696
 21
0.390305668115616
  0
LINE
  5
D1
100
AcDbEntity
  8
SEMA2D
100
AcDbLine
 62
7
  6
_SOLID
370
9
 10
2.15932512283325
 20
0.570059061050415
 11
2.15932512283325
 21
0.588571012020111
  0
LINE
  5
D2
100
AcDbEntity
  8
SEMA2D
100
AcDbLine
 62
7
  6
_SOLID
370
9
 10
2.16050577163696
 20
0.499739080667496
 11
2.16050577163696
 21
0.3883056640625
  0
LINE
  5
D3
100
AcDbEntity
  8
SEMA2D
100
AcDbLine
 62
7
  6
_SOLID
370
9
 10
2.13759922981262
 20
0.544291198253632
 11
2.13712692260742
 21
0.545109272003174
  0
LINE
  5
D4
100
AcDbEntity
  8
SEMA2D
100
AcDbLine
 62
7
  6
_SOLID
370
9
 10
2.17443871498108
 20
0.567394077777863
 11
2.15932512283325
 21
0.570059061050415
  0
LINE
  5
D5
100
AcDbEntity
  8
SEMA2D
100
AcDbLine
 62
7
  6
_SOLID
370
9
 10
2.13759922981262
 20
0.576449930667877
 11
2.12248563766479
 21
0.579114854335785
  0
LINE
  5
D6
100
AcDbEntity
  8
SEMA2D
100
AcDbLine
 62
7
  6
_SOLID
370
9
 10
2.13759922981262
 20
0.192084059119225
 11
2.12295794487
 21
0.187607765197754
  0
LINE
  5
D7
100
AcDbEntity
  8
SEMA2D
100
AcDbLine
 62
7
  6
_SOLID
370
9
 10
2.13759922981262
 20
0.591665923595428
 11
2.12248563766479
 21
0.587616264820099
  0
LINE
  5
D8
100
AcDbEntity
  8
SEMA2D
100
AcDbLine
 62
7
  6
_SOLID
370
9
 10
2.15554666519165
 20
0.502602279186249
 11
2.16050577163696
 21
0.499739080667496
  0
LINE
  5
D9
100
AcDbEntity
  8
SEMA2D
100
AcDbLine
 62
7
  6
_SOLID
370
9
 10
2.17443871498108
 20
0.592339277267456
 11
2.15554666519165
 21
0.587628960609436
  0
LINE
  5
DA
100
AcDbEntity
  8
SEMA2D
100
AcDbLine
 62
7
  6
_SOLID
370
9
 10
2.13712692260742
 20
0.198085501790047
 11
2.13759922981262
 21
0.198229908943176
  0
LINE
  5
DB
100
AcDbEntity
  8
SEMA2D
100
AcDbLine
 62
7
  6
_SOLID
370
9
 10
2.15554666519165
 20
0.20231494307518
 11
2.15554666519165
 21
0.603010714054108
  0
LINE
  5
DC
100
AcDbEntity
  8
SEMA2D
100
AcDbLine
 62
7
  6
_SOLID
370
9
 10
2.12295794487
 20
0.187609866261482
 11
2.12295794487
 21
0.17793707549572
  0
LINE
  5
DD
100
AcDbEntity
  8
SEMA2D
100
AcDbLine
 62
7
  6
_SOLID
370
9
 10
2.13712692260742
 20
0.175914645195007
 11
2.13712692260742
 21
0.198085501790047
  0
LINE
  5
DE
100
AcDbEntity
  8
SEMA2D
100
AcDbLine
 62
7
  6
_SOLID
370
9
 10
2.13712692260742
 20
0.545109272003174
 11
2.13712692260742
 21
0.571830749511719
  0
LINE
  5
DF
100
AcDbEntity
  8
SEMA2D
100
AcDbLine
 62
7
  6
_SOLID
370
9
 10
2.12248563766479
 20
0.587616264820099
 11
2.12248563766479
 21
0.579114854335785
  0
LINE
  5
E0
100
AcDbEntity
  8
SEMA2D
100
AcDbLine
 62
7
  6
_SOLID
370
9
 10
2.13759922981262
 20
0.566708505153656
 11
2.13712692260742
 21
0.565890431404114
  0
LINE
  5
E1
100
AcDbEntity
  8
SEMA2D
100
AcDbLine
 62
7
  6
_SOLID
370
9
 10
2.03360605239868
 20
0.193954318761826
 11
2.07828545570374
 21
0.588623940944672
  0
LINE
  5
E2
100
AcDbEntity
  8
SEMA2D
100
AcDbLine
 62
7
  6
_SOLID
370
9
 10
2.13759922981262
 20
0.175881460309029
 11
2.13759922981262
 21
0.174936860799789
  0
LINE
  5
E3
100
AcDbEntity
  8
SEMA2D
100
AcDbLine
 62
7
  6
_SOLID
370
9
 10
2.14515614509583
 20
0.174936860799789
 11
2.14515614509583
 21
0.603674471378326
  0
LINE
  5
E4
100
AcDbEntity
  8
SEMA2D
100
AcDbLine
 62
7
  6
_SOLID
370
9
 10
2.14893436431885
 20
0.174936860799789
 11
2.14893436431885
 21
0.603674471378326
  0
LINE
  5
E5
100
AcDbEntity
  8
SEMA2D
100
AcDbLine
 62
7
  6
_SOLID
370
9
 10
2.15058755874634
 20
0.175742611289024
 11
2.15058755874634
 21
0.201617985963821
  0
LINE
  5
E6
100
AcDbEntity
  8
SEMA2D
100
AcDbLine
 62
7
  6
_SOLID
370
9
 10
2.13759922981262
 20
0.192084059119225
 11
2.13759922981262
 21
0.601667821407318
  0
ARC
  5
E7
100
AcDbEntity
  8
SEMA2D
100
AcDbCircle
 62
7
  6
_SOLID
370
9
 10
2.15490579605103
 20
0.195727944374084
 40
0.0195663794875145
100
AcDbArc
 50
271.648590087891
 51
3.35139536857605
  0
LINE
  5
E8
100
AcDbEntity
  8
SEMA2D
100
AcDbLine
 62
7
  6
_SOLID
370
9
 10
2.12248563766479
 20
0.653674483299255
 11
2.17359924316406
 21
0.653674483299255
  0
LINE
  5
E9
100
AcDbEntity
  8
SEMA2D
100
AcDbLine
 62
7
  6
_SOLID
370
9
 10
2.12248563766479
 20
0.653674483299255
 11
2.12248563766479
 21
0.662424445152283
  0
LINE
  5
EA
100
AcDbEntity
  8
SEMA2D
100
AcDbLine
 62
7
  6
_SOLID
370
9
 10
2.12248563766479
 20
0.653674483299255
 11
2.12248563766479
 21
0.644924461841583
  0
LINE
  5
EB
100
AcDbEntity
  8
SEMA2D
100
AcDbLine
 62
7
  6
_SOLID
370
9
 10
2.12248563766479
 20
0.653674483299255
 11
2.13006329536438
 21
0.658049464225769
  0
LINE
  5
EC
100
AcDbEntity
  8
SEMA2D
100
AcDbLine
 62
7
  6
_SOLID
370
9
 10
2.12248563766479
 20
0.653674483299255
 11
2.11490797996521
 21
0.649299442768097
  0
LINE
  5
ED
100
AcDbEntity
  8
SEMA2D
100
AcDbLine
 62
7
  6
_DOT
370
9
 10
2.12248563766479
 20
0.603674471378326
 11
2.12248563766479
 21
0.653674483299255
  0
LINE
  5
EE
100
AcDbEntity
  8
SEMA2D
100
AcDbLine
 62
7
  6
_DOT
370
9
 10
2.12248563766479
 20
0.653674483299255
 11
2.12248563766479
 21
0.603674471378326
  0
MTEXT
  5
EF
100
AcDbEntity
  8
SEMATEXT
100
AcDbMText
 62
7
 10
2.123610496521
 20
0.6600421667099
 40
0.00999999977648258
 71
7
  1
{\fArial Narrow;15}
  7
STANDARD
 73
2
  0
LINE
  5
F0
100
AcDbEntity
  8
SEMA2D
100
AcDbLine
 62
7
  6
_SOLID
370
9
 10
2.13759922981262
 20
0.653674483299255
 11
2.13759922981262
 21
0.662424445152283
  0
LINE
  5
F1
100
AcDbEntity
  8
SEMA2D
100
AcDbLine
 62
7
  6
_SOLID
370
9
 10
2.13759922981262
 20
0.653674483299255
 11
2.13759922981262
 21
0.644924461841583
  0
LINE
  5
F2
100
AcDbEntity
  8
SEMA2D
100
AcDbLine
 62
7
  6
_SOLID
370
9
 10
2.13759922981262
 20
0.653674483299255
 11
2.14517688751221
 21
0.658049464225769
  0
LINE
  5
F3
100
AcDbEntity
  8
SEMA2D
100
AcDbLine
 62
7
  6
_SOLID
370
9
 10
2.13759922981262
 20
0.653674483299255
 11
2.13002157211304
 21
0.649299442768097
  0
LINE
  5
F4
100
AcDbEntity
  8
SEMA2D
100
AcDbLine
 62
7
  6
_DOT
370
9
 10
2.13759922981262
 20
0.603674471378326
 11
2.13759922981262
 21
0.653674483299255
  0
LINE
  5
F5
100
AcDbEntity
  8
SEMA2D
100
AcDbLine
 62
7
  6
_DOT
370
9
 10
2.13759922981262
 20
0.603674471378326
 11
2.13759922981262
 21
0.603674471378326
  0
MTEXT
  5
F6
100
AcDbEntity
  8
SEMATEXT
100
AcDbMText
 62
7
 10
2.14916729927063
 20
0.6600421667099
 40
0.00999999977648258
 71
7
  1
{\fArial Narrow;36}
  7
STANDARD
 73
2
  0
LINE
  5
F7
100
AcDbEntity
  8
SEMA2D
100
AcDbLine
 62
7
  6
_SOLID
370
9
 10
2.17359924316406
 20
0.653674483299255
 11
2.17359924316406
 21
0.662424445152283
  0
LINE
  5
F8
100
AcDbEntity
  8
SEMA2D
100
AcDbLine
 62
7
  6
_SOLID
370
9
 10
2.17359924316406
 20
0.653674483299255
 11
2.17359924316406
 21
0.644924461841583
  0
LINE
  5
F9
100
AcDbEntity
  8
SEMA2D
100
AcDbLine
 62
7
  6
_SOLID
370
9
 10
2.17359924316406
 20
0.653674483299255
 11
2.18117690086365
 21
0.658049464225769
  0
LINE
  5
FA
100
AcDbEntity
  8
SEMA2D
100
AcDbLine
 62
7
  6
_SOLID
370
9
 10
2.17359924316406
 20
0.653674483299255
 11
2.16602158546448
 21
0.649299442768097
  0
LINE
  5
FB
100
AcDbEntity
  8
SEMA2D
100
AcDbLine
 62
7
  6
_DOT
370
9
 10
2.17359924316406
 20
0.603674471378326
 11
2.17359924316406
 21
0.653674483299255
  0
LINE
  5
FC
100
AcDbEntity
  8
SEMA2D
100
AcDbLine
 62
7
  6
_DOT
370
9
 10
2.17359924316406
 20
0.603674471378326
 11
2.17359924316406
 21
0.603674471378326
  0
LINE
  5
FD
100
AcDbEntity
  8
SEMA2D
100
AcDbLine
 62
7
  6
_SOLID
370
9
 10
2.07266116142273
 20
0.538941264152527
 11
2.13258504867554
 21
0.532157421112061
  0
LINE
  5
FE
100
AcDbEntity
  8
SEMA2D
100
AcDbLine
 62
7
  6
_SOLID
370
9
 10
2.07266116142273
 20
0.538941264152527
 11
2.07364535331726
 21
0.547635734081268
  0
LINE
  5
FF
100
AcDbEntity
  8
SEMA2D
100
AcDbLine
 62
7
  6
_SOLID
370
9
 10
2.07266116142273
 20
0.538941264152527
 11
2.07167673110962
 21
0.53024685382843
  0
LINE
  5
100
100
AcDbEntity
  8
SEMA2D
100
AcDbLine
 62
7
  6
_SOLID
370
9
 10
2.07266116142273
 20
0.538941264152527
 11
2.0806827545166
 21
0.542436122894287
  0
LINE
  5
101
100
AcDbEntity
  8
SEMA2D
100
AcDbLine
 62
7
  6
_SOLID
370
9
 10
2.07266116142273
 20
0.538941264152527
 11
2.06463932991028
 21
0.535446465015411
  0
LINE
  5
102
100
AcDbEntity
  8
SEMA2D
100
AcDbLine
 62
7
  6
_DOT
370
9
 10
2.07828545570374
 20
0.588623940944672
 11
2.07266116142273
 21
0.538941264152527
  0
LINE
  5
103
100
AcDbEntity
  8
SEMA2D
100
AcDbLine
 62
7
  6
_DOT
370
9
 10
2.07828545570374
 20
0.588623940944672
 11
2.07828545570374
 21
0.588623940944672
  0
MTEXT
  5
104
100
AcDbEntity
  8
SEMATEXT
100
AcDbMText
 62
7
 10
2.0961492061615
 20
0.542690634727478
 40
0.00999999977648258
 50
353.541198730469
 71
7
  1
{\fArial Narrow;60}
  7
STANDARD
 73
2
  0
LINE
  5
105
100
AcDbEntity
  8
SEMA2D
100
AcDbLine
 62
7
  6
_SOLID
370
9
 10
2.13258504867554
 20
0.532157421112061
 11
2.13356924057007
 21
0.540851891040802
  0
LINE
  5
106
100
AcDbEntity
  8
SEMA2D
100
AcDbLine
 62
7
  6
_SOLID
370
9
 10
2.13258504867554
 20
0.532157421112061
 11
2.13160085678101
 21
0.523463010787964
  0
LINE
  5
107
100
AcDbEntity
  8
SEMA2D
100
AcDbLine
 62
7
  6
_SOLID
370
9
 10
2.13258504867554
 20
0.532157421112061
 11
2.14060688018799
 21
0.535652279853821
  0
LINE
  5
108
100
AcDbEntity
  8
SEMA2D
100
AcDbLine
 62
7
  6
_SOLID
370
9
 10
2.13258504867554
 20
0.532157421112061
 11
2.12456321716309
 21
0.528662621974945
  0
LINE
  5
109
100
AcDbEntity
  8
SEMA2D
100
AcDbLine
 62
7
  6
_DOT
370
9
 10
2.13820958137512
 20
0.581840097904205
 11
2.13258504867554
 21
0.532157421112061
  0
LINE
  5
10A
100
AcDbEntity
  8
SEMA2D
100
AcDbLine
 62
7
  6
_DOT
370
9
 10
2.13820958137512
 20
0.581840097904205
 11
2.13820958137512
 21
0.581840097904205
  0
LINE
  5
10B
100
AcDbEntity
  8
SEMA2D
100
AcDbLine
 62
7
  6
_SOLID
370
9
 10
2.12295794487
 20
0.124936856329441
 11
2.17443871498108
 21
0.124936856329441
  0
LINE
  5
10C
100
AcDbEntity
  8
SEMA2D
100
AcDbLine
 62
7
  6
_SOLID
370
9
 10
2.12295794487
 20
0.124936856329441
 11
2.12295794487
 21
0.133686855435371
  0
LINE
  5
10D
100
AcDbEntity
  8
SEMA2D
100
AcDbLine
 62
7
  6
_SOLID
370
9
 10
2.12295794487
 20
0.124936856329441
 11
2.12295794487
 21
0.116186857223511
  0
LINE
  5
10E
100
AcDbEntity
  8
SEMA2D
100
AcDbLine
 62
7
  6
_SOLID
370
9
 10
2.12295794487
 20
0.124936856329441
 11
2.13053560256958
 21
0.129311859607697
  0
LINE
  5
10F
100
AcDbEntity
  8
SEMA2D
100
AcDbLine
 62
7
  6
_SOLID
370
9
 10
2.12295794487
 20
0.124936856329441
 11
2.11538028717041
 21
0.120561860501766
  0
LINE
  5
110
100
AcDbEntity
  8
SEMA2D
100
AcDbLine
 62
7
  6
_DOT
370
9
 10
2.12295794487
 20
0.174936860799789
 11
2.12295794487
 21
0.124936856329441
  0
LINE
  5
111
100
AcDbEntity
  8
SEMA2D
100
AcDbLine
 62
7
  6
_DOT
370
9
 10
2.12295794487
 20
0.174936860799789
 11
2.12295794487
 21
0.174936860799789
  0
MTEXT
  5
112
100
AcDbEntity
  8
SEMATEXT
100
AcDbMText
 62
7
 10
2.14226627349854
 20
0.131304576992989
 40
0.00999999977648258
 71
7
  1
{\fArial Narrow;51}
  7
STANDARD
 73
2
  0
LINE
  5
113
100
AcDbEntity
  8
SEMA2D
100
AcDbLine
 62
7
  6
_SOLID
370
9
 10
2.17443871498108
 20
0.124936856329441
 11
2.17443871498108
 21
0.133686855435371
  0
LINE
  5
114
100
AcDbEntity
  8
SEMA2D
100
AcDbLine
 62
7
  6
_SOLID
370
9
 10
2.17443871498108
 20
0.124936856329441
 11
2.17443871498108
 21
0.116186857223511
  0
LINE
  5
115
100
AcDbEntity
  8
SEMA2D
100
AcDbLine
 62
7
  6
_SOLID
370
9
 10
2.17443871498108
 20
0.124936856329441
 11
2.18201637268066
 21
0.129311859607697
  0
LINE
  5
116
100
AcDbEntity
  8
SEMA2D
100
AcDbLine
 62
7
  6
_SOLID
370
9
 10
2.17443871498108
 20
0.124936856329441
 11
2.16686105728149
 21
0.120561860501766
  0
LINE
  5
117
100
AcDbEntity
  8
SEMA2D
100
AcDbLine
 62
7
  6
_DOT
370
9
 10
2.17443871498108
 20
0.174936860799789
 11
2.17443871498108
 21
0.124936856329441
  0
LINE
  5
118
100
AcDbEntity
  8
SEMA2D
100
AcDbLine
 62
7
  6
_DOT
370
9
 10
2.17443871498108
 20
0.174936860799789
 11
2.17443871498108
 21
0.174936860799789
  0
LINE
  5
119
100
AcDbEntity
  8
SEMA2D
100
AcDbLine
 62
7
  6
_SOLID
370
9
 10
2.03395795822144
 20
0.0749368593096733
 11
2.17443871498108
 21
0.0749368593096733
  0
LINE
  5
11A
100
AcDbEntity
  8
SEMA2D
100
AcDbLine
 62
7
  6
_SOLID
370
9
 10
2.03395795822144
 20
0.0749368593096733
 11
2.03395795822144
 21
0.0836868584156036
  0
LINE
  5
11B
100
AcDbEntity
  8
SEMA2D
100
AcDbLine
 62
7
  6
_SOLID
370
9
 10
2.03395795822144
 20
0.0749368593096733
 11
2.03395795822144
 21
0.066186860203743
  0
LINE
  5
11C
100
AcDbEntity
  8
SEMA2D
100
AcDbLine
 62
7
  6
_SOLID
370
9
 10
2.03395795822144
 20
0.0749368593096733
 11
2.04153561592102
 21
0.0793118551373482
  0
LINE
  5
11D
100
AcDbEntity
  8
SEMA2D
100
AcDbLine
 62
7
  6
_SOLID
370
9
 10
2.03395795822144
 20
0.0749368593096733
 11
2.02638030052185
 21
0.0705618560314178
  0
LINE
  5
11E
100
AcDbEntity
  8
SEMA2D
100
AcDbLine
 62
7
  6
_DOT
370
9
 10
2.03395795822144
 20
0.124936856329441
 11
2.03395795822144
 21
0.0749368593096733
  0
LINE
  5
11F
100
AcDbEntity
  8
SEMA2D
100
AcDbLine
 62
7
  6
_DOT
370
9
 10
2.03395795822144
 20
0.124936856329441
 11
2.03395795822144
 21
0.124936856329441
  0
MTEXT
  5
120
100
AcDbEntity
  8
SEMATEXT
100
AcDbMText
 62
7
 10
2.09455037117004
 20
0.0813045725226402
 40
0.00999999977648258
 71
7
  1
{\fArial Narrow;140}
  7
STANDARD
 73
2
  0
LINE
  5
121
100
AcDbEntity
  8
SEMA2D
100
AcDbLine
 62
7
  6
_SOLID
370
9
 10
2.17443871498108
 20
0.0749368593096733
 11
2.17443871498108
 21
0.0836868584156036
  0
LINE
  5
122
100
AcDbEntity
  8
SEMA2D
100
AcDbLine
 62
7
  6
_SOLID
370
9
 10
2.17443871498108
 20
0.0749368593096733
 11
2.17443871498108
 21
0.066186860203743
  0
LINE
  5
123
100
AcDbEntity
  8
SEMA2D
100
AcDbLine
 62
7
  6
_SOLID
370
9
 10
2.17443871498108
 20
0.0749368593096733
 11
2.18201637268066
 21
0.0793118551373482
  0
LINE
  5
124
100
AcDbEntity
  8
SEMA2D
100
AcDbLine
 62
7
  6
_SOLID
370
9
 10
2.17443871498108
 20
0.0749368593096733
 11
2.16686105728149
 21
0.0705618560314178
  0
LINE
  5
125
100
AcDbEntity
  8
SEMA2D
100
AcDbLine
 62
7
  6
_DOT
370
9
 10
2.17443871498108
 20
0.124936856329441
 11
2.17443871498108
 21
0.0749368593096733
  0
LINE
  5
126
100
AcDbEntity
  8
SEMA2D
100
AcDbLine
 62
7
  6
_DOT
370
9
 10
2.17443871498108
 20
0.124936856329441
 11
2.17443871498108
 21
0.124936856329441
  0
LINE
  5
127
100
AcDbEntity
  8
SEMA2D
100
AcDbLine
 62
7
  6
_SOLID
370
9
 10
1.58171379566193
 20
0.124936856329441
 11
1.84958755970001
 21
0.124936856329441
  0
LINE
  5
128
100
AcDbEntity
  8
SEMA2D
100
AcDbLine
 62
7
  6
_SOLID
370
9
 10
1.58171379566193
 20
0.124936856329441
 11
1.58171379566193
 21
0.133686855435371
  0
LINE
  5
129
100
AcDbEntity
  8
SEMA2D
100
AcDbLine
 62
7
  6
_SOLID
370
9
 10
1.58171379566193
 20
0.124936856329441
 11
1.58171379566193
 21
0.116186857223511
  0
LINE
  5
12A
100
AcDbEntity
  8
SEMA2D
100
AcDbLine
 62
7
  6
_SOLID
370
9
 10
1.58171379566193
 20
0.124936856329441
 11
1.58929145336151
 21
0.129311859607697
  0
LINE
  5
12B
100
AcDbEntity
  8
SEMA2D
100
AcDbLine
 62
7
  6
_SOLID
370
9
 10
1.58171379566193
 20
0.124936856329441
 11
1.57413601875305
 21
0.120561860501766
  0
LINE
  5
12C
100
AcDbEntity
  8
SEMA2D
100
AcDbLine
 62
7
  6
_DOT
370
9
 10
1.58171379566193
 20
0.174936860799789
 11
1.58171379566193
 21
0.124936856329441
  0
LINE
  5
12D
100
AcDbEntity
  8
SEMA2D
100
AcDbLine
 62
7
  6
_DOT
370
9
 10
1.58171379566193
 20
0.174936860799789
 11
1.58171379566193
 21
0.174936860799789
  0
MTEXT
  5
12E
100
AcDbEntity
  8
SEMATEXT
100
AcDbMText
 62
7
 10
1.70600259304047
 20
0.131304576992989
 40
0.00999999977648258
 71
7
  1
{\fArial Narrow;268}
  7
STANDARD
 73
2
  0
LINE
  5
12F
100
AcDbEntity
  8
SEMA2D
100
AcDbLine
 62
7
  6
_SOLID
370
9
 10
1.84958755970001
 20
0.124936856329441
 11
1.84958755970001
 21
0.133686855435371
  0
LINE
  5
130
100
AcDbEntity
  8
SEMA2D
100
AcDbLine
 62
7
  6
_SOLID
370
9
 10
1.84958755970001
 20
0.124936856329441
 11
1.84958755970001
 21
0.116186857223511
  0
LINE
  5
131
100
AcDbEntity
  8
SEMA2D
100
AcDbLine
 62
7
  6
_SOLID
370
9
 10
1.84958755970001
 20
0.124936856329441
 11
1.8571652173996
 21
0.129311859607697
  0
LINE
  5
132
100
AcDbEntity
  8
SEMA2D
100
AcDbLine
 62
7
  6
_SOLID
370
9
 10
1.84958755970001
 20
0.124936856329441
 11
1.84200978279114
 21
0.120561860501766
  0
LINE
  5
133
100
AcDbEntity
  8
SEMA2D
100
AcDbLine
 62
7
  6
_DOT
370
9
 10
1.84958755970001
 20
0.174936860799789
 11
1.84958755970001
 21
0.124936856329441
  0
LINE
  5
134
100
AcDbEntity
  8
SEMA2D
100
AcDbLine
 62
7
  6
_DOT
370
9
 10
1.84958755970001
 20
0.174936860799789
 11
1.84958755970001
 21
0.174936860799789
  0
LINE
  5
135
100
AcDbEntity
  8
SEMA2D
100
AcDbLine
 62
7
  6
_SOLID
370
9
 10
1.53171372413635
 20
0.174936860799789
 11
1.53171372413635
 21
0.603674471378326
  0
LINE
  5
136
100
AcDbEntity
  8
SEMA2D
100
AcDbLine
 62
7
  6
_SOLID
370
9
 10
1.53171372413635
 20
0.174936860799789
 11
1.52296376228333
 21
0.174936860799789
  0
LINE
  5
137
100
AcDbEntity
  8
SEMA2D
100
AcDbLine
 62
7
  6
_SOLID
370
9
 10
1.53171372413635
 20
0.174936860799789
 11
1.54046380519867
 21
0.174936860799789
  0
LINE
  5
138
100
AcDbEntity
  8
SEMA2D
100
AcDbLine
 62
7
  6
_SOLID
370
9
 10
1.53171372413635
 20
0.174936860799789
 11
1.52733874320984
 21
0.182514578104019
  0
LINE
  5
139
100
AcDbEntity
  8
SEMA2D
100
AcDbLine
 62
7
  6
_SOLID
370
9
 10
1.53171372413635
 20
0.174936860799789
 11
1.53608882427216
 21
0.16735914349556
  0
LINE
  5
13A
100
AcDbEntity
  8
SEMA2D
100
AcDbLine
 62
7
  6
_DOT
370
9
 10
1.58171379566193
 20
0.174936860799789
 11
1.53171372413635
 21
0.174936860799789
  0
LINE
  5
13B
100
AcDbEntity
  8
SEMA2D
100
AcDbLine
 62
7
  6
_DOT
370
9
 10
1.58171379566193
 20
0.174936860799789
 11
1.58171379566193
 21
0.174936860799789
  0
MTEXT
  5
13C
100
AcDbEntity
  8
SEMATEXT
100
AcDbMText
 62
7
 10
1.52534604072571
 20
0.378451585769653
 40
0.00999999977648258
 50
90
 71
7
  1
{\fArial Narrow;429}
  7
STANDARD
 73
2
  0
LINE
  5
13D
100
AcDbEntity
  8
SEMA2D
100
AcDbLine
 62
7
  6
_SOLID
370
9
 10
1.53171372413635
 20
0.603674471378326
 11
1.52296376228333
 21
0.603674471378326
  0
LINE
  5
13E
100
AcDbEntity
  8
SEMA2D
100
AcDbLine
 62
7
  6
_SOLID
370
9
 10
1.53171372413635
 20
0.603674471378326
 11
1.54046380519867
 21
0.603674471378326
  0
LINE
  5
13F
100
AcDbEntity
  8
SEMA2D
100
AcDbLine
 62
7
  6
_SOLID
370
9
 10
1.53171372413635
 20
0.603674471378326
 11
1.52733874320984
 21
0.611252188682556
  0
LINE
  5
140
100
AcDbEntity
  8
SEMA2D
100
AcDbLine
 62
7
  6
_SOLID
370
9
 10
1.53171372413635
 20
0.603674471378326
 11
1.53608882427216
 21
0.596096754074097
  0
LINE
  5
141
100
AcDbEntity
  8
SEMA2D
100
AcDbLine
 62
7
  6
_DOT
370
9
 10
1.58171379566193
 20
0.603674471378326
 11
1.53171372413635
 21
0.603674471378326
  0
LINE
  5
142
100
AcDbEntity
  8
SEMA2D
100
AcDbLine
 62
7
  6
_DOT
370
9
 10
1.58171379566193
 20
0.603674471378326
 11
1.58171379566193
 21
0.603674471378326
  0
LINE
  5
143
100
AcDbEntity
  8
SEMA2D
100
AcDbLine
 62
7
  6
_SOLID
370
9
 10
1.58171379566193
 20
0.653476178646088
 11
1.83766770362854
 21
0.653476178646088
  0
LINE
  5
144
100
AcDbEntity
  8
SEMA2D
100
AcDbLine
 62
7
  6
_SOLID
370
9
 10
1.58171379566193
 20
0.653476178646088
 11
1.58171379566193
 21
0.66222620010376
  0
LINE
  5
145
100
AcDbEntity
  8
SEMA2D
100
AcDbLine
 62
7
  6
_SOLID
370
9
 10
1.58171379566193
 20
0.653476178646088
 11
1.58171379566193
 21
0.64472621679306
  0
LINE
  5
146
100
AcDbEntity
  8
SEMA2D
100
AcDbLine
 62
7
  6
_SOLID
370
9
 10
1.58171379566193
 20
0.653476178646088
 11
1.58929145336151
 21
0.657851219177246
  0
LINE
  5
147
100
AcDbEntity
  8
SEMA2D
100
AcDbLine
 62
7
  6
_SOLID
370
9
 10
1.58171379566193
 20
0.653476178646088
 11
1.57413601875305
 21
0.649101197719574
  0
LINE
  5
148
100
AcDbEntity
  8
SEMA2D
100
AcDbLine
 62
7
  6
_DOT
370
9
 10
1.58171379566193
 20
0.703476190567017
 11
1.58171379566193
 21
0.653476178646088
  0
LINE
  5
149
100
AcDbEntity
  8
SEMA2D
100
AcDbLine
 62
7
  6
_DOT
370
9
 10
1.58171379566193
 20
0.653476178646088
 11
1.58171379566193
 21
0.703476190567017
  0
MTEXT
  5
14A
100
AcDbEntity
  8
SEMATEXT
100
AcDbMText
 62
7
 10
1.67752718925476
 20
0.659843921661377
 40
0.00999999977648258
 71
7
  1
{\fArial Narrow;211}
  7
STANDARD
 73
2
  0
LINE
  5
14B
100
AcDbEntity
  8
SEMA2D
100
AcDbLine
 62
7
  6
_SOLID
370
9
 10
1.79263663291931
 20
0.653476178646088
 11
1.79263663291931
 21
0.66222620010376
  0
LINE
  5
14C
100
AcDbEntity
  8
SEMA2D
100
AcDbLine
 62
7
  6
_SOLID
370
9
 10
1.79263663291931
 20
0.653476178646088
 11
1.79263663291931
 21
0.64472621679306
  0
LINE
  5
14D
100
AcDbEntity
  8
SEMA2D
100
AcDbLine
 62
7
  6
_SOLID
370
9
 10
1.79263663291931
 20
0.653476178646088
 11
1.8002142906189
 21
0.657851219177246
  0
LINE
  5
14E
100
AcDbEntity
  8
SEMA2D
100
AcDbLine
 62
7
  6
_SOLID
370
9
 10
1.79263663291931
 20
0.653476178646088
 11
1.78505885601044
 21
0.649101197719574
  0
LINE
  5
14F
100
AcDbEntity
  8
SEMA2D
100
AcDbLine
 62
7
  6
_DOT
370
9
 10
1.79263663291931
 20
0.703476190567017
 11
1.79263663291931
 21
0.653476178646088
  0
LINE
  5
150
100
AcDbEntity
  8
SEMA2D
100
AcDbLine
 62
7
  6
_DOT
370
9
 10
1.79263663291931
 20
0.703476190567017
 11
1.79263663291931
 21
0.703476190567017
  0
MTEXT
  5
151
100
AcDbEntity
  8
SEMATEXT
100
AcDbMText
 62
7
 10
1.80872011184692
 20
0.659843921661377
 40
0.00999999977648258
 71
7
  1
{\fArial Narrow;45}
  7
STANDARD
 73
2
  0
LINE
  5
152
100
AcDbEntity
  8
SEMA2D
100
AcDbLine
 62
7
  6
_SOLID
370
9
 10
1.83766770362854
 20
0.653476178646088
 11
1.83766770362854
 21
0.66222620010376
  0
LINE
  5
153
100
AcDbEntity
  8
SEMA2D
100
AcDbLine
 62
7
  6
_SOLID
370
9
 10
1.83766770362854
 20
0.653476178646088
 11
1.83766770362854
 21
0.64472621679306
  0
LINE
  5
154
100
AcDbEntity
  8
SEMA2D
100
AcDbLine
 62
7
  6
_SOLID
370
9
 10
1.83766770362854
 20
0.653476178646088
 11
1.84524536132813
 21
0.657851219177246
  0
LINE
  5
155
100
AcDbEntity
  8
SEMA2D
100
AcDbLine
 62
7
  6
_SOLID
370
9
 10
1.83766770362854
 20
0.653476178646088
 11
1.83008992671967
 21
0.649101197719574
  0
LINE
  5
156
100
AcDbEntity
  8
SEMA2D
100
AcDbLine
 62
7
  6
_DOT
370
9
 10
1.83766770362854
 20
0.703476190567017
 11
1.83766770362854
 21
0.653476178646088
  0
LINE
  5
157
100
AcDbEntity
  8
SEMA2D
100
AcDbLine
 62
7
  6
_DOT
370
9
 10
1.83766770362854
 20
0.703476190567017
 11
1.83766770362854
 21
0.703476190567017
  0
LINE
  5
158
100
AcDbEntity
  8
SEMA2D
100
AcDbLine
 62
7
  6
_SOLID
370
9
 10
1.84334993362427
 20
0.176169663667679
 11
1.63494193553925
 21
0.176169663667679
  0
ARC
  5
159
100
AcDbEntity
  8
SEMA2D
100
AcDbCircle
 62
7
  6
_SOLID
370
9
 10
1.62422072887421
 20
0.197607263922691
 40
0.00401072110980749
100
AcDbArc
 50
0
 51
90
  0
ARC
  5
15A
100
AcDbEntity
  8
SEMA2D
100
AcDbCircle
 62
7
  6
_SOLID
370
9
 10
1.62422072887421
 20
0.197607263922691
 40
0.00377839989960194
100
AcDbArc
 50
0
 51
90
  0
LINE
  5
15B
100
AcDbEntity
  8
SEMA2D
100
AcDbLine
 62
7
  6
_SOLID
370
9
 10
1.60708391666412
 20
0.592339277267456
 11
1.60375285148621
 21
0.587628960609436
  0
LINE
  5
15C
100
AcDbEntity
  8
SEMA2D
100
AcDbLine
 62
7
  6
_SOLID
370
9
 10
1.60462033748627
 20
0.586392521858215
 11
1.60568296909332
 21
0.587628960609436
  0
LINE
  5
15D
100
AcDbEntity
  8
SEMA2D
100
AcDbLine
 62
7
  6
_SOLID
370
9
 10
1.62799918651581
 20
0.174936860799789
 11
1.84530138969421
 21
0.174936860799789
  0
LINE
  5
15E
100
AcDbEntity
  8
SEMA2D
100
AcDbLine
 62
7
  6
_SOLID
370
9
 10
1.59151673316956
 20
0.202880203723907
 11
1.59493815898895
 21
0.201617985963821
  0
LINE
  5
15F
100
AcDbEntity
  8
SEMA2D
100
AcDbLine
 62
7
  6
_SOLID
370
9
 10
1.84393131732941
 20
0.179036423563957
 11
1.84487318992615
 21
0.179088056087494
  0
LINE
  5
160
100
AcDbEntity
  8
SEMA2D
100
AcDbLine
 62
7
  6
_SOLID
370
9
 10
1.63494193553925
 20
0.174936860799789
 11
1.63057911396027
 21
0.175597995519638
  0
LINE
  5
161
100
AcDbEntity
  8
SEMA2D
100
AcDbLine
 62
7
  6
_SOLID
370
9
 10
1.58587634563446
 20
0.499739080667496
 11
1.59115982055664
 21
0.499739080667496
  0
LINE
  5
162
100
AcDbEntity
  8
SEMA2D
100
AcDbLine
 62
7
  6
_SOLID
370
9
 10
1.60674571990967
 20
0.499739080667496
 11
1.61076021194458
 21
0.499739080667496
  0
LINE
  5
163
100
AcDbEntity
  8
SEMA2D
100
AcDbLine
 62
7
  6
_SOLID
370
9
 10
1.61253130435944
 20
0.502602279186249
 11
1.60568296909332
 21
0.502602279186249
  0
LINE
  5
164
100
AcDbEntity
  8
SEMA2D
100
AcDbLine
 62
7
  6
_SOLID
370
9
 10
1.58454751968384
 20
0.20231494307518
 11
1.58562529087067
 21
0.202880203723907
  0
LINE
  5
165
100
AcDbEntity
  8
SEMA2D
100
AcDbLine
 62
7
  6
_SOLID
370
9
 10
1.84415602684021
 20
0.174936860799789
 11
1.84393131732941
 21
0.179036423563957
  0
LINE
  5
166
100
AcDbEntity
  8
SEMA2D
100
AcDbLine
 62
7
  6
_SOLID
370
9
 10
1.8451007604599
 20
0.174936860799789
 11
1.84487318992615
 21
0.179088056087494
  0
LINE
  5
167
100
AcDbEntity
  8
SEMA2D
100
AcDbLine
 62
7
  6
_SOLID
370
9
 10
1.84530138969421
 20
0.174936860799789
 11
1.84524321556091
 21
0.175996661186218
  0
LINE
  5
168
100
AcDbEntity
  8
SEMA2D
100
AcDbLine
 62
7
  6
_SOLID
370
9
 10
1.59304893016815
 20
0.502602279186249
 11
1.58454751968384
 21
0.502602279186249
  0
LINE
  5
169
100
AcDbEntity
  8
SEMA2D
100
AcDbLine
 62
7
  6
_SOLID
370
9
 10
1.62847149372101
 20
0.175742611289024
 11
1.62914800643921
 21
0.176169663667679
  0
LINE
  5
16A
100
AcDbEntity
  8
SEMA2D
100
AcDbLine
 62
7
  6
_SOLID
370
9
 10
1.62823152542114
 20
0.175742611289024
 11
1.62799918651581
 21
0.175597995519638
  0
LINE
  5
16B
100
AcDbEntity
  8
SEMA2D
100
AcDbLine
 62
7
  6
_SOLID
370
9
 10
1.81942975521088
 20
0.592339277267456
 11
1.81983554363251
 21
0.590808391571045
  0
LINE
  5
16C
100
AcDbEntity
  8
SEMA2D
100
AcDbLine
 62
7
  6
_SOLID
370
9
 10
1.84946620464325
 20
0.194113820791245
 11
1.82549607753754
 21
0.58863627910614
  0
LINE
  5
16D
100
AcDbEntity
  8
SEMA2D
100
AcDbLine
 62
7
  6
_SOLID
370
9
 10
1.61253130435944
 20
0.587628960609436
 11
1.61430251598358
 21
0.586392521858215
  0
LINE
  5
16E
100
AcDbEntity
  8
SEMA2D
100
AcDbLine
 62
7
  6
_SOLID
370
9
 10
1.8481217622757
 20
0.197381481528282
 11
1.82458007335663
 21
0.584851861000061
  0
LINE
  5
16F
100
AcDbEntity
  8
SEMA2D
100
AcDbLine
 62
7
  6
_SOLID
370
9
 10
1.84906375408173
 20
0.197433114051819
 11
1.82552194595337
 21
0.584903478622436
  0
LINE
  5
170
100
AcDbEntity
  8
SEMA2D
100
AcDbLine
 62
7
  6
_SOLID
370
9
 10
1.82044851779938
 20
0.602774560451508
 11
1.82039928436279
 21
0.603674471378326
  0
LINE
  5
171
100
AcDbEntity
  8
SEMA2D
100
AcDbLine
 62
7
  6
_SOLID
370
9
 10
1.58264303207397
 20
0.602745175361633
 11
1.58171379566193
 21
0.603674471378326
  0
LINE
  5
172
100
AcDbEntity
  8
SEMA2D
100
AcDbLine
 62
7
  6
_SOLID
370
9
 10
1.78621971607208
 20
0.561827480792999
 11
1.78621971607208
 21
0.196871787309647
  0
LINE
  5
173
100
AcDbEntity
  8
SEMA2D
100
AcDbLine
 62
7
  6
_SOLID
370
9
 10
1.7863587141037
 20
0.590808391571045
 11
1.7863587141037
 21
0.568476736545563
  0
LINE
  5
174
100
AcDbEntity
  8
SEMA2D
100
AcDbLine
 62
7
  6
_SOLID
370
9
 10
1.78117775917053
 20
0.570059061050415
 11
1.78117775917053
 21
0.588571012020111
  0
LINE
  5
175
100
AcDbEntity
  8
SEMA2D
100
AcDbLine
 62
7
  6
_SOLID
370
9
 10
1.82105982303619
 20
0.568476736545563
 11
1.82079744338989
 21
0.567394077777863
  0
LINE
  5
176
100
AcDbEntity
  8
SEMA2D
100
AcDbLine
 62
7
  6
_SOLID
370
9
 10
1.60462033748627
 20
0.201617985963821
 11
1.60654485225678
 21
0.202880203723907
  0
LINE
  5
177
100
AcDbEntity
  8
SEMA2D
100
AcDbLine
 62
7
  6
_SOLID
370
9
 10
1.81983554363251
 20
0.590808391571045
 11
1.82105982303619
 21
0.568476736545563
  0
LINE
  5
178
100
AcDbEntity
  8
SEMA2D
100
AcDbLine
 62
7
  6
_SOLID
370
9
 10
1.81925392150879
 20
0.603674471378326
 11
1.81947922706604
 21
0.599565446376801
  0
LINE
  5
179
100
AcDbEntity
  8
SEMA2D
100
AcDbLine
 62
7
  6
_SOLID
370
9
 10
1.82019865512848
 20
0.603674471378326
 11
1.82042109966278
 21
0.599617063999176
  0
LINE
  5
17A
100
AcDbEntity
  8
SEMA2D
100
AcDbLine
 62
7
  6
_SOLID
370
9
 10
1.81942975521088
 20
0.592339277267456
 11
1.8188738822937
 21
0.602479636669159
  0
LINE
  5
17B
100
AcDbEntity
  8
SEMA2D
100
AcDbLine
 62
7
  6
_SOLID
370
9
 10
1.59304893016815
 20
0.587628960609436
 11
1.59493815898895
 21
0.586392521858215
  0
LINE
  5
17C
100
AcDbEntity
  8
SEMA2D
100
AcDbLine
 62
7
  6
_SOLID
370
9
 10
1.60641777515411
 20
0.603010714054108
 11
1.60708391666412
 21
0.602479636669159
  0
LINE
  5
17D
100
AcDbEntity
  8
SEMA2D
100
AcDbLine
 62
7
  6
_SOLID
370
9
 10
1.84111130237579
 20
0.196868777275085
 11
1.82079744338989
 21
0.567394077777863
  0
LINE
  5
17E
100
AcDbEntity
  8
SEMA2D
100
AcDbLine
 62
7
  6
_SOLID
370
9
 10
1.78117775917053
 20
0.570059061050415
 11
1.7863587141037
 21
0.568476736545563
  0
LINE
  5
17F
100
AcDbEntity
  8
SEMA2D
100
AcDbLine
 62
7
  6
_SOLID
370
9
 10
1.81947922706604
 20
0.599565446376801
 11
1.82042109966278
 21
0.599617063999176
  0
LINE
  5
180
100
AcDbEntity
  8
SEMA2D
100
AcDbLine
 62
7
  6
_SOLID
370
9
 10
1.60708391666412
 20
0.602479636669159
 11
1.8188738822937
 21
0.602479636669159
  0
LINE
  5
181
100
AcDbEntity
  8
SEMA2D
100
AcDbLine
 62
7
  6
_SOLID
370
9
 10
1.60708391666412
 20
0.592339277267456
 11
1.81942975521088
 21
0.592339277267456
  0
LINE
  5
182
100
AcDbEntity
  8
SEMA2D
100
AcDbLine
 62
7
  6
_SOLID
370
9
 10
1.59304893016815
 20
0.587628960609436
 11
1.60375285148621
 21
0.587628960609436
  0
LINE
  5
183
100
AcDbEntity
  8
SEMA2D
100
AcDbLine
 62
7
  6
_SOLID
370
9
 10
1.78117775917053
 20
0.588571012020111
 11
1.62968266010284
 21
0.588571012020111
  0
LINE
  5
184
100
AcDbEntity
  8
SEMA2D
100
AcDbLine
 62
7
  6
_SOLID
370
9
 10
1.7863587141037
 20
0.590808391571045
 11
1.81983554363251
 21
0.590808391571045
  0
LINE
  5
185
100
AcDbEntity
  8
SEMA2D
100
AcDbLine
 62
7
  6
_SOLID
370
9
 10
1.58264303207397
 20
0.602745175361633
 11
1.60183441638947
 21
0.602745175361633
  0
LINE
  5
186
100
AcDbEntity
  8
SEMA2D
100
AcDbLine
 62
7
  6
_SOLID
370
9
 10
1.60183441638947
 20
0.602745175361633
 11
1.60375285148621
 21
0.603010714054108
  0
LINE
  5
187
100
AcDbEntity
  8
SEMA2D
100
AcDbLine
 62
7
  6
_SOLID
370
9
 10
1.60183441638947
 20
0.602745175361633
 11
1.60738277435303
 21
0.603674471378326
  0
LINE
  5
188
100
AcDbEntity
  8
SEMA2D
100
AcDbLine
 62
7
  6
_SOLID
370
9
 10
1.60375285148621
 20
0.603010714054108
 11
1.60641777515411
 21
0.603010714054108
  0
LINE
  5
189
100
AcDbEntity
  8
SEMA2D
100
AcDbLine
 62
7
  6
_SOLID
370
9
 10
1.58171379566193
 20
0.603674471378326
 11
1.82039928436279
 21
0.603674471378326
  0
LINE
  5
18A
100
AcDbEntity
  8
SEMA2D
100
AcDbLine
 62
7
  6
_SOLID
370
9
 10
1.60641777515411
 20
0.603010714054108
 11
1.61038076877594
 21
0.603674471378326
  0
LINE
  5
18B
100
AcDbEntity
  8
SEMA2D
100
AcDbLine
 62
7
  6
_SOLID
370
9
 10
1.61253130435944
 20
0.587628960609436
 11
1.60568296909332
 21
0.587628960609436
  0
LINE
  5
18C
100
AcDbEntity
  8
SEMA2D
100
AcDbLine
 62
7
  6
_SOLID
370
9
 10
1.84487318992615
 20
0.179088056087494
 11
1.8491849899292
 21
0.197436794638634
  0
LINE
  5
18D
100
AcDbEntity
  8
SEMA2D
100
AcDbLine
 62
7
  6
_SOLID
370
9
 10
1.84958755970001
 20
0.194117501378059
 11
1.84524321556091
 21
0.175996661186218
  0
LINE
  5
18E
100
AcDbEntity
  8
SEMA2D
100
AcDbLine
 62
7
  6
_SOLID
370
9
 10
1.78621971607208
 20
0.561827480792999
 11
1.72127842903137
 21
0.561827480792999
  0
LINE
  5
18F
100
AcDbEntity
  8
SEMA2D
100
AcDbLine
 62
7
  6
_SOLID
370
9
 10
1.84393131732941
 20
0.179036423563957
 11
1.84824311733246
 21
0.197385162115097
  0
LINE
  5
190
100
AcDbEntity
  8
SEMA2D
100
AcDbLine
 62
7
  6
_SOLID
370
9
 10
1.82052063941956
 20
0.602606058120728
 11
1.82549607753754
 21
0.58863627910614
  0
LINE
  5
191
100
AcDbEntity
  8
SEMA2D
100
AcDbLine
 62
7
  6
_SOLID
370
9
 10
1.82458007335663
 20
0.584851861000061
 11
1.81947922706604
 21
0.599565446376801
  0
LINE
  5
192
100
AcDbEntity
  8
SEMA2D
100
AcDbLine
 62
7
  6
_SOLID
370
9
 10
1.82552194595337
 20
0.584903478622436
 11
1.82042109966278
 21
0.599617063999176
  0
LINE
  5
193
100
AcDbEntity
  8
SEMA2D
100
AcDbLine
 62
7
  6
_SOLID
370
9
 10
1.70333099365234
 20
0.561827480792999
 11
1.63933432102203
 21
0.561827480792999
  0
LINE
  5
194
100
AcDbEntity
  8
SEMA2D
100
AcDbLine
 62
7
  6
_SOLID
370
9
 10
1.82458007335663
 20
0.584851861000061
 11
1.82552194595337
 21
0.584903478622436
  0
LINE
  5
195
100
AcDbEntity
  8
SEMA2D
100
AcDbLine
 62
7
  6
_SOLID
370
9
 10
1.59493815898895
 20
0.586392521858215
 11
1.60462033748627
 21
0.586392521858215
  0
LINE
  5
196
100
AcDbEntity
  8
SEMA2D
100
AcDbLine
 62
7
  6
_SOLID
370
9
 10
1.61430251598358
 20
0.586392521858215
 11
1.62847149372101
 21
0.586392521858215
  0
LINE
  5
197
100
AcDbEntity
  8
SEMA2D
100
AcDbLine
 62
7
  6
_SOLID
370
9
 10
1.82052063941956
 20
0.602606058120728
 11
1.82044851779938
 21
0.602774560451508
  0
LINE
  5
198
100
AcDbEntity
  8
SEMA2D
100
AcDbLine
 62
7
  6
_SOLID
370
9
 10
1.82079744338989
 20
0.567394077777863
 11
1.63177752494812
 21
0.567394077777863
  0
LINE
  5
199
100
AcDbEntity
  8
SEMA2D
100
AcDbLine
 62
7
  6
_SOLID
370
9
 10
1.7863587141037
 20
0.568476736545563
 11
1.82105982303619
 21
0.568476736545563
  0
LINE
  5
19A
100
AcDbEntity
  8
SEMA2D
100
AcDbLine
 62
7
  6
_SOLID
370
9
 10
1.62968266010284
 20
0.570059061050415
 11
1.78117775917053
 21
0.570059061050415
  0
LINE
  5
19B
100
AcDbEntity
  8
SEMA2D
100
AcDbLine
 62
7
  6
_SOLID
370
9
 10
1.59115982055664
 20
0.390305668115616
 11
1.59151291847229
 21
0.204880192875862
  0
LINE
  5
19C
100
AcDbEntity
  8
SEMA2D
100
AcDbLine
 62
7
  6
_SOLID
370
9
 10
1.58454751968384
 20
0.502602279186249
 11
1.58454751968384
 21
0.20231494307518
  0
LINE
  5
19D
100
AcDbEntity
  8
SEMA2D
100
AcDbLine
 62
7
  6
_SOLID
370
9
 10
1.58587634563446
 20
0.499739080667496
 11
1.58587634563446
 21
0.3883056640625
  0
LINE
  5
19E
100
AcDbEntity
  8
SEMA2D
100
AcDbLine
 62
7
  6
_SOLID
370
9
 10
1.61253130435944
 20
0.502602279186249
 11
1.61076021194458
 21
0.499739080667496
  0
LINE
  5
19F
100
AcDbEntity
  8
SEMA2D
100
AcDbLine
 62
7
  6
_SOLID
370
9
 10
1.78117775917053
 20
0.588571012020111
 11
1.7863587141037
 21
0.590808391571045
  0
LINE
  5
1A0
100
AcDbEntity
  8
SEMA2D
100
AcDbLine
 62
7
  6
_SOLID
370
9
 10
1.58171379566193
 20
0.201385661959648
 11
1.58171379566193
 21
0.603674471378326
  0
LINE
  5
1A1
100
AcDbEntity
  8
SEMA2D
100
AcDbLine
 62
7
  6
_SOLID
370
9
 10
1.58264303207397
 20
0.20231494307518
 11
1.58264303207397
 21
0.602745175361633
  0
LINE
  5
1A2
100
AcDbEntity
  8
SEMA2D
100
AcDbLine
 62
7
  6
_SOLID
370
9
 10
1.59115982055664
 20
0.3883056640625
 11
1.59115982055664
 21
0.499739080667496
  0
LINE
  5
1A3
100
AcDbEntity
  8
SEMA2D
100
AcDbLine
 62
7
  6
_SOLID
370
9
 10
1.60375285148621
 20
0.587628960609436
 11
1.60375285148621
 21
0.603010714054108
  0
LINE
  5
1A4
100
AcDbEntity
  8
SEMA2D
100
AcDbLine
 62
7
  6
_SOLID
370
9
 10
1.60462033748627
 20
0.201617985963821
 11
1.60462033748627
 21
0.586392521858215
  0
LINE
  5
1A5
100
AcDbEntity
  8
SEMA2D
100
AcDbLine
 62
7
  6
_SOLID
370
9
 10
1.60568296909332
 20
0.502602279186249
 11
1.60568296909332
 21
0.587628960609436
  0
LINE
  5
1A6
100
AcDbEntity
  8
SEMA2D
100
AcDbLine
 62
7
  6
_SOLID
370
9
 10
1.61109137535095
 20
0.204880192875862
 11
1.61076021194458
 21
0.390305668115616
  0
LINE
  5
1A7
100
AcDbEntity
  8
SEMA2D
100
AcDbLine
 62
7
  6
_SOLID
370
9
 10
1.59304893016815
 20
0.502602279186249
 11
1.59304893016815
 21
0.587628960609436
  0
LINE
  5
1A8
100
AcDbEntity
  8
SEMA2D
100
AcDbLine
 62
7
  6
_SOLID
370
9
 10
1.59493815898895
 20
0.201617985963821
 11
1.59493815898895
 21
0.586392521858215
  0
LINE
  5
1A9
100
AcDbEntity
  8
SEMA2D
100
AcDbLine
 62
7
  6
_SOLID
370
9
 10
1.58562791347504
 20
0.204880192875862
 11
1.58587634563446
 21
0.390305668115616
  0
LINE
  5
1AA
100
AcDbEntity
  8
SEMA2D
100
AcDbLine
 62
7
  6
_SOLID
370
9
 10
1.59304893016815
 20
0.502602279186249
 11
1.59115982055664
 21
0.499739080667496
  0
LINE
  5
1AB
100
AcDbEntity
  8
SEMA2D
100
AcDbLine
 62
7
  6
_SOLID
370
9
 10
1.8412207365036
 20
0.196871787309647
 11
1.78621971607208
 21
0.196871787309647
  0
LINE
  5
1AC
100
AcDbEntity
  8
SEMA2D
100
AcDbLine
 62
7
  6
_SOLID
370
9
 10
1.72127842903137
 20
0.196871787309647
 11
1.70333099365234
 21
0.196871787309647
  0
LINE
  5
1AD
100
AcDbEntity
  8
SEMA2D
100
AcDbLine
 62
7
  6
_SOLID
370
9
 10
1.63933432102203
 20
0.196871787309647
 11
1.63177752494812
 21
0.196871787309647
  0
LINE
  5
1AE
100
AcDbEntity
  8
SEMA2D
100
AcDbLine
 62
7
  6
_SOLID
370
9
 10
1.84824311733246
 20
0.197385162115097
 11
1.8491849899292
 21
0.197436794638634
  0
LINE
  5
1AF
100
AcDbEntity
  8
SEMA2D
100
AcDbLine
 62
7
  6
_SOLID
370
9
 10
1.62799918651581
 20
0.175597995519638
 11
1.63057911396027
 21
0.175597995519638
  0
LINE
  5
1B0
100
AcDbEntity
  8
SEMA2D
100
AcDbLine
 62
7
  6
_SOLID
370
9
 10
1.62847149372101
 20
0.175742611289024
 11
1.62823152542114
 21
0.175742611289024
  0
LINE
  5
1B1
100
AcDbEntity
  8
SEMA2D
100
AcDbLine
 62
7
  6
_SOLID
370
9
 10
1.61109495162964
 20
0.202880203723907
 11
1.61430251598358
 21
0.201617985963821
  0
LINE
  5
1B2
100
AcDbEntity
  8
SEMA2D
100
AcDbLine
 62
7
  6
_SOLID
370
9
 10
1.62823152542114
 20
0.197607263922691
 11
1.62799918651581
 21
0.197607263922691
  0
LINE
  5
1B3
100
AcDbEntity
  8
SEMA2D
100
AcDbLine
 62
7
  6
_SOLID
370
9
 10
1.58562529087067
 20
0.202880203723907
 11
1.59151673316956
 21
0.202880203723907
  0
LINE
  5
1B4
100
AcDbEntity
  8
SEMA2D
100
AcDbLine
 62
7
  6
_SOLID
370
9
 10
1.60654485225678
 20
0.202880203723907
 11
1.61109495162964
 21
0.202880203723907
  0
LINE
  5
1B5
100
AcDbEntity
  8
SEMA2D
100
AcDbLine
 62
7
  6
_SOLID
370
9
 10
1.62847149372101
 20
0.586392521858215
 11
1.62968266010284
 21
0.588571012020111
  0
LINE
  5
1B6
100
AcDbEntity
  8
SEMA2D
100
AcDbLine
 62
7
  6
_SOLID
370
9
 10
1.58264303207397
 20
0.20231494307518
 11
1.58454751968384
 21
0.20231494307518
  0
LINE
  5
1B7
100
AcDbEntity
  8
SEMA2D
100
AcDbLine
 62
7
  6
_SOLID
370
9
 10
1.62422072887421
 20
0.201385661959648
 11
1.58171379566193
 21
0.201385661959648
  0
LINE
  5
1B8
100
AcDbEntity
  8
SEMA2D
100
AcDbLine
 62
7
  6
_SOLID
370
9
 10
1.59493815898895
 20
0.201617985963821
 11
1.60462033748627
 21
0.201617985963821
  0
LINE
  5
1B9
100
AcDbEntity
  8
SEMA2D
100
AcDbLine
 62
7
  6
_SOLID
370
9
 10
1.61430251598358
 20
0.201617985963821
 11
1.62422072887421
 21
0.201617985963821
  0
LINE
  5
1BA
100
AcDbEntity
  8
SEMA2D
100
AcDbLine
 62
7
  6
_SOLID
370
9
 10
1.59115982055664
 20
0.390305668115616
 11
1.58587634563446
 21
0.390305668115616
  0
LINE
  5
1BB
100
AcDbEntity
  8
SEMA2D
100
AcDbLine
 62
7
  6
_SOLID
370
9
 10
1.60674571990967
 20
0.499739080667496
 11
1.60568296909332
 21
0.502602279186249
  0
LINE
  5
1BC
100
AcDbEntity
  8
SEMA2D
100
AcDbLine
 62
7
  6
_SOLID
370
9
 10
1.69010663032532
 20
0.176169663667679
 11
1.69010663032532
 21
0.559296429157257
  0
LINE
  5
1BD
100
AcDbEntity
  8
SEMA2D
100
AcDbLine
 62
7
  6
_SOLID
370
9
 10
1.70333099365234
 20
0.561827480792999
 11
1.70333099365234
 21
0.196871787309647
  0
LINE
  5
1BE
100
AcDbEntity
  8
SEMA2D
100
AcDbLine
 62
7
  6
_SOLID
370
9
 10
1.60674571990967
 20
0.390305668115616
 11
1.61076021194458
 21
0.390305668115616
  0
LINE
  5
1BF
100
AcDbEntity
  8
SEMA2D
100
AcDbLine
 62
7
  6
_SOLID
370
9
 10
1.8188738822937
 20
0.602479636669159
 11
1.81925392150879
 21
0.603674471378326
  0
LINE
  5
1C0
100
AcDbEntity
  8
SEMA2D
100
AcDbLine
 62
7
  6
_SOLID
370
9
 10
1.58264303207397
 20
0.20231494307518
 11
1.58171379566193
 21
0.201385661959648
  0
LINE
  5
1C1
100
AcDbEntity
  8
SEMA2D
100
AcDbLine
 62
7
  6
_SOLID
370
9
 10
1.63177752494812
 20
0.567394077777863
 11
1.62968266010284
 21
0.570059061050415
  0
LINE
  5
1C2
100
AcDbEntity
  8
SEMA2D
100
AcDbLine
 62
7
  6
_SOLID
370
9
 10
1.7345027923584
 20
0.176169663667679
 11
1.7345027923584
 21
0.559296429157257
  0
LINE
  5
1C3
100
AcDbEntity
  8
SEMA2D
100
AcDbLine
 62
7
  6
_SOLID
370
9
 10
1.84415602684021
 20
0.174936860799789
 11
1.84334993362427
 21
0.176169663667679
  0
LINE
  5
1C4
100
AcDbEntity
  8
SEMA2D
100
AcDbLine
 62
7
  6
_SOLID
370
9
 10
1.72127842903137
 20
0.561827480792999
 11
1.72127842903137
 21
0.196871787309647
  0
LINE
  5
1C5
100
AcDbEntity
  8
SEMA2D
100
AcDbLine
 62
7
  6
_SOLID
370
9
 10
1.58454751968384
 20
0.502602279186249
 11
1.58587634563446
 21
0.499739080667496
  0
LINE
  5
1C6
100
AcDbEntity
  8
SEMA2D
100
AcDbLine
 62
7
  6
_SOLID
370
9
 10
1.61430251598358
 20
0.201617985963821
 11
1.61430251598358
 21
0.586392521858215
  0
LINE
  5
1C7
100
AcDbEntity
  8
SEMA2D
100
AcDbLine
 62
7
  6
_SOLID
370
9
 10
1.60654699802399
 20
0.204880192875862
 11
1.60674571990967
 21
0.390305668115616
  0
LINE
  5
1C8
100
AcDbEntity
  8
SEMA2D
100
AcDbLine
 62
7
  6
_SOLID
370
9
 10
1.62422072887421
 20
0.201617985963821
 11
1.62422072887421
 21
0.201385661959648
  0
LINE
  5
1C9
100
AcDbEntity
  8
SEMA2D
100
AcDbLine
 62
7
  6
_SOLID
370
9
 10
1.61253130435944
 20
0.502602279186249
 11
1.61253130435944
 21
0.587628960609436
  0
LINE
  5
1CA
100
AcDbEntity
  8
SEMA2D
100
AcDbLine
 62
7
  6
_SOLID
370
9
 10
1.60674571990967
 20
0.3883056640625
 11
1.60674571990967
 21
0.499739080667496
  0
LINE
  5
1CB
100
AcDbEntity
  8
SEMA2D
100
AcDbLine
 62
7
  6
_SOLID
370
9
 10
1.60708391666412
 20
0.602479636669159
 11
1.60708391666412
 21
0.592339277267456
  0
LINE
  5
1CC
100
AcDbEntity
  8
SEMA2D
100
AcDbLine
 62
7
  6
_SOLID
370
9
 10
1.61076021194458
 20
0.3883056640625
 11
1.61076021194458
 21
0.499739080667496
  0
LINE
  5
1CD
100
AcDbEntity
  8
SEMA2D
100
AcDbLine
 62
7
  6
_SOLID
370
9
 10
1.62799918651581
 20
0.174936860799789
 11
1.62799918651581
 21
0.197607263922691
  0
LINE
  5
1CE
100
AcDbEntity
  8
SEMA2D
100
AcDbLine
 62
7
  6
_SOLID
370
9
 10
1.63177752494812
 20
0.196871787309647
 11
1.63177752494812
 21
0.567394077777863
  0
LINE
  5
1CF
100
AcDbEntity
  8
SEMA2D
100
AcDbLine
 62
7
  6
_SOLID
370
9
 10
1.63494193553925
 20
0.196871787309647
 11
1.63494193553925
 21
0.176169663667679
  0
LINE
  5
1D0
100
AcDbEntity
  8
SEMA2D
100
AcDbLine
 62
7
  6
_SOLID
370
9
 10
1.63933432102203
 20
0.196871787309647
 11
1.63933432102203
 21
0.561827480792999
  0
LINE
  5
1D1
100
AcDbEntity
  8
SEMA2D
100
AcDbLine
 62
7
  6
_SOLID
370
9
 10
1.63057911396027
 20
0.174936860799789
 11
1.63057911396027
 21
0.175597995519638
  0
LINE
  5
1D2
100
AcDbEntity
  8
SEMA2D
100
AcDbLine
 62
7
  6
_SOLID
370
9
 10
1.62823152542114
 20
0.175742611289024
 11
1.62823152542114
 21
0.197607263922691
  0
LINE
  5
1D3
100
AcDbEntity
  8
SEMA2D
100
AcDbLine
 62
7
  6
_SOLID
370
9
 10
1.62847149372101
 20
0.175742611289024
 11
1.62847149372101
 21
0.586392521858215
  0
LINE
  5
1D4
100
AcDbEntity
  8
SEMA2D
100
AcDbLine
 62
7
  6
_SOLID
370
9
 10
1.62968266010284
 20
0.570059061050415
 11
1.62968266010284
 21
0.588571012020111
  0
ARC
  5
1D5
100
AcDbEntity
  8
SEMA2D
100
AcDbCircle
 62
7
  6
_SOLID
370
9
 10
1.66472053527832
 20
0.200322985649109
 40
0.0256196428090334
100
AcDbArc
 50
187.741806030273
 51
352.258209228516
  0
ARC
  5
1D6
100
AcDbEntity
  8
SEMA2D
100
AcDbCircle
 62
7
  6
_SOLID
370
9
 10
1.7603611946106
 20
0.200795277953148
 40
0.026154387742281
100
AcDbArc
 50
188.627685546875
 51
351.372314453125
  0
ENDSEC
  0
SECTION
  2
OBJECTS
  0
DICTIONARY
  5
 13
330
0
100
AcDbDictionary
281
     1
  3
ACAD_GROUP
350
 14
 3
ACAD_MLINESTYLE
350
 16
  3
ACAD_PLOTSETTINGS
350
 17
  3
ACAD_PLOTSTYLENAME
350
 18
  0
DICTIONARY
  5
 14
330
 13
100
AcDbDictionary
281
     1
  0
DICTIONARY
  5
 16
330
 13
100
AcDbDictionary
281
     1
  0
DICTIONARY
  5
 17
102
{ACAD_REACTORS
330
 13
102
}
330
 13
100
AcDbDictionary
281
     1
  0
ACDBDICTIONARYWDFLT
  5
 18
102
{ACAD_REACTORS
330
 13
102
}
330
 13
100
AcDbDictionary
281
     1
  3
Normal
350
 19
100
AcDbDictionaryWithDefault
340
 19
  0
ACDBPLACEHOLDER
  5
 19
102
{ACAD_REACTORS
330
 18
102
}
330
 18
  0
ENDSEC
  0
EOF
