999
Created by Soft Gold Ltd. www.cadsofttools.com
999

  0
SECTION
  2
HEADER
  9
$ACADVER
  1
AC1021
  9
$DWGCODEPAGE
  3
ANSI_1252
  9
$CLAYER
  8
0
  9
$CELTYPE
  6
BYLAYER
  9
$CELTSCALE
 40
1
  9
$CELWEIGHT
370
-1
  9
$DIMALT
 70
0
  9
$DIMALTF
 40
1
  9
$DIMPOST
  1

  9
$DIMAPOST
  1

  9
$DIMSCALE
 40
1
  9
$DIMASZ
 40
0.18
  9
$DIMCLRD
 70
0
  9
$DIMCLRE
 70
0
  9
$DIMCLRT
 70
0
  9
$DIMEXE
 40
0.18
  9
$DIMEXO
 40
0.0625
  9
$DIMGAP
 40
0.0625
  9
$DIMLFAC
 40
1
  9
$DIMDEC
 70
4
  9
$DIMTAD
 70
0
  9
$DIMCEN
 40
0.09
  9
$DIMTIH
 70
1
  9
$DIMTIX
 70
0
  9
$DIMTOH
 70
1
  9
$DIMSE1
 70
0
  9
$DIMSE2
 70
0
  9
$DIMSD1
 70
0
  9
$DIMSD2
 70
0
  9
$DIMLWD
 70
-1
  9
$DIMLWE
 70
-1
  9
$DIMSAH
 70
0
  9
$DIMBLK
  1

  9
$DIMBLK1
  1

  9
$DIMBLK2
  1

  9
$DIMLDRBLK
  1

  9
$DIMSTYLE
  2
STANDARD
  9
$DIMTP
 40
0
  9
$DIMTM
 40
0
  9
$DIMTXT
 40
0.18
  9
$DIMLUNIT
 70
2
  9
$DIMDSEP
 70
46
  9
$DIMTXSTY
  7
STANDARD
  9
$TEXTSIZE
 40
0.18
  9
$TEXTSTYLE
  7
STANDARD
  9
$HANDSEED
  5
0000000000000637
  9
$FILLETRAD
 40
0.5
  9
$INSUNITS
 70
4
  9
$LIMMIN
 10
3.0095188005875
 20
4.13260913513754
  9
$LIMMAX
 10
3.5723007947125
 20
4.81420070507049
  9
$FILLMODE
 70
1
  9
$LTSCALE
 40
1
  9
$MEASUREMENT
 70
0
  9
$ATTMODE
 70
1
  9
$PDMODE
 70
0
  9
$PDSIZE
 40
0
  9
$TILEMODE
 70
1
  9
$UCSORG
 10
0
 20
0
 30
0
  9
$UCSXDIR
 10
1
 20
0
 30
0
  9
$UCSYDIR
 10
0
 20
1
 30
0
  9
$INSBASE
 10
0
 20
0
 30
0
  9
$XCLIPFRAME
290
1
  9
$DIMASSOC
280
2
  9
$TDCREATE
 40
2459012.68107932
  9
$TDINDWG
 40
1.5162037037037E-6
  9
$TDUPDATE
 40
2459012.68108083
  0
ENDSEC
  0
SECTION
  2
CLASSES
  0
CLASS
  1
IMAGE
  2
AcDbRasterImage
  3
ISM
 90
2175
 91
1
280
0
281
1
  0
CLASS
  1
IMAGEDEF
  2
AcDbRasterImageDef
  3
ISM
 90
0
 91
1
280
0
281
0
  0
CLASS
  1
WIPEOUT
  2
AcDbWipeout
  3
"WipeOut"
 90
2175
 91
1
280
0
281
1
  0
CLASS
  1
WIPEOUTVARIABLES
  2
AcDbWipeoutVariables
  3
"WipeOut"
 90
0
 91
1
280
0
281
0
  0
CLASS
  1
MPOLYGON
  2
AcDbMPolygon
  3
"AcMPolygonObj15"
 90
3071
 91
1
280
0
281
1
  0
ENDSEC
  0
SECTION
  2
TABLES
  0
TABLE
  2
APPID
  5
5D2
100
AcDbSymbolTable
  0
APPID
  5
5D3
100
AcDbSymbolTableRecord
100
AcDbRegAppTableRecord
  2
ACAD
 70
0
  0
APPID
  5
12
100
AcDbSymbolTableRecord
100
AcDbRegAppTableRecord
  2
CSTINVENTORY
 70
0
  0
APPID
  5
5D4
100
AcDbSymbolTableRecord
100
AcDbRegAppTableRecord
  2
PE_URL
 70
0
  0
ENDTAB
  0
TABLE
  2
BLOCK_RECORD
  5
5D5
100
AcDbSymbolTable
  0
BLOCK_RECORD
  5
2A
100
AcDbSymbolTableRecord
100
AcDbBlockTableRecord
  2
*MODEL_SPACE
  0
BLOCK_RECORD
  5
5D6
100
AcDbSymbolTableRecord
100
AcDbBlockTableRecord
  2
*PAPER_SPACE
  0
BLOCK_RECORD
  5
10
100
AcDbSymbolTableRecord
100
AcDbBlockTableRecord
  2
_CLOSEDFILLED
  0
ENDTAB
  0
TABLE
  2
STYLE
  5
3
100
AcDbSymbolTable
  0
STYLE
  5
A
100
AcDbSymbolTableRecord
100
AcDbTextStyleTableRecord
  2
STANDARD
 70
0
 40
0
 41
1
 50
0
 71
0
 42
2.5
  3
txt
  4

1001
ACAD
1000
txt
1071
0
  0
ENDTAB
  0
TABLE
  2
LTYPE
  5
1
100
AcDbSymbolTable
  0
LTYPE
  5
9
100
AcDbSymbolTableRecord
100
AcDbLinetypeTableRecord
  2
CONTINUOUS
 70
0
  3

 72
65
 73
0
 40
0
  0
LTYPE
  5
7
100
AcDbSymbolTableRecord
100
AcDbLinetypeTableRecord
  2
BYLAYER
 70
0
  3

 72
65
 73
0
 40
0
  0
LTYPE
  5
8
100
AcDbSymbolTableRecord
100
AcDbLinetypeTableRecord
  2
BYBLOCK
 70
0
  3

 72
65
 73
0
 40
0
  0
LTYPE
  5
13
100
AcDbSymbolTableRecord
100
AcDbLinetypeTableRecord
  2
_SOLID
 70
0
  3
_.
 72
65
 73
2
 40
5
 49
5
 74
0
 49
0
 74
0
  0
LTYPE
  5
14
100
AcDbSymbolTableRecord
100
AcDbLinetypeTableRecord
  2
_DASH
 70
0
  3
_ 
 72
65
 73
2
 40
7
 49
5
 74
0
 49
-2
 74
0
  0
LTYPE
  5
15
100
AcDbSymbolTableRecord
100
AcDbLinetypeTableRecord
  2
_DOT
 70
0
  3
_ 
 72
65
 73
2
 40
4
 49
2
 74
0
 49
-2
 74
0
  0
LTYPE
  5
16
100
AcDbSymbolTableRecord
100
AcDbLinetypeTableRecord
  2
_DASHDOT
 70
0
  3
_ _ 
 72
65
 73
4
 40
11
 49
5
 74
0
 49
-2
 74
0
 49
2
 74
0
 49
-2
 74
0
  0
LTYPE
  5
17
100
AcDbSymbolTableRecord
100
AcDbLinetypeTableRecord
  2
_DASHDOTDOT
 70
0
  3
_ _ _ 
 72
65
 73
6
 40
15
 49
5
 74
0
 49
-2
 74
0
 49
2
 74
0
 49
-2
 74
0
 49
2
 74
0
 49
-2
 74
0
  0
LTYPE
  5
18
100
AcDbSymbolTableRecord
100
AcDbLinetypeTableRecord
  2
ISO128-20-02
 70
0
  3
_ 
 72
65
 73
2
 40
5
 49
4
 74
0
 49
-1
 74
0
  0
LTYPE
  5
19
100
AcDbSymbolTableRecord
100
AcDbLinetypeTableRecord
  2
ISO128-20-03
 70
0
  3
_ 
 72
65
 73
2
 40
10
 49
4
 74
0
 49
-6
 74
0
  0
LTYPE
  5
1A
100
AcDbSymbolTableRecord
100
AcDbLinetypeTableRecord
  2
ISO128-20-04
 70
0
  3
_ . 
 72
65
 73
4
 40
10
 49
8
 74
0
 49
-1
 74
0
 49
0
 74
0
 49
-1
 74
0
  0
LTYPE
  5
1B
100
AcDbSymbolTableRecord
100
AcDbLinetypeTableRecord
  2
ISO128-20-05
 70
0
  3
_ . . 
 72
65
 73
6
 40
11
 49
8
 74
0
 49
-1
 74
0
 49
0
 74
0
 49
-1
 74
0
 49
0
 74
0
 49
-1
 74
0
  0
LTYPE
  5
1C
100
AcDbSymbolTableRecord
100
AcDbLinetypeTableRecord
  2
ISO128-20-06
 70
0
  3
_ . . . 
 72
65
 73
8
 40
12
 49
8
 74
0
 49
-1
 74
0
 49
0
 74
0
 49
-1
 74
0
 49
0
 74
0
 49
-1
 74
0
 49
0
 74
0
 49
-1
 74
0
  0
LTYPE
  5
1D
100
AcDbSymbolTableRecord
100
AcDbLinetypeTableRecord
  2
ISO128-20-07
 70
0
  3
. 
 72
65
 73
2
 40
1
 49
0
 74
0
 49
-1
 74
0
  0
LTYPE
  5
1E
100
AcDbSymbolTableRecord
100
AcDbLinetypeTableRecord
  2
ISO128-20-08
 70
0
  3
_ _ 
 72
65
 73
4
 40
12
 49
8
 74
0
 49
-1
 74
0
 49
2
 74
0
 49
-1
 74
0
  0
LTYPE
  5
1F
100
AcDbSymbolTableRecord
100
AcDbLinetypeTableRecord
  2
ISO128-20-09
 70
0
  3
_ _ _ 
 72
65
 73
6
 40
15
 49
8
 74
0
 49
-1
 74
0
 49
2
 74
0
 49
-1
 74
0
 49
2
 74
0
 49
-1
 74
0
  0
LTYPE
  5
20
100
AcDbSymbolTableRecord
100
AcDbLinetypeTableRecord
  2
ISO128-20-10
 70
0
  3
_ . 
 72
65
 73
4
 40
10
 49
8
 74
0
 49
-1
 74
0
 49
0
 74
0
 49
-1
 74
0
  0
LTYPE
  5
21
100
AcDbSymbolTableRecord
100
AcDbLinetypeTableRecord
  2
ISO128-20-11
 70
0
  3
_ _ . 
 72
65
 73
6
 40
11
 49
4
 74
0
 49
-1
 74
0
 49
4
 74
0
 49
-1
 74
0
 49
0
 74
0
 49
-1
 74
0
  0
LTYPE
  5
22
100
AcDbSymbolTableRecord
100
AcDbLinetypeTableRecord
  2
ISO128-20-12
 70
0
  3
_ . . 
 72
65
 73
6
 40
7
 49
4
 74
0
 49
-1
 74
0
 49
0
 74
0
 49
-1
 74
0
 49
0
 74
0
 49
-1
 74
0
  0
LTYPE
  5
23
100
AcDbSymbolTableRecord
100
AcDbLinetypeTableRecord
  2
ISO128-20-13
 70
0
  3
_ _ . . 
 72
65
 73
8
 40
12
 49
4
 74
0
 49
-1
 74
0
 49
4
 74
0
 49
-1
 74
0
 49
0
 74
0
 49
-1
 74
0
 49
0
 74
0
 49
-1
 74
0
  0
LTYPE
  5
24
100
AcDbSymbolTableRecord
100
AcDbLinetypeTableRecord
  2
ISO128-20-14
 70
0
  3
_ . . . 
 72
65
 73
8
 40
8
 49
4
 74
0
 49
-1
 74
0
 49
0
 74
0
 49
-1
 74
0
 49
0
 74
0
 49
-1
 74
0
 49
0
 74
0
 49
-1
 74
0
  0
LTYPE
  5
25
100
AcDbSymbolTableRecord
100
AcDbLinetypeTableRecord
  2
ISO128-20-15
 70
0
  3
_ _ . . . 
 72
65
 73
10
 40
13
 49
4
 74
0
 49
-1
 74
0
 49
4
 74
0
 49
-1
 74
0
 49
0
 74
0
 49
-1
 74
0
 49
0
 74
0
 49
-1
 74
0
 49
0
 74
0
 49
-1
 74
0
  0
LTYPE
  5
26
100
AcDbSymbolTableRecord
100
AcDbLinetypeTableRecord
  2
kurzgestrichelt
 70
0
  3
_ 
 72
65
 73
2
 40
3
 49
2
 74
0
 49
-1
 74
0
  0
ENDTAB
  0
TABLE
  2
LAYER
  5
2
100
AcDbSymbolTable
  0
LAYER
  5
E
100
AcDbSymbolTableRecord
100
AcDbLayerTableRecord
  2
0
 70
0
 62
7
  6
CONTINUOUS
290
1
370
-3
390
0
  0
LAYER
  5
27
100
AcDbSymbolTableRecord
100
AcDbLayerTableRecord
  2
SEMA2D
 70
0
 62
7
290
1
370
-3
390
0
  0
LAYER
  5
2B
100
AcDbSymbolTableRecord
100
AcDbLayerTableRecord
  2
SEMATEXT
 70
0
 62
7
290
1
370
-3
390
0
  0
ENDTAB
  0
TABLE
  2
VPORT
  5
5D7
100
AcDbSymbolTable
  0
VPORT
  5
5D9
100
AcDbSymbolTableRecord
100
AcDbViewportTableRecord
  2
*ACTIVE
 70
0
 10
0
 20
0
 11
1
 21
1
 12
3.29090979765
 22
4.47340492010401
 32
0
 13
0
 23
0
 14
1
 24
1
 15
1
 25
1
 16
0
 26
0
 36
1
 17
0
 27
0
 37
0
 40
0.545273255946356
 41
0.825688020437761
 42
50
 43
0
 44
0
 50
0
 51
0
 71
0
 72
100
 73
1
 74
1
 75
0
 76
0
 77
0
 78
0
  0
ENDTAB
  0
TABLE
  2
VIEW
  5
5DA
100
AcDbSymbolTable
  0
ENDTAB
  0
TABLE
  2
UCS
  5
5DB
100
AcDbSymbolTable
  0
ENDTAB
  0
TABLE
  2
DIMSTYLE
  5
4
100
AcDbSymbolTable
 70
1
100
AcDbDimStyleTable
 71
0
  0
DIMSTYLE
105
B
100
AcDbSymbolTableRecord
100
AcDbDimStyleTableRecord
  2
STANDARD
 70
0
  3

 40
1
 41
0.18
 42
0.0625
 44
0.18
 47
0
 48
0
 73
1
 74
1
 75
0
 76
0
 77
0
140
0.18
141
0.09
144
1
147
0.0625
173
0
174
0
176
0
177
0
178
0
277
2
278
46
281
0
282
0
271
4
340
A
371
-1
372
-1
  0
ENDTAB
  0
ENDSEC
  0
SECTION
  2
BLOCKS
  0
BLOCK
  5
5DC
100
AcDbEntity
  8
0
100
AcDbBlockBegin
  2
*MODEL_SPACE
 70
0
 10
0
 20
0
  0
ENDBLK
  5
5DD
100
AcDbEntity
  8
0
100
AcDbBlockEnd
  0
BLOCK
  5
5DE
100
AcDbEntity
  8
0
100
AcDbBlockBegin
  2
*PAPER_SPACE
 70
0
 10
0
 20
0
  0
ENDBLK
  5
5DF
100
AcDbEntity
  8
0
100
AcDbBlockEnd
  0
BLOCK
  5
F
100
AcDbEntity
  8
0
100
AcDbBlockBegin
  2
_CLOSEDFILLED
 70
0
 10
0
 20
0
 30
0
  3
_CLOSEDFILLED
  1

  0
SOLID
  5
C
100
AcDbEntity
  8
0
100
AcDbTrace
370
-2
 62
0
 10
-1
 20
0.166666666666667
 30
0
 11
0
 21
0
 31
0
 12
-1
 22
0.166666666666667
 32
0
 13
-1
 23
-0.166666666666667
 33
0
  0
LINE
  5
D
100
AcDbEntity
  8
0
100
AcDbLine
370
-2
 62
0
 10
-1
 20
0
 30
0
 11
-2
 21
0
 31
0
  0
ENDBLK
  5
5E0
100
AcDbEntity
  8
0
100
AcDbBlockEnd
  0
ENDSEC
  0
SECTION
  2
ENTITIES
  0
LINE
  5
28
100
AcDbEntity
  8
SEMA2D
100
AcDbLine
370
9
 62
7
  6
_SOLID
 10
3.22131290718377
 20
4.61448629888926
 30
0
 11
3.47589104108377
 21
4.61504448208926
 31
0
  0
MTEXT
  5
2C
100
AcDbEntity
  8
SEMATEXT
100
AcDbMText
370
9
 62
7
 10
3.33746773890767
 20
4.63270159772813
 30
0
 40
0.010476
  1
{\fHelveticaNeueLT Com 55 Roman;255}
 50
0.125625440864968
 41
0
  7
STANDARD
 71
0
 73
1
 44
1
  0
LINE
  5
31
100
AcDbEntity
  8
SEMA2D
100
AcDbLine
370
9
 62
7
  6
_SOLID
 10
3.22131290718377
 20
4.61448629888926
 30
0
 11
3.22129448954696
 21
4.6228862786982
 31
0
  0
LINE
  5
32
100
AcDbEntity
  8
SEMA2D
100
AcDbLine
370
9
 62
7
  6
_SOLID
 10
3.22131290718377
 20
4.61448629888926
 30
0
 11
3.22133132482058
 21
4.60608631908031
 31
0
  0
LINE
  5
33
100
AcDbEntity
  8
SEMA2D
100
AcDbLine
370
9
 62
7
  6
_SOLID
 10
3.47589104108377
 20
4.61504448208926
 30
0
 11
3.47587262344696
 21
4.6234444618982
 31
0
  0
LINE
  5
34
100
AcDbEntity
  8
SEMA2D
100
AcDbLine
370
9
 62
7
  6
_SOLID
 10
3.47589104108377
 20
4.61504448208926
 30
0
 11
3.47590945872058
 21
4.60664450228031
 31
0
  0
LINE
  5
35
100
AcDbEntity
  8
SEMA2D
100
AcDbLine
370
9
 62
7
  6
_SOLID
 10
3.074197
 20
4.5864648387
 30
0
 11
3.074197
 21
4.5572523387
 31
0
  0
MTEXT
  5
36
100
AcDbEntity
  8
SEMATEXT
100
AcDbMText
370
9
 62
7
 10
3.0761213475122
 20
4.56471723830801
 30
0
 40
0.010476
  1
{\fHelveticaNeueLT Com 55 Roman;29}
 50
90
 41
0
  7
STANDARD
 71
0
 73
1
 44
1
  0
LINE
  5
3B
100
AcDbEntity
  8
SEMA2D
100
AcDbLine
370
9
 62
7
  6
_SOLID
 10
3.074197
 20
4.5864648387
 30
0
 11
3.082597
 21
4.5864648387
 31
0
  0
LINE
  5
3C
100
AcDbEntity
  8
SEMA2D
100
AcDbLine
370
9
 62
7
  6
_SOLID
 10
3.074197
 20
4.5864648387
 30
0
 11
3.065797
 21
4.5864648387
 31
0
  0
LINE
  5
3D
100
AcDbEntity
  8
SEMA2D
100
AcDbLine
370
9
 62
7
  6
_SOLID
 10
3.074197
 20
4.5572523387
 30
0
 11
3.082597
 21
4.5572523387
 31
0
  0
LINE
  5
3E
100
AcDbEntity
  8
SEMA2D
100
AcDbLine
370
9
 62
7
  6
_SOLID
 10
3.074197
 20
4.5572523387
 30
0
 11
3.065797
 21
4.5572523387
 31
0
  0
LINE
  5
3F
100
AcDbEntity
  8
SEMA2D
100
AcDbLine
370
9
 62
7
  6
_SOLID
 10
3.094
 20
4.6144862989
 30
0
 11
3.111613
 21
4.6144862989
 31
0
  0
MTEXT
  5
40
100
AcDbEntity
  8
SEMATEXT
100
AcDbMText
370
9
 62
7
 10
3.09563270361498
 20
4.63244687568049
 30
0
 40
0.010476
  1
{\fHelveticaNeueLT Com 55 Roman;18}
 50
0
 41
0
  7
STANDARD
 71
0
 73
1
 44
1
  0
LINE
  5
45
100
AcDbEntity
  8
SEMA2D
100
AcDbLine
370
9
 62
7
  6
_SOLID
 10
3.094
 20
4.6144862989
 30
0
 11
3.094
 21
4.6228862989
 31
0
  0
LINE
  5
46
100
AcDbEntity
  8
SEMA2D
100
AcDbLine
370
9
 62
7
  6
_SOLID
 10
3.094
 20
4.6144862989
 30
0
 11
3.094
 21
4.6060862989
 31
0
  0
LINE
  5
47
100
AcDbEntity
  8
SEMA2D
100
AcDbLine
370
9
 62
7
  6
_SOLID
 10
3.111613
 20
4.6144862989
 30
0
 11
3.111613
 21
4.6228862989
 31
0
  0
LINE
  5
48
100
AcDbEntity
  8
SEMA2D
100
AcDbLine
370
9
 62
7
  6
_SOLID
 10
3.111613
 20
4.6144862989
 30
0
 11
3.111613
 21
4.6060862989
 31
0
  0
LINE
  5
49
100
AcDbEntity
  8
SEMA2D
100
AcDbLine
370
9
 62
7
  6
_SOLID
 10
3.111613
 20
4.6144862989
 30
0
 11
3.126445
 21
4.6144862989
 31
0
  0
MTEXT
  5
4A
100
AcDbEntity
  8
SEMATEXT
100
AcDbMText
370
9
 62
7
 10
3.11189576110627
 20
4.63244687568049
 30
0
 40
0.010476
  1
{\fHelveticaNeueLT Com 55 Roman;15}
 50
0
 41
0
  7
STANDARD
 71
0
 73
1
 44
1
  0
LINE
  5
4F
100
AcDbEntity
  8
SEMA2D
100
AcDbLine
370
9
 62
7
  6
_SOLID
 10
3.111613
 20
4.6144862989
 30
0
 11
3.111613
 21
4.6228862989
 31
0
  0
LINE
  5
50
100
AcDbEntity
  8
SEMA2D
100
AcDbLine
370
9
 62
7
  6
_SOLID
 10
3.111613
 20
4.6144862989
 30
0
 11
3.111613
 21
4.6060862989
 31
0
  0
LINE
  5
51
100
AcDbEntity
  8
SEMA2D
100
AcDbLine
370
9
 62
7
  6
_SOLID
 10
3.126445
 20
4.6144862989
 30
0
 11
3.126445
 21
4.6228862989
 31
0
  0
LINE
  5
52
100
AcDbEntity
  8
SEMA2D
100
AcDbLine
370
9
 62
7
  6
_SOLID
 10
3.126445
 20
4.6144862989
 30
0
 11
3.126445
 21
4.6060862989
 31
0
  0
LINE
  5
53
100
AcDbEntity
  8
SEMA2D
100
AcDbLine
370
9
 62
7
  6
_SOLID
 10
3.5060225953
 20
4.5864648387
 30
0
 11
3.5060225953
 21
4.2016042168
 31
0
  0
MTEXT
  5
54
100
AcDbEntity
  8
SEMATEXT
100
AcDbMText
370
9
 62
7
 10
3.4899469428122
 20
4.38293964578136
 30
0
 40
0.010476
  1
{\fHelveticaNeueLT Com 55 Roman;385}
 50
90
 41
0
  7
STANDARD
 71
0
 73
1
 44
1
  0
LINE
  5
59
100
AcDbEntity
  8
SEMA2D
100
AcDbLine
370
9
 62
7
  6
_SOLID
 10
3.5060225953
 20
4.5864648387
 30
0
 11
3.5144225953
 21
4.5864648387
 31
0
  0
LINE
  5
5A
100
AcDbEntity
  8
SEMA2D
100
AcDbLine
370
9
 62
7
  6
_SOLID
 10
3.5060225953
 20
4.5864648387
 30
0
 11
3.4976225953
 21
4.5864648387
 31
0
  0
LINE
  5
5B
100
AcDbEntity
  8
SEMA2D
100
AcDbLine
370
9
 62
7
  6
_SOLID
 10
3.5060225953
 20
4.2016042168
 30
0
 11
3.5144225953
 21
4.2016042168
 31
0
  0
LINE
  5
5C
100
AcDbEntity
  8
SEMA2D
100
AcDbLine
370
9
 62
7
  6
_SOLID
 10
3.5060225953
 20
4.2016042168
 30
0
 11
3.4976225953
 21
4.2016042168
 31
0
  0
LINE
  5
5D
100
AcDbEntity
  8
SEMA2D
100
AcDbLine
370
9
 62
7
  6
_SOLID
 10
3.22106433036649
 20
4.72785807767717
 30
0
 11
3.47564246426649
 21
4.72841626087717
 31
0
  0
MTEXT
  5
5E
100
AcDbEntity
  8
SEMATEXT
100
AcDbMText
370
9
 62
7
 10
3.33721916209039
 20
4.74607337651604
 30
0
 40
0.010476
  1
{\fHelveticaNeueLT Com 55 Roman;255}
 50
0.125625440864968
 41
0
  7
STANDARD
 71
0
 73
1
 44
1
  0
LINE
  5
63
100
AcDbEntity
  8
SEMA2D
100
AcDbLine
370
9
 62
7
  6
_SOLID
 10
3.22106433036649
 20
4.72785807767717
 30
0
 11
3.22104591272968
 21
4.73625805748611
 31
0
  0
LINE
  5
64
100
AcDbEntity
  8
SEMA2D
100
AcDbLine
370
9
 62
7
  6
_SOLID
 10
3.22106433036649
 20
4.72785807767717
 30
0
 11
3.2210827480033
 21
4.71945809786823
 31
0
  0
LINE
  5
65
100
AcDbEntity
  8
SEMA2D
100
AcDbLine
370
9
 62
7
  6
_SOLID
 10
3.47564246426649
 20
4.72841626087717
 30
0
 11
3.47562404662968
 21
4.73681624068611
 31
0
  0
LINE
  5
66
100
AcDbEntity
  8
SEMA2D
100
AcDbLine
370
9
 62
7
  6
_SOLID
 10
3.47564246426649
 20
4.72841626087717
 30
0
 11
3.4756608819033
 21
4.72001628106823
 31
0
  0
LINE
  5
67
100
AcDbEntity
  8
SEMA2D
100
AcDbLine
370
9
 62
7
  6
_SOLID
 10
3.141613
 20
4.5572523387
 30
0
 11
3.141613
 21
4.2019523387
 31
0
  0
MTEXT
  5
68
100
AcDbEntity
  8
SEMATEXT
100
AcDbMText
370
9
 62
7
 10
3.12353734751219
 20
4.36850745673136
 30
0
 40
0.010476
  1
{\fHelveticaNeueLT Com 55 Roman;355}
 50
90
 41
0
  7
STANDARD
 71
0
 73
1
 44
1
  0
LINE
  5
6D
100
AcDbEntity
  8
SEMA2D
100
AcDbLine
370
9
 62
7
  6
_SOLID
 10
3.141613
 20
4.5572523387
 30
0
 11
3.150013
 21
4.5572523387
 31
0
  0
LINE
  5
6E
100
AcDbEntity
  8
SEMA2D
100
AcDbLine
370
9
 62
7
  6
_SOLID
 10
3.141613
 20
4.5572523387
 30
0
 11
3.133213
 21
4.5572523387
 31
0
  0
LINE
  5
6F
100
AcDbEntity
  8
SEMA2D
100
AcDbLine
370
9
 62
7
  6
_SOLID
 10
3.141613
 20
4.2019523387
 30
0
 11
3.150013
 21
4.2019523387
 31
0
  0
LINE
  5
70
100
AcDbEntity
  8
SEMA2D
100
AcDbLine
370
9
 62
7
  6
_SOLID
 10
3.141613
 20
4.2019523387
 30
0
 11
3.133213
 21
4.2019523387
 31
0
  0
LINE
  5
71
100
AcDbEntity
  8
SEMA2D
100
AcDbLine
370
9
 62
7
  6
_SOLID
 10
3.104197
 20
4.2012398387
 30
0
 11
3.106978
 21
4.2012398387
 31
0
  0
LINE
  5
72
100
AcDbEntity
  8
SEMA2D
100
AcDbLine
370
9
 62
7
  6
_SOLID
 10
3.094
 20
4.2025
 30
0
 11
3.104197
 21
4.2019523387
 31
0
  0
LINE
  5
73
100
AcDbEntity
  8
SEMA2D
100
AcDbLine
370
9
 62
7
  6
_SOLID
 10
3.106978
 20
4.2026648387
 30
0
 11
3.111613
 21
4.2029137757
 31
0
  0
LINE
  5
74
100
AcDbEntity
  8
SEMA2D
100
AcDbLine
370
9
 62
9
  6
_SOLID
 10
3.106978
 20
4.204034534
 30
0
 11
3.111613
 21
4.2042151065
 31
0
  0
LINE
  5
75
100
AcDbEntity
  8
SEMA2D
100
AcDbLine
370
9
 62
9
  6
_SOLID
 10
3.106978
 20
4.2030008756
 30
0
 11
3.104197
 21
4.2030008756
 31
0
  0
LINE
  5
76
100
AcDbEntity
  8
SEMA2D
100
AcDbLine
370
9
 62
9
  6
_SOLID
 10
3.094
 20
4.2039149643
 30
0
 11
3.104197
 21
4.2035177048
 31
0
  0
LINE
  5
77
100
AcDbEntity
  8
SEMA2D
100
AcDbLine
370
9
 62
9
  6
_SOLID
 10
3.106978
 20
4.2767300746
 30
0
 11
3.111613
 21
4.2769106471
 31
0
  0
LINE
  5
78
100
AcDbEntity
  8
SEMA2D
100
AcDbLine
370
9
 62
9
  6
_SOLID
 10
3.106978
 20
4.2756964161
 30
0
 11
3.104197
 21
4.2756964161
 31
0
  0
LINE
  5
79
100
AcDbEntity
  8
SEMA2D
100
AcDbLine
370
9
 62
9
  6
_SOLID
 10
3.0951239823
 20
4.2765667162
 30
0
 11
3.104197
 21
4.2762132454
 31
0
  0
LINE
  5
7A
100
AcDbEntity
  8
SEMA2D
100
AcDbLine
370
9
 62
9
  6
_SOLID
 10
3.095854
 20
4.2899953584
 30
0
 11
3.111613
 21
4.2899953584
 31
0
  0
LINE
  5
7B
100
AcDbEntity
  8
SEMA2D
100
AcDbLine
370
9
 62
7
  6
_SOLID
 10
3.094
 20
4.5572523387
 30
0
 11
3.096781
 21
4.5736453152
 31
0
  0
LINE
  5
7C
100
AcDbEntity
  8
SEMA2D
100
AcDbLine
370
9
 62
7
  6
_SOLID
 10
3.094
 20
4.5363523387
 30
0
 11
3.096781
 21
4.5527453152
 31
0
  0
LINE
  5
7D
100
AcDbEntity
  8
SEMA2D
100
AcDbLine
370
9
 62
7
  6
_SOLID
 10
3.094
 20
4.5158866536
 30
0
 11
3.096781
 21
4.5320498068
 31
0
  0
LINE
  5
7E
100
AcDbEntity
  8
SEMA2D
100
AcDbLine
370
9
 62
7
  6
_SOLID
 10
3.094
 20
4.5852046774
 30
0
 11
3.094
 21
4.5743523387
 31
0
  0
LINE
  5
7F
100
AcDbEntity
  8
SEMA2D
100
AcDbLine
370
9
 62
7
  6
_SOLID
 10
3.094
 20
4.5572523387
 30
0
 11
3.094
 21
4.5534523387
 31
0
  0
LINE
  5
80
100
AcDbEntity
  8
SEMA2D
100
AcDbLine
370
9
 62
7
  6
_SOLID
 10
3.094
 20
4.5363523387
 30
0
 11
3.094
 21
4.5325523387
 31
0
  0
LINE
  5
81
100
AcDbEntity
  8
SEMA2D
100
AcDbLine
370
9
 62
7
  6
_SOLID
 10
3.094
 20
4.2540196209
 30
0
 11
3.094
 21
4.2025000225
 31
0
  0
LINE
  5
82
100
AcDbEntity
  8
SEMA2D
100
AcDbLine
370
9
 62
7
  6
_SOLID
 10
3.094
 20
4.2562641332
 30
0
 11
3.094
 21
4.5158866536
 31
0
  0
LINE
  5
83
100
AcDbEntity
  8
SEMA2D
100
AcDbLine
370
9
 62
7
  6
_SOLID
 10
3.094
 20
4.5363523387
 30
0
 11
3.094
 21
4.5534523387
 31
0
  0
LINE
  5
84
100
AcDbEntity
  8
SEMA2D
100
AcDbLine
370
9
 62
7
  6
_SOLID
 10
3.095854
 20
4.5100396881
 30
0
 11
3.095854
 21
4.2899953584
 31
0
  0
LINE
  5
85
100
AcDbEntity
  8
SEMA2D
100
AcDbLine
370
9
 62
7
  6
_SOLID
 10
3.104197
 20
4.5864648387
 30
0
 11
3.104197
 21
4.2012398387
 31
0
  0
LINE
  5
86
100
AcDbEntity
  8
SEMA2D
100
AcDbLine
370
9
 62
7
  6
_SOLID
 10
3.106978
 20
4.5864648387
 30
0
 11
3.106978
 21
4.2012398387
 31
0
  0
LINE
  5
87
100
AcDbEntity
  8
SEMA2D
100
AcDbLine
370
9
 62
7
  6
_SOLID
 10
3.111613
 20
4.5847909018
 30
0
 11
3.111613
 21
4.2029137963
 31
0
  0
LINE
  5
88
100
AcDbEntity
  8
SEMA2D
100
AcDbLine
370
9
 62
7
  6
_SOLID
 10
3.0948654367
 20
4.2746336527
 30
0
 11
3.0951239823
 21
4.2765667162
 31
0
  0
LINE
  5
89
100
AcDbEntity
  8
SEMA2D
100
AcDbLine
370
9
 62
7
  6
_SOLID
 10
3.126445
 20
4.5599325088
 30
0
 11
3.126445
 21
4.5792585542
 31
0
  0
LINE
  5
8A
100
AcDbEntity
  8
SEMA2D
100
AcDbLine
370
9
 62
7
  6
_SOLID
 10
3.095854
 20
4.5100396881
 30
0
 11
3.094
 21
4.5111366536
 31
0
  0
LINE
  5
8B
100
AcDbEntity
  8
SEMA2D
100
AcDbLine
370
9
 62
7
  6
_SOLID
 10
3.096781
 20
4.5320498068
 30
0
 11
3.094
 21
4.5325523387
 31
0
  0
LINE
  5
8C
100
AcDbEntity
  8
SEMA2D
100
AcDbLine
370
9
 62
7
  6
_SOLID
 10
3.096781
 20
4.5527453152
 30
0
 11
3.094
 21
4.5534523387
 31
0
  0
LINE
  5
8D
100
AcDbEntity
  8
SEMA2D
100
AcDbLine
370
9
 62
7
  6
_SOLID
 10
3.126445
 20
4.5599325088
 30
0
 11
3.111613
 21
4.5572523387
 31
0
  0
LINE
  5
8E
100
AcDbEntity
  8
SEMA2D
100
AcDbLine
370
9
 62
7
  6
_SOLID
 10
3.094
 20
4.5852046774
 30
0
 11
3.104197
 21
4.5857523387
 31
0
  0
LINE
  5
8F
100
AcDbEntity
  8
SEMA2D
100
AcDbLine
370
9
 62
7
  6
_SOLID
 10
3.106978
 20
4.5864648387
 30
0
 11
3.104197
 21
4.5864648387
 31
0
  0
LINE
  5
90
100
AcDbEntity
  8
SEMA2D
100
AcDbLine
370
9
 62
7
  6
_SOLID
 10
3.106978
 20
4.5850398387
 30
0
 11
3.111613
 21
4.5847909018
 31
0
  0
LINE
  5
91
100
AcDbEntity
  8
SEMA2D
100
AcDbLine
370
9
 62
7
  6
_SOLID
 10
3.096781
 20
4.5736453152
 30
0
 11
3.094
 21
4.5743523387
 31
0
  0
LINE
  5
92
100
AcDbEntity
  8
SEMA2D
100
AcDbLine
370
9
 62
7
  6
_SOLID
 10
3.111613
 20
4.5847909018
 30
0
 11
3.126445
 21
4.5792585542
 31
0
  0
LINE
  5
93
100
AcDbEntity
  8
SEMA2D
100
AcDbLine
370
9
 62
7
  6
_SOLID
 10
3.095854
 20
4.2899953584
 30
0
 11
3.0958508633
 21
4.2890341642
 31
0
  0
LINE
  5
94
100
AcDbEntity
  8
SEMA2D
100
AcDbLine
370
9
 62
7
  6
_SOLID
 10
3.0958508633
 20
4.2890341642
 30
0
 11
3.0958413887
 21
4.2880729965
 31
0
  0
LINE
  5
95
100
AcDbEntity
  8
SEMA2D
100
AcDbLine
370
9
 62
7
  6
_SOLID
 10
3.0958413887
 20
4.2880729965
 30
0
 11
3.0958254797
 21
4.2871119045
 31
0
  0
LINE
  5
96
100
AcDbEntity
  8
SEMA2D
100
AcDbLine
370
9
 62
7
  6
_SOLID
 10
3.0958254797
 20
4.2871119045
 30
0
 11
3.0958061974
 21
4.2862707576
 31
0
  0
LINE
  5
97
100
AcDbEntity
  8
SEMA2D
100
AcDbLine
370
9
 62
7
  6
_SOLID
 10
3.0958061974
 20
4.2862707576
 30
0
 11
3.0958030394
 21
4.2861509378
 31
0
  0
LINE
  5
98
100
AcDbEntity
  8
SEMA2D
100
AcDbLine
370
9
 62
7
  6
_SOLID
 10
3.0958030394
 20
4.2861509378
 30
0
 11
3.095773909
 21
4.2851901502
 31
0
  0
LINE
  5
99
100
AcDbEntity
  8
SEMA2D
100
AcDbLine
370
9
 62
7
  6
_SOLID
 10
3.095773909
 20
4.2851901502
 30
0
 11
3.0957377576
 21
4.2842296082
 31
0
  0
LINE
  5
9A
100
AcDbEntity
  8
SEMA2D
100
AcDbLine
370
9
 62
7
  6
_SOLID
 10
3.0957377576
 20
4.2842296082
 30
0
 11
3.0956942249
 21
4.2832693802
 31
0
  0
LINE
  5
9B
100
AcDbEntity
  8
SEMA2D
100
AcDbLine
370
9
 62
7
  6
_SOLID
 10
3.0956942249
 20
4.2832693802
 30
0
 11
3.0956645251
 21
4.282695503
 31
0
  0
LINE
  5
9C
100
AcDbEntity
  8
SEMA2D
100
AcDbLine
370
9
 62
7
  6
_SOLID
 10
3.0956645251
 20
4.282695503
 30
0
 11
3.0956429451
 21
4.2823095354
 31
0
  0
LINE
  5
9D
100
AcDbEntity
  8
SEMA2D
100
AcDbLine
370
9
 62
7
  6
_SOLID
 10
3.0956429451
 20
4.2823095354
 30
0
 11
3.0955833457
 21
4.2813501683
 31
0
  0
LINE
  5
9E
100
AcDbEntity
  8
SEMA2D
100
AcDbLine
370
9
 62
7
  6
_SOLID
 10
3.0955833457
 20
4.2813501683
 30
0
 11
3.095514587
 21
4.2803914059
 31
0
  0
LINE
  5
9F
100
AcDbEntity
  8
SEMA2D
100
AcDbLine
370
9
 62
7
  6
_SOLID
 10
3.095514587
 20
4.2803914059
 30
0
 11
3.0954358118
 21
4.2794333773
 31
0
  0
LINE
  5
A0
100
AcDbEntity
  8
SEMA2D
100
AcDbLine
370
9
 62
7
  6
_SOLID
 10
3.0954358118
 20
4.2794333773
 30
0
 11
3.0954342055
 21
4.2794151039
 31
0
  0
LINE
  5
A1
100
AcDbEntity
  8
SEMA2D
100
AcDbLine
370
9
 62
7
  6
_SOLID
 10
3.0954342055
 20
4.2794151039
 30
0
 11
3.0953459192
 21
4.2784762734
 31
0
  0
LINE
  5
A2
100
AcDbEntity
  8
SEMA2D
100
AcDbLine
370
9
 62
7
  6
_SOLID
 10
3.0953459192
 20
4.2784762734
 30
0
 11
3.0952427776
 21
4.2775205461
 31
0
  0
LINE
  5
A3
100
AcDbEntity
  8
SEMA2D
100
AcDbLine
370
9
 62
7
  6
_SOLID
 10
3.0952427776
 20
4.2775205461
 30
0
 11
3.0951239823
 21
4.2765667162
 31
0
  0
LINE
  5
A4
100
AcDbEntity
  8
SEMA2D
100
AcDbLine
370
9
 62
9
  6
_SOLID
 10
3.0948654367
 20
4.2746336527
 30
0
 11
3.0946391392
 21
4.28085301
 31
0
  0
LINE
  5
A5
100
AcDbEntity
  8
SEMA2D
100
AcDbLine
370
9
 62
9
  6
_SOLID
 10
3.0946391392
 20
4.28085301
 30
0
 11
3.0944488749
 21
4.2870735915
 31
0
  0
LINE
  5
A6
100
AcDbEntity
  8
SEMA2D
100
AcDbLine
370
9
 62
9
  6
_SOLID
 10
3.0944488749
 20
4.2870735915
 30
0
 11
3.094434781
 21
4.2875870705
 31
0
  0
LINE
  5
A7
100
AcDbEntity
  8
SEMA2D
100
AcDbLine
370
9
 62
9
  6
_SOLID
 10
3.094434781
 20
4.2875870705
 30
0
 11
3.094294669
 21
4.2932951433
 31
0
  0
LINE
  5
A8
100
AcDbEntity
  8
SEMA2D
100
AcDbLine
370
9
 62
9
  6
_SOLID
 10
3.094294669
 20
4.2932951433
 30
0
 11
3.0942344527
 21
4.2962312431
 31
0
  0
LINE
  5
A9
100
AcDbEntity
  8
SEMA2D
100
AcDbLine
370
9
 62
9
  6
_SOLID
 10
3.0942344527
 20
4.2962312431
 30
0
 11
3.0941766148
 21
4.2995174913
 31
0
  0
LINE
  5
AA
100
AcDbEntity
  8
SEMA2D
100
AcDbLine
370
9
 62
9
  6
_SOLID
 10
3.0941766148
 20
4.2995174913
 30
0
 11
3.0940946353
 21
4.3057404323
 31
0
  0
LINE
  5
AB
100
AcDbEntity
  8
SEMA2D
100
AcDbLine
370
9
 62
9
  6
_SOLID
 10
3.0940946353
 20
4.3057404323
 30
0
 11
3.0940719748
 21
4.3082187101
 31
0
  0
LINE
  5
AC
100
AcDbEntity
  8
SEMA2D
100
AcDbLine
370
9
 62
9
  6
_SOLID
 10
3.0940719748
 20
4.3082187101
 30
0
 11
3.09404868
 21
4.3119637177
 31
0
  0
LINE
  5
AD
100
AcDbEntity
  8
SEMA2D
100
AcDbLine
370
9
 62
9
  6
_SOLID
 10
3.09404868
 20
4.3119637177
 30
0
 11
3.0940481871
 21
4.3120775402
 31
0
  0
LINE
  5
AE
100
AcDbEntity
  8
SEMA2D
100
AcDbLine
370
9
 62
9
  6
_SOLID
 10
3.0940481871
 20
4.3120775402
 30
0
 11
3.0940380994
 21
4.3162370204
 31
0
  0
LINE
  5
AF
100
AcDbEntity
  8
SEMA2D
100
AcDbLine
370
9
 62
9
  6
_SOLID
 10
3.0940380994
 20
4.3162370204
 30
0
 11
3.0940374738
 21
4.3181871567
 31
0
  0
LINE
  5
B0
100
AcDbEntity
  8
SEMA2D
100
AcDbLine
370
9
 62
9
  6
_SOLID
 10
3.0940374738
 20
4.3181871567
 30
0
 11
3.0940379725
 21
4.3204733963
 31
0
  0
LINE
  5
B1
100
AcDbEntity
  8
SEMA2D
100
AcDbLine
370
9
 62
9
  6
_SOLID
 10
3.0940379725
 20
4.3204733963
 30
0
 11
3.0940379948
 21
4.3244106092
 31
0
  0
LINE
  5
B2
100
AcDbEntity
  8
SEMA2D
100
AcDbLine
370
9
 62
9
  6
_SOLID
 10
3.0940379948
 20
4.3244106092
 30
0
 11
3.0940379725
 21
4.3247098565
 31
0
  0
LINE
  5
B3
100
AcDbEntity
  8
SEMA2D
100
AcDbLine
370
9
 62
9
  6
_SOLID
 10
3.0940379725
 20
4.3247098565
 30
0
 11
3.0940379103
 21
4.3306340613
 31
0
  0
LINE
  5
B4
100
AcDbEntity
  8
SEMA2D
100
AcDbLine
370
9
 62
9
  6
_SOLID
 10
3.0940379103
 20
4.3306340613
 30
0
 11
3.0940379725
 21
4.33318278
 31
0
  0
LINE
  5
B5
100
AcDbEntity
  8
SEMA2D
100
AcDbLine
370
9
 62
9
  6
_SOLID
 10
3.0940379725
 20
4.33318278
 30
0
 11
3.0940380014
 21
4.3368575131
 31
0
  0
LINE
  5
B6
100
AcDbEntity
  8
SEMA2D
100
AcDbLine
370
9
 62
9
  6
_SOLID
 10
3.0940380014
 20
4.3368575131
 30
0
 11
3.0940379642
 21
4.3430809652
 31
0
  0
LINE
  5
B7
100
AcDbEntity
  8
SEMA2D
100
AcDbLine
370
9
 62
9
  6
_SOLID
 10
3.0940379642
 20
4.3430809652
 30
0
 11
3.0940379535
 21
4.3493044177
 31
0
  0
LINE
  5
B8
100
AcDbEntity
  8
SEMA2D
100
AcDbLine
370
9
 62
9
  6
_SOLID
 10
3.0940379535
 20
4.3493044177
 30
0
 11
3.0940379765
 21
4.3617513237
 31
0
  0
LINE
  5
B9
100
AcDbEntity
  8
SEMA2D
100
AcDbLine
370
9
 62
9
  6
_SOLID
 10
3.0940379765
 20
4.3617513237
 30
0
 11
3.0940379725
 21
4.5111141863
 31
0
  0
LINE
  5
BA
100
AcDbEntity
  8
SEMA2D
100
AcDbLine
370
9
 62
7
  6
_SOLID
 10
3.0948654367
 20
4.2746336527
 30
0
 11
3.0947195175
 21
4.2734629112
 31
0
  0
LINE
  5
BB
100
AcDbEntity
  8
SEMA2D
100
AcDbLine
370
9
 62
7
  6
_SOLID
 10
3.0947195175
 20
4.2734629112
 30
0
 11
3.0945932896
 21
4.2722897718
 31
0
  0
LINE
  5
BC
100
AcDbEntity
  8
SEMA2D
100
AcDbLine
370
9
 62
7
  6
_SOLID
 10
3.0945932896
 20
4.2722897718
 30
0
 11
3.094484845
 21
4.2711147844
 31
0
  0
LINE
  5
BD
100
AcDbEntity
  8
SEMA2D
100
AcDbLine
370
9
 62
7
  6
_SOLID
 10
3.094484845
 20
4.2711147844
 30
0
 11
3.0944367699
 21
4.2705277185
 31
0
  0
LINE
  5
BE
100
AcDbEntity
  8
SEMA2D
100
AcDbLine
370
9
 62
7
  6
_SOLID
 10
3.0944367699
 20
4.2705277185
 30
0
 11
3.0943922827
 21
4.2699384919
 31
0
  0
LINE
  5
BF
100
AcDbEntity
  8
SEMA2D
100
AcDbLine
370
9
 62
7
  6
_SOLID
 10
3.0943922827
 20
4.2699384919
 30
0
 11
3.0943138589
 21
4.2687612621
 31
0
  0
LINE
  5
C0
100
AcDbEntity
  8
SEMA2D
100
AcDbLine
370
9
 62
7
  6
_SOLID
 10
3.0943138589
 20
4.2687612621
 30
0
 11
3.0942479867
 21
4.2675832895
 31
0
  0
LINE
  5
C1
100
AcDbEntity
  8
SEMA2D
100
AcDbLine
370
9
 62
7
  6
_SOLID
 10
3.0942479867
 20
4.2675832895
 30
0
 11
3.0941931923
 21
4.2664072682
 31
0
  0
LINE
  5
C2
100
AcDbEntity
  8
SEMA2D
100
AcDbLine
370
9
 62
7
  6
_SOLID
 10
3.0941931923
 20
4.2664072682
 30
0
 11
3.094193086
 21
4.2664047605
 31
0
  0
LINE
  5
C3
100
AcDbEntity
  8
SEMA2D
100
AcDbLine
370
9
 62
7
  6
_SOLID
 10
3.094193086
 20
4.2664047605
 30
0
 11
3.0941476585
 21
4.2652258438
 31
0
  0
LINE
  5
C4
100
AcDbEntity
  8
SEMA2D
100
AcDbLine
370
9
 62
7
  6
_SOLID
 10
3.0941476585
 20
4.2652258438
 30
0
 11
3.0941105308
 21
4.2640466364
 31
0
  0
LINE
  5
C5
100
AcDbEntity
  8
SEMA2D
100
AcDbLine
370
9
 62
7
  6
_SOLID
 10
3.0941105308
 20
4.2640466364
 30
0
 11
3.09408061
 21
4.2628672174
 31
0
  0
LINE
  5
C6
100
AcDbEntity
  8
SEMA2D
100
AcDbLine
370
9
 62
7
  6
_SOLID
 10
3.09408061
 20
4.2628672174
 30
0
 11
3.0940680556
 21
4.2622796759
 31
0
  0
LINE
  5
C7
100
AcDbEntity
  8
SEMA2D
100
AcDbLine
370
9
 62
7
  6
_SOLID
 10
3.0940680556
 20
4.2622796759
 30
0
 11
3.0940568119
 21
4.2616876649
 31
0
  0
LINE
  5
C8
100
AcDbEntity
  8
SEMA2D
100
AcDbLine
370
9
 62
7
  6
_SOLID
 10
3.0940568119
 20
4.2616876649
 30
0
 11
3.0940382425
 21
4.2605080297
 31
0
  0
LINE
  5
C9
100
AcDbEntity
  8
SEMA2D
100
AcDbLine
370
9
 62
7
  6
_SOLID
 10
3.0940382425
 20
4.2605080297
 30
0
 11
3.0940241972
 21
4.2593283355
 31
0
  0
LINE
  5
CA
100
AcDbEntity
  8
SEMA2D
100
AcDbLine
370
9
 62
7
  6
_SOLID
 10
3.0940241972
 20
4.2593283355
 30
0
 11
3.0940139798
 21
4.2581486051
 31
0
  0
LINE
  5
CB
100
AcDbEntity
  8
SEMA2D
100
AcDbLine
370
9
 62
7
  6
_SOLID
 10
3.0940139798
 20
4.2581486051
 30
0
 11
3.0940040188
 21
4.2562641168
 31
0
  0
LINE
  5
CC
100
AcDbEntity
  8
SEMA2D
100
AcDbLine
370
9
 62
7
  6
_SOLID
 10
3.0940040188
 20
4.2562641168
 30
0
 11
3.0940038707
 21
4.256222195
 31
0
  0
LINE
  5
CD
100
AcDbEntity
  8
SEMA2D
100
AcDbLine
370
9
 62
7
  6
_SOLID
 10
3.0940038707
 20
4.256222195
 30
0
 11
3.0940000001
 21
4.2540196261
 31
0
  0
LINE
  5
CE
100
AcDbEntity
  8
SEMA2D
100
AcDbLine
370
9
 62
7
  6
_SOLID
 10
3.46951655464577
 20
4.6912529450167
 30
0
 11
3.47379342431572
 21
4.69551723324472
 31
0
  0
LINE
  5
CF
100
AcDbEntity
  8
SEMA2D
100
AcDbLine
370
9
 62
7
  6
_SOLID
 10
3.47423423800575
 20
4.69595675017513
 30
0
 11
3.47590637357454
 21
4.69762396675452
 31
0
  0
LINE
  5
D0
100
AcDbEntity
  8
SEMA2D
100
AcDbLine
370
9
 62
7
  6
_SOLID
 10
3.46170977170942
 20
4.69126444469647
 30
0
 11
3.47447221032362
 21
4.7039893395245
 31
0
  0
LINE
  5
D1
100
AcDbEntity
  8
SEMA2D
100
AcDbLine
370
9
 62
7
  6
_SOLID
 10
3.45390298877307
 20
4.69127594437625
 30
0
 11
3.47020954072726
 21
4.7075345266815
 31
0
  0
LINE
  5
D2
100
AcDbEntity
  8
SEMA2D
100
AcDbLine
370
9
 62
7
  6
_SOLID
 10
3.44609620583672
 20
4.69128744405602
 30
0
 11
3.46288874803391
 21
4.70803058694696
 31
0
  0
LINE
  5
D3
100
AcDbEntity
  8
SEMA2D
100
AcDbLine
370
9
 62
7
  6
_SOLID
 10
3.43828942290037
 20
4.6912989437358
 30
0
 11
3.45556795534057
 21
4.70852664721242
 31
0
  0
LINE
  5
D4
100
AcDbEntity
  8
SEMA2D
100
AcDbLine
370
9
 62
7
  6
_SOLID
 10
3.43048263996402
 20
4.69131044341557
 30
0
 11
3.44824716264722
 21
4.70902270747788
 31
0
  0
LINE
  5
D5
100
AcDbEntity
  8
SEMA2D
100
AcDbLine
370
9
 62
7
  6
_SOLID
 10
3.42267585702767
 20
4.69132194309535
 30
0
 11
3.44017459507091
 21
4.70876920438721
 31
0
  0
LINE
  5
D6
100
AcDbEntity
  8
SEMA2D
100
AcDbLine
370
9
 62
7
  6
_SOLID
 10
3.41486907409132
 20
4.69133344277512
 30
0
 11
3.4299656608756
 21
4.70638561931435
 31
0
  0
LINE
  5
D7
100
AcDbEntity
  8
SEMA2D
100
AcDbLine
370
9
 62
7
  6
_SOLID
 10
3.40706229115498
 20
4.6913449424549
 30
0
 11
3.42402618865444
 21
4.70825893656523
 31
0
  0
LINE
  5
D8
100
AcDbEntity
  8
SEMA2D
100
AcDbLine
370
9
 62
7
  6
_SOLID
 10
3.39925550821863
 20
4.69135644213467
 30
0
 11
3.41718270498312
 21
4.7092309017333
 31
0
  0
LINE
  5
D9
100
AcDbEntity
  8
SEMA2D
100
AcDbLine
370
9
 62
7
  6
_SOLID
 10
3.39144872528228
 20
4.69136794181445
 30
0
 11
3.40701302738562
 21
4.70688645777551
 31
0
  0
LINE
  5
DA
100
AcDbEntity
  8
SEMA2D
100
AcDbLine
370
9
 62
7
  6
_SOLID
 10
3.40937592205749
 20
4.70924240142377
 30
0
 11
3.40937592206162
 21
4.70924240142788
 31
0
  0
LINE
  5
DB
100
AcDbEntity
  8
SEMA2D
100
AcDbLine
370
9
 62
7
  6
_SOLID
 10
3.38364194234593
 20
4.69137944149422
 30
0
 11
3.39887182967038
 21
4.706564526438
 31
0
  0
LINE
  5
DC
100
AcDbEntity
  8
SEMA2D
100
AcDbLine
370
9
 62
7
  6
_SOLID
 10
3.40156913913187
 20
4.70925390111423
 30
0
 11
3.40156913913453
 21
4.70925390111688
 31
0
  0
LINE
  5
DD
100
AcDbEntity
  8
SEMA2D
100
AcDbLine
370
9
 62
7
  6
_SOLID
 10
3.37583515940958
 20
4.691390941174
 30
0
 11
3.39219097621812
 21
4.70769864340918
 31
0
  0
LINE
  5
DE
100
AcDbEntity
  8
SEMA2D
100
AcDbLine
370
9
 62
7
  6
_SOLID
 10
3.39376235620624
 20
4.7092654008047
 30
0
 11
3.39376235620744
 21
4.70926540080589
 31
0
  0
LINE
  5
DF
100
AcDbEntity
  8
SEMA2D
100
AcDbLine
370
9
 62
7
  6
_SOLID
 10
3.36802837647323
 20
4.69140244085378
 30
0
 11
3.38595557328035
 21
4.7092769004949
 31
0
  0
LINE
  5
E0
100
AcDbEntity
  8
SEMA2D
100
AcDbLine
370
9
 62
7
  6
_SOLID
 10
3.36022159353688
 20
4.69141394053355
 30
0
 11
3.37673047854886
 21
4.70787426068519
 31
0
  0
LINE
  5
E1
100
AcDbEntity
  8
SEMA2D
100
AcDbLine
370
9
 62
7
  6
_SOLID
 10
3.37814879034994
 20
4.7092884001806
 30
0
 11
3.37814879035326
 21
4.70928840018391
 31
0
  0
LINE
  5
E2
100
AcDbEntity
  8
SEMA2D
100
AcDbLine
370
9
 62
7
  6
_SOLID
 10
3.35241481060053
 20
4.69142544021333
 30
0
 11
3.36754647544004
 21
4.70651259161724
 31
0
  0
LINE
  5
E3
100
AcDbEntity
  8
SEMA2D
100
AcDbLine
370
9
 62
7
  6
_SOLID
 10
3.37034200741303
 20
4.70929989985981
 30
0
 11
3.37034200742617
 21
4.70929989987291
 31
0
  0
LINE
  5
E4
100
AcDbEntity
  8
SEMA2D
100
AcDbLine
370
9
 62
7
  6
_SOLID
 10
3.34460802766418
 20
4.6914369398931
 30
0
 11
3.36032748743609
 21
4.70711015708909
 31
0
  0
LINE
  5
E5
100
AcDbEntity
  8
SEMA2D
100
AcDbLine
370
9
 62
7
  6
_SOLID
 10
3.36253522447612
 20
4.70931139953903
 30
0
 11
3.36253522449908
 21
4.70931139956192
 31
0
  0
LINE
  5
E6
100
AcDbEntity
  8
SEMA2D
100
AcDbLine
370
9
 62
7
  6
_SOLID
 10
3.33680124472784
 20
4.69144843957288
 30
0
 11
3.35425309455481
 21
4.70884895058146
 31
0
  0
LINE
  5
E7
100
AcDbEntity
  8
SEMA2D
100
AcDbLine
370
9
 62
7
  6
_SOLID
 10
3.35472844153921
 20
4.70932289921824
 30
0
 11
3.35472844157199
 21
4.70932289925093
 31
0
  0
LINE
  5
E8
100
AcDbEntity
  8
SEMA2D
100
AcDbLine
370
9
 62
7
  6
_SOLID
 10
3.32899446179149
 20
4.69145993925265
 30
0
 11
3.3469216586023
 21
4.70933439889746
 31
0
  0
LINE
  5
E9
100
AcDbEntity
  8
SEMA2D
100
AcDbLine
370
9
 62
7
  6
_SOLID
 10
3.32118767885514
 20
4.69147143893243
 30
0
 11
3.33681882516392
 21
4.70705660246061
 31
0
  0
LINE
  5
EA
100
AcDbEntity
  8
SEMA2D
100
AcDbLine
370
9
 62
7
  6
_SOLID
 10
3.33911487563763
 20
4.709345898549
 30
0
 11
3.33911487566539
 21
4.70934589857668
 31
0
  0
LINE
  5
EB
100
AcDbEntity
  8
SEMA2D
100
AcDbLine
370
9
 62
7
  6
_SOLID
 10
3.31338089591879
 20
4.6914829386122
 30
0
 11
3.32859306977634
 21
4.70665036219751
 31
0
  0
LINE
  5
EC
100
AcDbEntity
  8
SEMA2D
100
AcDbLine
370
9
 62
7
  6
_SOLID
 10
3.33130809271054
 20
4.70935739823801
 30
0
 11
3.33130809272848
 21
4.70935739825589
 31
0
  0
LINE
  5
ED
100
AcDbEntity
  8
SEMA2D
100
AcDbLine
370
9
 62
7
  6
_SOLID
 10
3.30557411298244
 20
4.69149443829198
 30
0
 11
3.32185372290153
 21
4.70772615781862
 31
0
  0
LINE
  5
EE
100
AcDbEntity
  8
SEMA2D
100
AcDbLine
370
9
 62
7
  6
_SOLID
 10
3.32350130978346
 20
4.70936889792702
 30
0
 11
3.32350130979157
 21
4.70936889793511
 31
0
  0
LINE
  5
EF
100
AcDbEntity
  8
SEMA2D
100
AcDbLine
370
9
 62
7
  6
_SOLID
 10
3.29776733004609
 20
4.69150593797175
 30
0
 11
3.31569452685637
 21
4.70938039761602
 31
0
  0
LINE
  5
F0
100
AcDbEntity
  8
SEMA2D
100
AcDbLine
370
9
 62
7
  6
_SOLID
 10
3.28996054710974
 20
4.69151743765153
 30
0
 11
3.30660036577196
 21
4.70810830628055
 31
0
  0
LINE
  5
F1
100
AcDbEntity
  8
SEMA2D
100
AcDbLine
370
9
 62
7
  6
_SOLID
 10
3.30788774392928
 20
4.70939189730503
 30
0
 11
3.30788774392974
 21
4.70939189730549
 31
0
  0
LINE
  5
F2
100
AcDbEntity
  8
SEMA2D
100
AcDbLine
370
9
 62
7
  6
_SOLID
 10
3.28215376417339
 20
4.6915289373313
 30
0
 11
3.29730504859528
 21
4.70663565060187
 31
0
  0
LINE
  5
F3
100
AcDbEntity
  8
SEMA2D
100
AcDbLine
370
9
 62
7
  6
_SOLID
 10
3.30008096100219
 20
4.70940339699404
 30
0
 11
3.30008096100411
 21
4.70940339699596
 31
0
  0
LINE
  5
F4
100
AcDbEntity
  8
SEMA2D
100
AcDbLine
370
9
 62
7
  6
_SOLID
 10
3.27434698123705
 20
4.69154043701108
 30
0
 11
3.29001752904197
 21
4.70716488612641
 31
0
  0
LINE
  5
F5
100
AcDbEntity
  8
SEMA2D
100
AcDbLine
370
9
 62
7
  6
_SOLID
 10
3.2922741780751
 20
4.70941489668305
 30
0
 11
3.29227417807848
 21
4.70941489668642
 31
0
  0
LINE
  5
F6
100
AcDbEntity
  8
SEMA2D
100
AcDbLine
370
9
 62
7
  6
_SOLID
 10
3.2665401983007
 20
4.69155193669086
 30
0
 11
3.28389101295736
 21
4.7088517097484
 31
0
  0
LINE
  5
F7
100
AcDbEntity
  8
SEMA2D
100
AcDbLine
370
9
 62
7
  6
_SOLID
 10
3.28446739514801
 20
4.70942639637205
 30
0
 11
3.28446739515286
 21
4.70942639637689
 31
0
  0
LINE
  5
F8
100
AcDbEntity
  8
SEMA2D
100
AcDbLine
370
9
 62
7
  6
_SOLID
 10
3.25873341536435
 20
4.69156343637063
 30
0
 11
3.27666061222723
 21
4.70943789606736
 31
0
  0
LINE
  5
F9
100
AcDbEntity
  8
SEMA2D
100
AcDbLine
370
9
 62
7
  6
_SOLID
 10
3.250926632428
 20
4.69157493605041
 30
0
 11
3.26602321920643
 21
4.70662711258381
 31
0
  0
LINE
  5
FA
100
AcDbEntity
  8
SEMA2D
100
AcDbLine
370
9
 62
7
  6
_SOLID
 10
3.24311984949165
 20
4.69158643573018
 30
0
 11
3.25992366937849
 21
4.70834082313473
 31
0
  0
LINE
  5
FB
100
AcDbEntity
  8
SEMA2D
100
AcDbLine
370
9
 62
7
  6
_SOLID
 10
3.2353130665553
 20
4.69159793540996
 30
0
 11
3.25324026335985
 21
4.70947239504852
 31
0
  0
LINE
  5
FC
100
AcDbEntity
  8
SEMA2D
100
AcDbLine
370
9
 62
7
  6
_SOLID
 10
3.22750628361895
 20
4.69160943508973
 30
0
 11
3.24497209122316
 21
4.70902386281539
 31
0
  0
LINE
  5
FD
100
AcDbEntity
  8
SEMA2D
100
AcDbLine
370
9
 62
7
  6
_SOLID
 10
3.22390798188645
 20
4.69581703571256
 30
0
 11
3.23661027333317
 21
4.70848196031047
 31
0
  0
LINE
  5
FE
100
AcDbEntity
  8
SEMA2D
100
AcDbLine
370
9
 62
7
  6
_SOLID
 10
3.22311918856978
 20
4.70282587990573
 30
0
 11
3.22824845544317
 21
4.70794005780556
 31
0
  0
POLYLINE
  5
FF
100
AcDbEntity
  8
SEMA2D
100
AcDb3dPolyline
370
9
 62
18
420
1048576
  6
_SOLID
 66
1
 10
0
 20
0
 30
0
 70
1
 40
0
 41
0
  0
VERTEX
  5
5E1
100
AcDbEntity
  8
SEMA2D
100
AcDbVertex
100
AcDb3dPolylineVertex
 62
18
420
1048576
 10
3.2268563269
 20
4.6916103925
 30
0
 70
0
  0
VERTEX
  5
5E2
100
AcDbEntity
  8
SEMA2D
100
AcDbVertex
100
AcDb3dPolylineVertex
 62
18
420
1048576
 10
3.4708324868
 20
4.6912510066
 30
0
 70
0
  0
VERTEX
  5
5E3
100
AcDbEntity
  8
SEMA2D
100
AcDbVertex
100
AcDb3dPolylineVertex
 62
18
420
1048576
 10
3.4713221885
 20
4.6912799699
 30
0
 70
0
  0
VERTEX
  5
5E4
100
AcDbEntity
  8
SEMA2D
100
AcDbVertex
100
AcDb3dPolylineVertex
 62
18
420
1048576
 10
3.4718223157
 20
4.691373967
 30
0
 70
0
  0
VERTEX
  5
5E5
100
AcDbEntity
  8
SEMA2D
100
AcDbVertex
100
AcDb3dPolylineVertex
 62
18
420
1048576
 10
3.4723048507
 20
4.6915370516
 30
0
 70
0
  0
VERTEX
  5
5E6
100
AcDbEntity
  8
SEMA2D
100
AcDbVertex
100
AcDb3dPolylineVertex
 62
18
420
1048576
 10
3.4727394171
 20
4.6917656751
 30
0
 70
0
  0
VERTEX
  5
5E7
100
AcDbEntity
  8
SEMA2D
100
AcDbVertex
100
AcDb3dPolylineVertex
 62
18
420
1048576
 10
3.4730989143
 20
4.6920482624
 30
0
 70
0
  0
VERTEX
  5
5E8
100
AcDbEntity
  8
SEMA2D
100
AcDbVertex
100
AcDb3dPolylineVertex
 62
18
420
1048576
 10
3.4733648602
 20
4.6923670429
 30
0
 70
0
  0
VERTEX
  5
5E9
100
AcDbEntity
  8
SEMA2D
100
AcDbVertex
100
AcDb3dPolylineVertex
 62
18
420
1048576
 10
3.4735303732
 20
4.6927015785
 30
0
 70
0
  0
VERTEX
  5
5EA
100
AcDbEntity
  8
SEMA2D
100
AcDbVertex
100
AcDb3dPolylineVertex
 62
18
420
1048576
 10
3.4735998592
 20
4.6930326151
 30
0
 70
0
  0
VERTEX
  5
5EB
100
AcDbEntity
  8
SEMA2D
100
AcDbVertex
100
AcDb3dPolylineVertex
 62
18
420
1048576
 10
3.4738277117
 20
4.695957349
 30
0
 70
0
  0
VERTEX
  5
5EC
100
AcDbEntity
  8
SEMA2D
100
AcDbVertex
100
AcDb3dPolylineVertex
 62
18
420
1048576
 10
3.4759049287
 20
4.6959542892
 30
0
 70
0
  0
VERTEX
  5
5ED
100
AcDbEntity
  8
SEMA2D
100
AcDbVertex
100
AcDb3dPolylineVertex
 62
18
420
1048576
 10
3.4759073746
 20
4.6987807383
 30
0
 70
0
  0
VERTEX
  5
5EE
100
AcDbEntity
  8
SEMA2D
100
AcDbVertex
100
AcDb3dPolylineVertex
 62
18
420
1048576
 10
3.4748687661
 20
4.6987822682
 30
0
 70
0
  0
VERTEX
  5
5EF
100
AcDbEntity
  8
SEMA2D
100
AcDbVertex
100
AcDb3dPolylineVertex
 62
18
420
1048576
 10
3.4742229298
 20
4.7072625776
 30
0
 70
0
  0
VERTEX
  5
5F0
100
AcDbEntity
  8
SEMA2D
100
AcDbVertex
100
AcDb3dPolylineVertex
 62
18
420
1048576
 10
3.4461315863
 20
4.7091660599
 30
0
 70
0
  0
VERTEX
  5
5F1
100
AcDbEntity
  8
SEMA2D
100
AcDbVertex
100
AcDb3dPolylineVertex
 62
18
420
1048576
 10
3.4454636693
 20
4.7091892429
 30
0
 70
0
  0
VERTEX
  5
5F2
100
AcDbEntity
  8
SEMA2D
100
AcDbVertex
100
AcDb3dPolylineVertex
 62
18
420
1048576
 10
3.4416422609
 20
4.7091948719
 30
0
 70
0
  0
VERTEX
  5
5F3
100
AcDbEntity
  8
SEMA2D
100
AcDbVertex
100
AcDb3dPolylineVertex
 62
18
420
1048576
 10
3.4319461353
 20
4.706382702
 30
0
 70
0
  0
VERTEX
  5
5F4
100
AcDbEntity
  8
SEMA2D
100
AcDbVertex
100
AcDb3dPolylineVertex
 62
18
420
1048576
 10
3.4250220783
 20
4.7063929014
 30
0
 70
0
  0
VERTEX
  5
5F5
100
AcDbEntity
  8
SEMA2D
100
AcDbVertex
100
AcDb3dPolylineVertex
 62
18
420
1048576
 10
3.4235124339
 20
4.7092215778
 30
0
 70
0
  0
VERTEX
  5
5F6
100
AcDbEntity
  8
SEMA2D
100
AcDbVertex
100
AcDb3dPolylineVertex
 62
18
420
1048576
 10
3.3876346166
 20
4.7092744272
 30
0
 70
0
  0
VERTEX
  5
5F7
100
AcDbEntity
  8
SEMA2D
100
AcDbVertex
100
AcDb3dPolylineVertex
 62
18
420
1048576
 10
3.39070638
 20
4.7080929143
 30
0
 70
0
  0
VERTEX
  5
5F8
100
AcDbEntity
  8
SEMA2D
100
AcDbVertex
100
AcDb3dPolylineVertex
 62
18
420
1048576
 10
3.3940997902
 20
4.7071917111
 30
0
 70
0
  0
VERTEX
  5
5F9
100
AcDbEntity
  8
SEMA2D
100
AcDbVertex
100
AcDb3dPolylineVertex
 62
18
420
1048576
 10
3.3977279471
 20
4.7066245817
 30
0
 70
0
  0
VERTEX
  5
5FA
100
AcDbEntity
  8
SEMA2D
100
AcDbVertex
100
AcDb3dPolylineVertex
 62
18
420
1048576
 10
3.4014802846
 20
4.7064275793
 30
0
 70
0
  0
VERTEX
  5
5FB
100
AcDbEntity
  8
SEMA2D
100
AcDbVertex
100
AcDb3dPolylineVertex
 62
18
420
1048576
 10
3.4052329535
 20
4.7066135265
 30
0
 70
0
  0
VERTEX
  5
5FC
100
AcDbEntity
  8
SEMA2D
100
AcDbVertex
100
AcDb3dPolylineVertex
 62
18
420
1048576
 10
3.4088620828
 20
4.7071699657
 30
0
 70
0
  0
VERTEX
  5
5FD
100
AcDbEntity
  8
SEMA2D
100
AcDbVertex
100
AcDb3dPolylineVertex
 62
18
420
1048576
 10
3.4122570439
 20
4.7080611694
 30
0
 70
0
  0
VERTEX
  5
5FE
100
AcDbEntity
  8
SEMA2D
100
AcDbVertex
100
AcDb3dPolylineVertex
 62
18
420
1048576
 10
3.4153308445
 20
4.7092336296
 30
0
 70
0
  0
VERTEX
  5
5FF
100
AcDbEntity
  8
SEMA2D
100
AcDbVertex
100
AcDb3dPolylineVertex
 62
18
420
1048576
 10
3.3530143318
 20
4.7093254242
 30
0
 70
0
  0
VERTEX
  5
600
100
AcDbEntity
  8
SEMA2D
100
AcDbVertex
100
AcDb3dPolylineVertex
 62
18
420
1048576
 10
3.3560860951
 20
4.7081439113
 30
0
 70
0
  0
VERTEX
  5
601
100
AcDbEntity
  8
SEMA2D
100
AcDbVertex
100
AcDb3dPolylineVertex
 62
18
420
1048576
 10
3.3594795053
 20
4.707242708
 30
0
 70
0
  0
VERTEX
  5
602
100
AcDbEntity
  8
SEMA2D
100
AcDbVertex
100
AcDb3dPolylineVertex
 62
18
420
1048576
 10
3.3631076623
 20
4.7066755787
 30
0
 70
0
  0
VERTEX
  5
603
100
AcDbEntity
  8
SEMA2D
100
AcDbVertex
100
AcDb3dPolylineVertex
 62
18
420
1048576
 10
3.3668599998
 20
4.7064785763
 30
0
 70
0
  0
VERTEX
  5
604
100
AcDbEntity
  8
SEMA2D
100
AcDbVertex
100
AcDb3dPolylineVertex
 62
18
420
1048576
 10
3.3706126687
 20
4.7066645235
 30
0
 70
0
  0
VERTEX
  5
605
100
AcDbEntity
  8
SEMA2D
100
AcDbVertex
100
AcDb3dPolylineVertex
 62
18
420
1048576
 10
3.3742417979
 20
4.7072209626
 30
0
 70
0
  0
VERTEX
  5
606
100
AcDbEntity
  8
SEMA2D
100
AcDbVertex
100
AcDb3dPolylineVertex
 62
18
420
1048576
 10
3.3776367591
 20
4.7081121664
 30
0
 70
0
  0
VERTEX
  5
607
100
AcDbEntity
  8
SEMA2D
100
AcDbVertex
100
AcDb3dPolylineVertex
 62
18
420
1048576
 10
3.3807105596
 20
4.7092846266
 30
0
 70
0
  0
VERTEX
  5
608
100
AcDbEntity
  8
SEMA2D
100
AcDbVertex
100
AcDb3dPolylineVertex
 62
18
420
1048576
 10
3.3170092355
 20
4.709378461
 30
0
 70
0
  0
VERTEX
  5
609
100
AcDbEntity
  8
SEMA2D
100
AcDbVertex
100
AcDb3dPolylineVertex
 62
18
420
1048576
 10
3.3200809989
 20
4.7081969481
 30
0
 70
0
  0
VERTEX
  5
60A
100
AcDbEntity
  8
SEMA2D
100
AcDbVertex
100
AcDb3dPolylineVertex
 62
18
420
1048576
 10
3.3234744091
 20
4.7072957449
 30
0
 70
0
  0
VERTEX
  5
60B
100
AcDbEntity
  8
SEMA2D
100
AcDbVertex
100
AcDb3dPolylineVertex
 62
18
420
1048576
 10
3.3271025661
 20
4.7067286155
 30
0
 70
0
  0
VERTEX
  5
60C
100
AcDbEntity
  8
SEMA2D
100
AcDbVertex
100
AcDb3dPolylineVertex
 62
18
420
1048576
 10
3.3308549036
 20
4.7065316131
 30
0
 70
0
  0
VERTEX
  5
60D
100
AcDbEntity
  8
SEMA2D
100
AcDbVertex
100
AcDb3dPolylineVertex
 62
18
420
1048576
 10
3.3346075725
 20
4.7067175604
 30
0
 70
0
  0
VERTEX
  5
60E
100
AcDbEntity
  8
SEMA2D
100
AcDbVertex
100
AcDb3dPolylineVertex
 62
18
420
1048576
 10
3.3382367017
 20
4.7072739995
 30
0
 70
0
  0
VERTEX
  5
60F
100
AcDbEntity
  8
SEMA2D
100
AcDbVertex
100
AcDb3dPolylineVertex
 62
18
420
1048576
 10
3.3416316628
 20
4.7081652032
 30
0
 70
0
  0
VERTEX
  5
610
100
AcDbEntity
  8
SEMA2D
100
AcDbVertex
100
AcDb3dPolylineVertex
 62
18
420
1048576
 10
3.3447054634
 20
4.7093376634
 30
0
 70
0
  0
VERTEX
  5
611
100
AcDbEntity
  8
SEMA2D
100
AcDbVertex
100
AcDb3dPolylineVertex
 62
18
420
1048576
 10
3.2823889507
 20
4.709429458
 30
0
 70
0
  0
VERTEX
  5
612
100
AcDbEntity
  8
SEMA2D
100
AcDbVertex
100
AcDb3dPolylineVertex
 62
18
420
1048576
 10
3.2854607141
 20
4.7082479451
 30
0
 70
0
  0
VERTEX
  5
613
100
AcDbEntity
  8
SEMA2D
100
AcDbVertex
100
AcDb3dPolylineVertex
 62
18
420
1048576
 10
3.2888541243
 20
4.7073467418
 30
0
 70
0
  0
VERTEX
  5
614
100
AcDbEntity
  8
SEMA2D
100
AcDbVertex
100
AcDb3dPolylineVertex
 62
18
420
1048576
 10
3.2924822812
 20
4.7067796125
 30
0
 70
0
  0
VERTEX
  5
615
100
AcDbEntity
  8
SEMA2D
100
AcDbVertex
100
AcDb3dPolylineVertex
 62
18
420
1048576
 10
3.2962346187
 20
4.7065826101
 30
0
 70
0
  0
VERTEX
  5
616
100
AcDbEntity
  8
SEMA2D
100
AcDbVertex
100
AcDb3dPolylineVertex
 62
18
420
1048576
 10
3.2999872876
 20
4.7067685573
 30
0
 70
0
  0
VERTEX
  5
617
100
AcDbEntity
  8
SEMA2D
100
AcDbVertex
100
AcDb3dPolylineVertex
 62
18
420
1048576
 10
3.3036164169
 20
4.7073249964
 30
0
 70
0
  0
VERTEX
  5
618
100
AcDbEntity
  8
SEMA2D
100
AcDbVertex
100
AcDb3dPolylineVertex
 62
18
420
1048576
 10
3.307011378
 20
4.7082162002
 30
0
 70
0
  0
VERTEX
  5
619
100
AcDbEntity
  8
SEMA2D
100
AcDbVertex
100
AcDb3dPolylineVertex
 62
18
420
1048576
 10
3.3100851786
 20
4.7093886604
 30
0
 70
0
  0
VERTEX
  5
61A
100
AcDbEntity
  8
SEMA2D
100
AcDbVertex
100
AcDb3dPolylineVertex
 62
18
420
1048576
 10
3.2742073613
 20
4.7094415098
 30
0
 70
0
  0
VERTEX
  5
61B
100
AcDbEntity
  8
SEMA2D
100
AcDbVertex
100
AcDb3dPolylineVertex
 62
18
420
1048576
 10
3.272692825
 20
4.706617288
 30
0
 70
0
  0
VERTEX
  5
61C
100
AcDbEntity
  8
SEMA2D
100
AcDbVertex
100
AcDb3dPolylineVertex
 62
18
420
1048576
 10
3.2657687681
 20
4.7066274874
 30
0
 70
0
  0
VERTEX
  5
61D
100
AcDbEntity
  8
SEMA2D
100
AcDbVertex
100
AcDb3dPolylineVertex
 62
18
420
1048576
 10
3.2560775342
 20
4.7094682157
 30
0
 70
0
  0
VERTEX
  5
61E
100
AcDbEntity
  8
SEMA2D
100
AcDbVertex
100
AcDb3dPolylineVertex
 62
18
420
1048576
 10
3.2522561258
 20
4.7094738447
 30
0
 70
0
  0
VERTEX
  5
61F
100
AcDbEntity
  8
SEMA2D
100
AcDbVertex
100
AcDb3dPolylineVertex
 62
18
420
1048576
 10
3.2515881702
 20
4.7094526296
 30
0
 70
0
  0
VERTEX
  5
620
100
AcDbEntity
  8
SEMA2D
100
AcDbVertex
100
AcDb3dPolylineVertex
 62
18
420
1048576
 10
3.2234936042
 20
4.7076319112
 30
0
 70
0
  0
VERTEX
  5
621
100
AcDbEntity
  8
SEMA2D
100
AcDbVertex
100
AcDb3dPolylineVertex
 62
18
420
1048576
 10
3.2228330925
 20
4.6991535261
 30
0
 70
0
  0
VERTEX
  5
622
100
AcDbEntity
  8
SEMA2D
100
AcDbVertex
100
AcDb3dPolylineVertex
 62
18
420
1048576
 10
3.2217944839
 20
4.699155056
 30
0
 70
0
  0
VERTEX
  5
623
100
AcDbEntity
  8
SEMA2D
100
AcDbVertex
100
AcDb3dPolylineVertex
 62
18
420
1048576
 10
3.221792038
 20
4.6963286069
 30
0
 70
0
  0
VERTEX
  5
624
100
AcDbEntity
  8
SEMA2D
100
AcDbVertex
100
AcDb3dPolylineVertex
 62
18
420
1048576
 10
3.2238692551
 20
4.6963255471
 30
0
 70
0
  0
VERTEX
  5
625
100
AcDbEntity
  8
SEMA2D
100
AcDbVertex
100
AcDb3dPolylineVertex
 62
18
420
1048576
 10
3.2240920451
 20
4.6934001494
 30
0
 70
0
  0
VERTEX
  5
626
100
AcDbEntity
  8
SEMA2D
100
AcDbVertex
100
AcDb3dPolylineVertex
 62
18
420
1048576
 10
3.2263666765
 20
4.6916407984
 30
0
 70
0
  0
VERTEX
  5
627
100
AcDbEntity
  8
SEMA2D
100
AcDbVertex
100
AcDb3dPolylineVertex
 62
18
420
1048576
 10
3.2258667134
 20
4.6917362687
 30
0
 70
0
  0
VERTEX
  5
628
100
AcDbEntity
  8
SEMA2D
100
AcDbVertex
100
AcDb3dPolylineVertex
 62
18
420
1048576
 10
3.2253844619
 20
4.6919007745
 30
0
 70
0
  0
VERTEX
  5
629
100
AcDbEntity
  8
SEMA2D
100
AcDbVertex
100
AcDb3dPolylineVertex
 62
18
420
1048576
 10
3.2249502923
 20
4.6921306777
 30
0
 70
0
  0
VERTEX
  5
62A
100
AcDbEntity
  8
SEMA2D
100
AcDbVertex
100
AcDb3dPolylineVertex
 62
18
420
1048576
 10
3.2245912851
 20
4.6924143234
 30
0
 70
0
  0
VERTEX
  5
62B
100
AcDbEntity
  8
SEMA2D
100
AcDbVertex
100
AcDb3dPolylineVertex
 62
18
420
1048576
 10
3.2243258916
 20
4.6927338865
 30
0
 70
0
  0
VERTEX
  5
62C
100
AcDbEntity
  8
SEMA2D
100
AcDbVertex
100
AcDb3dPolylineVertex
 62
18
420
1048576
 10
3.2241609581
 20
4.6930689089
 30
0
 70
0
  0
SEQEND
  5
62D
100
AcDbEntity
  8
0
  0
LINE
  5
14C
100
AcDbEntity
  8
SEMA2D
100
AcDbLine
370
9
 62
7
  6
_SOLID
 10
3.2238692551
 20
4.6963255471
 30
0
 11
3.2240920451
 21
4.6934001494
 31
0
  0
LINE
  5
14D
100
AcDbEntity
  8
SEMA2D
100
AcDbLine
370
9
 62
7
  6
_SOLID
 10
3.2217944839
 20
4.699155056
 30
0
 11
3.221792038
 21
4.6963286069
 31
0
  0
LINE
  5
14E
100
AcDbEntity
  8
SEMA2D
100
AcDbLine
370
9
 62
7
  6
_SOLID
 10
3.2234936042
 20
4.7076319112
 30
0
 11
3.2228330925
 21
4.6991535261
 31
0
  0
LINE
  5
14F
100
AcDbEntity
  8
SEMA2D
100
AcDbLine
370
9
 62
7
  6
_SOLID
 10
3.2234936042
 20
4.7076319112
 30
0
 11
3.2236403845
 21
4.7095159968
 31
0
  0
LINE
  5
150
100
AcDbEntity
  8
SEMA2D
100
AcDbLine
370
9
 62
7
  6
_SOLID
 10
3.272692825
 20
4.706617288
 30
0
 11
3.2742073613
 21
4.7094415098
 31
0
  0
LINE
  5
151
100
AcDbEntity
  8
SEMA2D
100
AcDbLine
370
9
 62
7
  6
_SOLID
 10
3.2657687681
 20
4.7066274874
 30
0
 11
3.2642591236
 21
4.7094561639
 31
0
  0
LINE
  5
152
100
AcDbEntity
  8
SEMA2D
100
AcDbLine
370
9
 62
7
  6
_SOLID
 10
3.2784665862
 20
4.6915343687
 30
0
 11
3.2823604152
 21
4.6764542185
 31
0
  0
LINE
  5
153
100
AcDbEntity
  8
SEMA2D
100
AcDbLine
370
9
 62
7
  6
_SOLID
 10
3.3183655115
 20
4.6764011817
 30
0
 11
3.3222854301
 21
4.6914698219
 31
0
  0
LINE
  5
154
100
AcDbEntity
  8
SEMA2D
100
AcDbLine
370
9
 62
7
  6
_SOLID
 10
3.2823604152
 20
4.6764542185
 30
0
 11
3.3183655115
 21
4.6764011817
 31
0
  0
LINE
  5
155
100
AcDbEntity
  8
SEMA2D
100
AcDbLine
370
9
 62
7
  6
_SOLID
 10
3.3792972128
 20
4.676311427
 30
0
 11
3.415302309
 21
4.6762583902
 31
0
  0
LINE
  5
156
100
AcDbEntity
  8
SEMA2D
100
AcDbLine
370
9
 62
7
  6
_SOLID
 10
3.2560775342
 20
4.7094682157
 30
0
 11
3.2657687681
 21
4.7066274874
 31
0
  0
LINE
  5
157
100
AcDbEntity
  8
SEMA2D
100
AcDbLine
370
9
 62
7
  6
_SOLID
 10
3.2268563269
 20
4.6916103925
 30
0
 11
3.4708324868
 21
4.6912510066
 31
0
  0
LINE
  5
158
100
AcDbEntity
  8
SEMA2D
100
AcDbLine
370
9
 62
7
  6
_SOLID
 10
3.221792038
 20
4.6963286069
 30
0
 11
3.2238692551
 21
4.6963255471
 31
0
  0
LINE
  5
159
100
AcDbEntity
  8
SEMA2D
100
AcDbLine
370
9
 62
7
  6
_SOLID
 10
3.4738277117
 20
4.695957349
 30
0
 11
3.4759049287
 21
4.6959542892
 31
0
  0
LINE
  5
15A
100
AcDbEntity
  8
SEMA2D
100
AcDbLine
370
9
 62
7
  6
_SOLID
 10
3.4759073746
 20
4.6987807383
 30
0
 11
3.4748687661
 21
4.6987822682
 31
0
  0
LINE
  5
15B
100
AcDbEntity
  8
SEMA2D
100
AcDbLine
370
9
 62
7
  6
_SOLID
 10
3.2228330925
 20
4.6991535261
 30
0
 11
3.2217944839
 21
4.699155056
 31
0
  0
LINE
  5
15C
100
AcDbEntity
  8
SEMA2D
100
AcDbLine
370
9
 62
7
  6
_SOLID
 10
3.4319461353
 20
4.706382702
 30
0
 11
3.4416422609
 21
4.7091948719
 31
0
  0
LINE
  5
15D
100
AcDbEntity
  8
SEMA2D
100
AcDbLine
370
9
 62
7
  6
_SOLID
 10
3.2657687681
 20
4.7066274874
 30
0
 11
3.272692825
 21
4.706617288
 31
0
  0
LINE
  5
15E
100
AcDbEntity
  8
SEMA2D
100
AcDbLine
370
9
 62
7
  6
_SOLID
 10
3.4250220783
 20
4.7063929014
 30
0
 11
3.4319461353
 21
4.706382702
 31
0
  0
LINE
  5
15F
100
AcDbEntity
  8
SEMA2D
100
AcDbLine
370
9
 62
7
  6
_SOLID
 10
3.2522561258
 20
4.7094738447
 30
0
 11
3.2560775342
 21
4.7094682157
 31
0
  0
LINE
  5
160
100
AcDbEntity
  8
SEMA2D
100
AcDbLine
370
9
 62
7
  6
_SOLID
 10
3.2236403845
 20
4.7095159968
 30
0
 11
3.2522595962
 21
4.7094738396
 31
0
  0
LINE
  5
161
100
AcDbEntity
  8
SEMA2D
100
AcDbLine
370
9
 62
7
  6
_SOLID
 10
3.2560775342
 20
4.7094682157
 30
0
 11
3.2642591236
 21
4.7094561639
 31
0
  0
LINE
  5
162
100
AcDbEntity
  8
SEMA2D
100
AcDbLine
370
9
 62
7
  6
_SOLID
 10
3.2642591236
 20
4.7094561639
 30
0
 11
3.2742073613
 21
4.7094415098
 31
0
  0
LINE
  5
163
100
AcDbEntity
  8
SEMA2D
100
AcDbLine
370
9
 62
7
  6
_SOLID
 10
3.2742073613
 20
4.7094415098
 30
0
 11
3.2823889507
 21
4.709429458
 31
0
  0
LINE
  5
164
100
AcDbEntity
  8
SEMA2D
100
AcDbLine
370
9
 62
7
  6
_SOLID
 10
3.2823889507
 20
4.709429458
 30
0
 11
3.3100851786
 21
4.7093886604
 31
0
  0
LINE
  5
165
100
AcDbEntity
  8
SEMA2D
100
AcDbLine
370
9
 62
7
  6
_SOLID
 10
3.3100851786
 20
4.7093886604
 30
0
 11
3.3170092355
 21
4.709378461
 31
0
  0
LINE
  5
166
100
AcDbEntity
  8
SEMA2D
100
AcDbLine
370
9
 62
7
  6
_SOLID
 10
3.3170092355
 20
4.709378461
 30
0
 11
3.3447054634
 21
4.7093376634
 31
0
  0
LINE
  5
167
100
AcDbEntity
  8
SEMA2D
100
AcDbLine
370
9
 62
7
  6
_SOLID
 10
3.3447054634
 20
4.7093376634
 30
0
 11
3.3530143318
 21
4.7093254242
 31
0
  0
LINE
  5
168
100
AcDbEntity
  8
SEMA2D
100
AcDbLine
370
9
 62
7
  6
_SOLID
 10
3.3530143318
 20
4.7093254242
 30
0
 11
3.3807105596
 21
4.7092846266
 31
0
  0
LINE
  5
169
100
AcDbEntity
  8
SEMA2D
100
AcDbLine
370
9
 62
7
  6
_SOLID
 10
3.3807105596
 20
4.7092846266
 30
0
 11
3.3876346166
 21
4.7092744272
 31
0
  0
LINE
  5
16A
100
AcDbEntity
  8
SEMA2D
100
AcDbLine
370
9
 62
7
  6
_SOLID
 10
3.3876346166
 20
4.7092744272
 30
0
 11
3.4153308445
 21
4.7092336296
 31
0
  0
LINE
  5
16B
100
AcDbEntity
  8
SEMA2D
100
AcDbLine
370
9
 62
7
  6
_SOLID
 10
3.4153308445
 20
4.7092336296
 30
0
 11
3.4235124339
 21
4.7092215778
 31
0
  0
LINE
  5
16C
100
AcDbEntity
  8
SEMA2D
100
AcDbLine
370
9
 62
7
  6
_SOLID
 10
3.4235124339
 20
4.7092215778
 30
0
 11
3.4334606715
 21
4.7092069237
 31
0
  0
LINE
  5
16D
100
AcDbEntity
  8
SEMA2D
100
AcDbLine
370
9
 62
7
  6
_SOLID
 10
3.4334606715
 20
4.7092069237
 30
0
 11
3.4416422609
 21
4.7091948719
 31
0
  0
LINE
  5
16E
100
AcDbEntity
  8
SEMA2D
100
AcDbLine
370
9
 62
7
  6
_SOLID
 10
3.4416422609
 20
4.7091948719
 30
0
 11
3.4454636693
 21
4.7091892429
 31
0
  0
LINE
  5
16F
100
AcDbEntity
  8
SEMA2D
100
AcDbLine
370
9
 62
7
  6
_SOLID
 10
3.4454601989
 20
4.709189248
 30
0
 11
3.4740794106
 21
4.7091470908
 31
0
  0
LINE
  5
170
100
AcDbEntity
  8
SEMA2D
100
AcDbLine
370
9
 62
7
  6
_SOLID
 10
3.3754033837
 20
4.6913915772
 30
0
 11
3.3792972128
 21
4.676311427
 31
0
  0
LINE
  5
171
100
AcDbEntity
  8
SEMA2D
100
AcDbLine
370
9
 62
7
  6
_SOLID
 10
3.2234936042
 20
4.7076319112
 30
0
 11
3.2515881702
 21
4.7094526296
 31
0
  0
LINE
  5
172
100
AcDbEntity
  8
SEMA2D
100
AcDbLine
370
9
 62
7
  6
_SOLID
 10
3.4461315863
 20
4.7091660599
 30
0
 11
3.4742229298
 21
4.7072625776
 31
0
  0
LINE
  5
173
100
AcDbEntity
  8
SEMA2D
100
AcDbLine
370
9
 62
7
  6
_SOLID
 10
3.415302309
 20
4.6762583902
 30
0
 11
3.4192222276
 21
4.6913270304
 31
0
  0
LINE
  5
174
100
AcDbEntity
  8
SEMA2D
100
AcDbLine
370
9
 62
7
  6
_SOLID
 10
3.4334606715
 20
4.7092069237
 30
0
 11
3.4319461353
 21
4.706382702
 31
0
  0
LINE
  5
175
100
AcDbEntity
  8
SEMA2D
100
AcDbLine
370
9
 62
7
  6
_SOLID
 10
3.4235124339
 20
4.7092215778
 30
0
 11
3.4250220783
 21
4.7063929014
 31
0
  0
LINE
  5
176
100
AcDbEntity
  8
SEMA2D
100
AcDbLine
370
9
 62
7
  6
_SOLID
 10
3.4742229298
 20
4.7072625776
 30
0
 11
3.4748687661
 21
4.6987822682
 31
0
  0
LINE
  5
177
100
AcDbEntity
  8
SEMA2D
100
AcDbLine
370
9
 62
7
  6
_SOLID
 10
3.4742229298
 20
4.7072625776
 30
0
 11
3.4740794106
 21
4.7091470908
 31
0
  0
LINE
  5
178
100
AcDbEntity
  8
SEMA2D
100
AcDbLine
370
9
 62
7
  6
_SOLID
 10
3.4759073746
 20
4.6987807383
 30
0
 11
3.4759049287
 21
4.6959542892
 31
0
  0
LINE
  5
179
100
AcDbEntity
  8
SEMA2D
100
AcDbLine
370
9
 62
7
  6
_SOLID
 10
3.4738277117
 20
4.695957349
 30
0
 11
3.4735998592
 21
4.6930326151
 31
0
  0
LINE
  5
17A
100
AcDbEntity
  8
SEMA2D
100
AcDbLine
370
9
 62
7
  6
_SOLID
 10
3.38763461655749
 20
4.70927442718087
 30
0
 11
3.38871615120747
 21
4.70881383247651
 31
0
  0
LINE
  5
17B
100
AcDbEntity
  8
SEMA2D
100
AcDbLine
370
9
 62
7
  6
_SOLID
 10
3.38871615120747
 20
4.70881383247651
 30
0
 11
3.38983051160927
 21
4.70839107390163
 31
0
  0
LINE
  5
17C
100
AcDbEntity
  8
SEMA2D
100
AcDbLine
370
9
 62
7
  6
_SOLID
 10
3.38983051160927
 20
4.70839107390163
 30
0
 11
3.39097483526378
 21
4.70800723741195
 31
0
  0
LINE
  5
17D
100
AcDbEntity
  8
SEMA2D
100
AcDbLine
370
9
 62
7
  6
_SOLID
 10
3.39097483526378
 20
4.70800723741195
 30
0
 11
3.39214618270413
 21
4.70766330898258
 31
0
  0
LINE
  5
17E
100
AcDbEntity
  8
SEMA2D
100
AcDbLine
370
9
 62
7
  6
_SOLID
 10
3.39214618270413
 20
4.70766330898258
 30
0
 11
3.39334154504649
 21
4.7073601720753
 31
0
  0
LINE
  5
17F
100
AcDbEntity
  8
SEMA2D
100
AcDbLine
370
9
 62
7
  6
_SOLID
 10
3.39334154504649
 20
4.7073601720753
 30
0
 11
3.39455785171901
 21
4.7070986053692
 31
0
  0
LINE
  5
180
100
AcDbEntity
  8
SEMA2D
100
AcDbLine
370
9
 62
7
  6
_SOLID
 10
3.39455785171901
 20
4.7070986053692
 30
0
 11
3.39579197834938
 21
4.70687928076041
 31
0
  0
LINE
  5
181
100
AcDbEntity
  8
SEMA2D
100
AcDbLine
370
9
 62
7
  6
_SOLID
 10
3.39579197834938
 20
4.70687928076041
 30
0
 11
3.39704075479051
 21
4.70670276163626
 31
0
  0
LINE
  5
182
100
AcDbEntity
  8
SEMA2D
100
AcDbLine
370
9
 62
7
  6
_SOLID
 10
3.39704075479051
 20
4.70670276163626
 30
0
 11
3.39830097326377
 21
4.70656950142799
 31
0
  0
LINE
  5
183
100
AcDbEntity
  8
SEMA2D
100
AcDbLine
370
9
 62
7
  6
_SOLID
 10
3.39830097326377
 20
4.70656950142799
 30
0
 11
3.39956939659897
 21
4.70647984244607
 31
0
  0
LINE
  5
184
100
AcDbEntity
  8
SEMA2D
100
AcDbLine
370
9
 62
7
  6
_SOLID
 10
3.39956939659897
 20
4.70647984244607
 30
0
 11
3.40084276654978
 21
4.70643401500088
 31
0
  0
LINE
  5
185
100
AcDbEntity
  8
SEMA2D
100
AcDbLine
370
9
 62
7
  6
_SOLID
 10
3.40084276654978
 20
4.70643401500088
 30
0
 11
3.40211781216333
 21
4.70643213681108
 31
0
  0
LINE
  5
186
100
AcDbEntity
  8
SEMA2D
100
AcDbLine
370
9
 62
7
  6
_SOLID
 10
3.40211781216333
 20
4.70643213681108
 30
0
 11
3.40339125818238
 21
4.70647421270124
 31
0
  0
LINE
  5
187
100
AcDbEntity
  8
SEMA2D
100
AcDbLine
370
9
 62
7
  6
_SOLID
 10
3.40339125818238
 20
4.70647421270124
 30
0
 11
3.40465983345867
 21
4.70656013458946
 31
0
  0
LINE
  5
188
100
AcDbEntity
  8
SEMA2D
100
AcDbLine
370
9
 62
7
  6
_SOLID
 10
3.40465983345867
 20
4.70656013458946
 30
0
 11
3.40592027935555
 21
4.70668968176498
 31
0
  0
LINE
  5
189
100
AcDbEntity
  8
SEMA2D
100
AcDbLine
370
9
 62
7
  6
_SOLID
 10
3.40592027935555
 20
4.70668968176498
 30
0
 11
3.40716935811866
 21
4.70686252145513
 31
0
  0
LINE
  5
18A
100
AcDbEntity
  8
SEMA2D
100
AcDbLine
370
9
 62
7
  6
_SOLID
 10
3.40716935811866
 20
4.70686252145513
 30
0
 11
3.40840386119278
 21
4.70707820968017
 31
0
  0
LINE
  5
18B
100
AcDbEntity
  8
SEMA2D
100
AcDbLine
370
9
 62
7
  6
_SOLID
 10
3.40840386119278
 20
4.70707820968017
 30
0
 11
3.40962061746383
 21
4.7073361923937
 31
0
  0
LINE
  5
18C
100
AcDbEntity
  8
SEMA2D
100
AcDbLine
370
9
 62
7
  6
_SOLID
 10
3.40962061746383
 20
4.7073361923937
 30
0
 11
3.41081650140459
 21
4.7076358069059
 31
0
  0
LINE
  5
18D
100
AcDbEntity
  8
SEMA2D
100
AcDbLine
370
9
 62
7
  6
_SOLID
 10
3.41081650140459
 20
4.7076358069059
 30
0
 11
3.4119884411034
 21
4.7079762835858
 31
0
  0
LINE
  5
18E
100
AcDbEntity
  8
SEMA2D
100
AcDbLine
370
9
 62
7
  6
_SOLID
 10
3.4119884411034
 20
4.7079762835858
 30
0
 11
3.41313342615502
 21
4.70835674783827
 31
0
  0
LINE
  5
18F
100
AcDbEntity
  8
SEMA2D
100
AcDbLine
370
9
 62
7
  6
_SOLID
 10
3.41313342615502
 20
4.70835674783827
 30
0
 11
3.41424851539366
 21
4.70877622235057
 31
0
  0
LINE
  5
190
100
AcDbEntity
  8
SEMA2D
100
AcDbLine
370
9
 62
7
  6
_SOLID
 10
3.41424851539366
 20
4.70877622235057
 30
0
 11
3.41533084444801
 21
4.70923362960289
 31
0
  0
LINE
  5
191
100
AcDbEntity
  8
SEMA2D
100
AcDbLine
370
9
 62
7
  6
_SOLID
 10
3.35301433175749
 20
4.70932542418087
 30
0
 11
3.35409586640747
 21
4.70886482947651
 31
0
  0
LINE
  5
192
100
AcDbEntity
  8
SEMA2D
100
AcDbLine
370
9
 62
7
  6
_SOLID
 10
3.35409586640747
 20
4.70886482947651
 30
0
 11
3.35521022680927
 21
4.70844207090163
 31
0
  0
LINE
  5
193
100
AcDbEntity
  8
SEMA2D
100
AcDbLine
370
9
 62
7
  6
_SOLID
 10
3.35521022680927
 20
4.70844207090163
 30
0
 11
3.35635455046378
 21
4.70805823441195
 31
0
  0
LINE
  5
194
100
AcDbEntity
  8
SEMA2D
100
AcDbLine
370
9
 62
7
  6
_SOLID
 10
3.35635455046378
 20
4.70805823441195
 30
0
 11
3.35752589790413
 21
4.70771430598258
 31
0
  0
LINE
  5
195
100
AcDbEntity
  8
SEMA2D
100
AcDbLine
370
9
 62
7
  6
_SOLID
 10
3.35752589790413
 20
4.70771430598258
 30
0
 11
3.35872126024649
 21
4.7074111690753
 31
0
  0
LINE
  5
196
100
AcDbEntity
  8
SEMA2D
100
AcDbLine
370
9
 62
7
  6
_SOLID
 10
3.35872126024649
 20
4.7074111690753
 30
0
 11
3.35993756691901
 21
4.70714960236919
 31
0
  0
LINE
  5
197
100
AcDbEntity
  8
SEMA2D
100
AcDbLine
370
9
 62
7
  6
_SOLID
 10
3.35993756691901
 20
4.70714960236919
 30
0
 11
3.36117169354938
 21
4.70693027776041
 31
0
  0
LINE
  5
198
100
AcDbEntity
  8
SEMA2D
100
AcDbLine
370
9
 62
7
  6
_SOLID
 10
3.36117169354938
 20
4.70693027776041
 30
0
 11
3.36242046999051
 21
4.70675375863626
 31
0
  0
LINE
  5
199
100
AcDbEntity
  8
SEMA2D
100
AcDbLine
370
9
 62
7
  6
_SOLID
 10
3.36242046999051
 20
4.70675375863626
 30
0
 11
3.36368068846377
 21
4.70662049842799
 31
0
  0
LINE
  5
19A
100
AcDbEntity
  8
SEMA2D
100
AcDbLine
370
9
 62
7
  6
_SOLID
 10
3.36368068846377
 20
4.70662049842799
 30
0
 11
3.36494911179897
 21
4.70653083944607
 31
0
  0
LINE
  5
19B
100
AcDbEntity
  8
SEMA2D
100
AcDbLine
370
9
 62
7
  6
_SOLID
 10
3.36494911179897
 20
4.70653083944607
 30
0
 11
3.36622248174978
 21
4.70648501200088
 31
0
  0
LINE
  5
19C
100
AcDbEntity
  8
SEMA2D
100
AcDbLine
370
9
 62
7
  6
_SOLID
 10
3.36622248174978
 20
4.70648501200088
 30
0
 11
3.36749752736333
 21
4.70648313381108
 31
0
  0
LINE
  5
19D
100
AcDbEntity
  8
SEMA2D
100
AcDbLine
370
9
 62
7
  6
_SOLID
 10
3.36749752736333
 20
4.70648313381108
 30
0
 11
3.36877097338238
 21
4.70652520970124
 31
0
  0
LINE
  5
19E
100
AcDbEntity
  8
SEMA2D
100
AcDbLine
370
9
 62
7
  6
_SOLID
 10
3.36877097338238
 20
4.70652520970124
 30
0
 11
3.37003954865867
 21
4.70661113158946
 31
0
  0
LINE
  5
19F
100
AcDbEntity
  8
SEMA2D
100
AcDbLine
370
9
 62
7
  6
_SOLID
 10
3.37003954865867
 20
4.70661113158946
 30
0
 11
3.37129999455555
 21
4.70674067876497
 31
0
  0
LINE
  5
1A0
100
AcDbEntity
  8
SEMA2D
100
AcDbLine
370
9
 62
7
  6
_SOLID
 10
3.37129999455555
 20
4.70674067876497
 30
0
 11
3.37254907331866
 21
4.70691351845513
 31
0
  0
LINE
  5
1A1
100
AcDbEntity
  8
SEMA2D
100
AcDbLine
370
9
 62
7
  6
_SOLID
 10
3.37254907331866
 20
4.70691351845513
 30
0
 11
3.37378357639278
 21
4.70712920668017
 31
0
  0
LINE
  5
1A2
100
AcDbEntity
  8
SEMA2D
100
AcDbLine
370
9
 62
7
  6
_SOLID
 10
3.37378357639278
 20
4.70712920668017
 30
0
 11
3.37500033266383
 21
4.7073871893937
 31
0
  0
LINE
  5
1A3
100
AcDbEntity
  8
SEMA2D
100
AcDbLine
370
9
 62
7
  6
_SOLID
 10
3.37500033266383
 20
4.7073871893937
 30
0
 11
3.37619621660459
 21
4.7076868039059
 31
0
  0
LINE
  5
1A4
100
AcDbEntity
  8
SEMA2D
100
AcDbLine
370
9
 62
7
  6
_SOLID
 10
3.37619621660459
 20
4.7076868039059
 30
0
 11
3.3773681563034
 21
4.7080272805858
 31
0
  0
LINE
  5
1A5
100
AcDbEntity
  8
SEMA2D
100
AcDbLine
370
9
 62
7
  6
_SOLID
 10
3.3773681563034
 20
4.7080272805858
 30
0
 11
3.37851314135502
 21
4.70840774483827
 31
0
  0
LINE
  5
1A6
100
AcDbEntity
  8
SEMA2D
100
AcDbLine
370
9
 62
7
  6
_SOLID
 10
3.37851314135502
 20
4.70840774483827
 30
0
 11
3.37962823059366
 21
4.70882721935057
 31
0
  0
LINE
  5
1A7
100
AcDbEntity
  8
SEMA2D
100
AcDbLine
370
9
 62
7
  6
_SOLID
 10
3.37962823059366
 20
4.70882721935057
 30
0
 11
3.38071055964801
 21
4.70928462660289
 31
0
  0
LINE
  5
1A8
100
AcDbEntity
  8
SEMA2D
100
AcDbLine
370
9
 62
7
  6
_SOLID
 10
3.31700923545749
 20
4.70937846108087
 30
0
 11
3.31809077010747
 21
4.70891786637651
 31
0
  0
LINE
  5
1A9
100
AcDbEntity
  8
SEMA2D
100
AcDbLine
370
9
 62
7
  6
_SOLID
 10
3.31809077010747
 20
4.70891786637651
 30
0
 11
3.31920513050927
 21
4.70849510780163
 31
0
  0
LINE
  5
1AA
100
AcDbEntity
  8
SEMA2D
100
AcDbLine
370
9
 62
7
  6
_SOLID
 10
3.31920513050927
 20
4.70849510780163
 30
0
 11
3.32034945416378
 21
4.70811127131195
 31
0
  0
LINE
  5
1AB
100
AcDbEntity
  8
SEMA2D
100
AcDbLine
370
9
 62
7
  6
_SOLID
 10
3.32034945416378
 20
4.70811127131195
 30
0
 11
3.32152080160413
 21
4.70776734288258
 31
0
  0
LINE
  5
1AC
100
AcDbEntity
  8
SEMA2D
100
AcDbLine
370
9
 62
7
  6
_SOLID
 10
3.32152080160413
 20
4.70776734288258
 30
0
 11
3.32271616394649
 21
4.7074642059753
 31
0
  0
LINE
  5
1AD
100
AcDbEntity
  8
SEMA2D
100
AcDbLine
370
9
 62
7
  6
_SOLID
 10
3.32271616394649
 20
4.7074642059753
 30
0
 11
3.32393247061901
 21
4.70720263926919
 31
0
  0
LINE
  5
1AE
100
AcDbEntity
  8
SEMA2D
100
AcDbLine
370
9
 62
7
  6
_SOLID
 10
3.32393247061901
 20
4.70720263926919
 30
0
 11
3.32516659724938
 21
4.70698331466041
 31
0
  0
LINE
  5
1AF
100
AcDbEntity
  8
SEMA2D
100
AcDbLine
370
9
 62
7
  6
_SOLID
 10
3.32516659724938
 20
4.70698331466041
 30
0
 11
3.32641537369051
 21
4.70680679553626
 31
0
  0
LINE
  5
1B0
100
AcDbEntity
  8
SEMA2D
100
AcDbLine
370
9
 62
7
  6
_SOLID
 10
3.32641537369051
 20
4.70680679553626
 30
0
 11
3.32767559216377
 21
4.70667353532799
 31
0
  0
LINE
  5
1B1
100
AcDbEntity
  8
SEMA2D
100
AcDbLine
370
9
 62
7
  6
_SOLID
 10
3.32767559216377
 20
4.70667353532799
 30
0
 11
3.32894401549897
 21
4.70658387634607
 31
0
  0
LINE
  5
1B2
100
AcDbEntity
  8
SEMA2D
100
AcDbLine
370
9
 62
7
  6
_SOLID
 10
3.32894401549897
 20
4.70658387634607
 30
0
 11
3.33021738544978
 21
4.70653804890088
 31
0
  0
LINE
  5
1B3
100
AcDbEntity
  8
SEMA2D
100
AcDbLine
370
9
 62
7
  6
_SOLID
 10
3.33021738544978
 20
4.70653804890088
 30
0
 11
3.33149243106333
 21
4.70653617071108
 31
0
  0
LINE
  5
1B4
100
AcDbEntity
  8
SEMA2D
100
AcDbLine
370
9
 62
7
  6
_SOLID
 10
3.33149243106333
 20
4.70653617071108
 30
0
 11
3.33276587708238
 21
4.70657824660124
 31
0
  0
LINE
  5
1B5
100
AcDbEntity
  8
SEMA2D
100
AcDbLine
370
9
 62
7
  6
_SOLID
 10
3.33276587708238
 20
4.70657824660124
 30
0
 11
3.33403445235867
 21
4.70666416848946
 31
0
  0
LINE
  5
1B6
100
AcDbEntity
  8
SEMA2D
100
AcDbLine
370
9
 62
7
  6
_SOLID
 10
3.33403445235867
 20
4.70666416848946
 30
0
 11
3.33529489825555
 21
4.70679371566497
 31
0
  0
LINE
  5
1B7
100
AcDbEntity
  8
SEMA2D
100
AcDbLine
370
9
 62
7
  6
_SOLID
 10
3.33529489825555
 20
4.70679371566497
 30
0
 11
3.33654397701866
 21
4.70696655535513
 31
0
  0
LINE
  5
1B8
100
AcDbEntity
  8
SEMA2D
100
AcDbLine
370
9
 62
7
  6
_SOLID
 10
3.33654397701866
 20
4.70696655535513
 30
0
 11
3.33777848009278
 21
4.70718224358017
 31
0
  0
LINE
  5
1B9
100
AcDbEntity
  8
SEMA2D
100
AcDbLine
370
9
 62
7
  6
_SOLID
 10
3.33777848009278
 20
4.70718224358017
 30
0
 11
3.33899523636383
 21
4.7074402262937
 31
0
  0
LINE
  5
1BA
100
AcDbEntity
  8
SEMA2D
100
AcDbLine
370
9
 62
7
  6
_SOLID
 10
3.33899523636383
 20
4.7074402262937
 30
0
 11
3.34019112030459
 21
4.7077398408059
 31
0
  0
LINE
  5
1BB
100
AcDbEntity
  8
SEMA2D
100
AcDbLine
370
9
 62
7
  6
_SOLID
 10
3.34019112030459
 20
4.7077398408059
 30
0
 11
3.3413630600034
 21
4.7080803174858
 31
0
  0
LINE
  5
1BC
100
AcDbEntity
  8
SEMA2D
100
AcDbLine
370
9
 62
7
  6
_SOLID
 10
3.3413630600034
 20
4.7080803174858
 30
0
 11
3.34250804505502
 21
4.70846078173827
 31
0
  0
LINE
  5
1BD
100
AcDbEntity
  8
SEMA2D
100
AcDbLine
370
9
 62
7
  6
_SOLID
 10
3.34250804505502
 20
4.70846078173827
 30
0
 11
3.34362313429367
 21
4.70888025625057
 31
0
  0
LINE
  5
1BE
100
AcDbEntity
  8
SEMA2D
100
AcDbLine
370
9
 62
7
  6
_SOLID
 10
3.34362313429367
 20
4.70888025625057
 30
0
 11
3.34470546334801
 21
4.70933766350289
 31
0
  0
LINE
  5
1BF
100
AcDbEntity
  8
SEMA2D
100
AcDbLine
370
9
 62
7
  6
_SOLID
 10
3.28238895065749
 20
4.70942945798087
 30
0
 11
3.28347048530747
 21
4.70896886327651
 31
0
  0
LINE
  5
1C0
100
AcDbEntity
  8
SEMA2D
100
AcDbLine
370
9
 62
7
  6
_SOLID
 10
3.28347048530747
 20
4.70896886327651
 30
0
 11
3.28458484570927
 21
4.70854610470163
 31
0
  0
LINE
  5
1C1
100
AcDbEntity
  8
SEMA2D
100
AcDbLine
370
9
 62
7
  6
_SOLID
 10
3.28458484570927
 20
4.70854610470163
 30
0
 11
3.28572916936378
 21
4.70816226821195
 31
0
  0
LINE
  5
1C2
100
AcDbEntity
  8
SEMA2D
100
AcDbLine
370
9
 62
7
  6
_SOLID
 10
3.28572916936378
 20
4.70816226821195
 30
0
 11
3.28690051680413
 21
4.70781833978258
 31
0
  0
LINE
  5
1C3
100
AcDbEntity
  8
SEMA2D
100
AcDbLine
370
9
 62
7
  6
_SOLID
 10
3.28690051680413
 20
4.70781833978258
 30
0
 11
3.28809587914649
 21
4.7075152028753
 31
0
  0
LINE
  5
1C4
100
AcDbEntity
  8
SEMA2D
100
AcDbLine
370
9
 62
7
  6
_SOLID
 10
3.28809587914649
 20
4.7075152028753
 30
0
 11
3.28931218581901
 21
4.7072536361692
 31
0
  0
LINE
  5
1C5
100
AcDbEntity
  8
SEMA2D
100
AcDbLine
370
9
 62
7
  6
_SOLID
 10
3.28931218581901
 20
4.7072536361692
 30
0
 11
3.29054631244938
 21
4.70703431156041
 31
0
  0
LINE
  5
1C6
100
AcDbEntity
  8
SEMA2D
100
AcDbLine
370
9
 62
7
  6
_SOLID
 10
3.29054631244938
 20
4.70703431156041
 30
0
 11
3.29179508889051
 21
4.70685779243626
 31
0
  0
LINE
  5
1C7
100
AcDbEntity
  8
SEMA2D
100
AcDbLine
370
9
 62
7
  6
_SOLID
 10
3.29179508889051
 20
4.70685779243626
 30
0
 11
3.29305530736377
 21
4.70672453222799
 31
0
  0
LINE
  5
1C8
100
AcDbEntity
  8
SEMA2D
100
AcDbLine
370
9
 62
7
  6
_SOLID
 10
3.29305530736377
 20
4.70672453222799
 30
0
 11
3.29432373069897
 21
4.70663487324607
 31
0
  0
LINE
  5
1C9
100
AcDbEntity
  8
SEMA2D
100
AcDbLine
370
9
 62
7
  6
_SOLID
 10
3.29432373069897
 20
4.70663487324607
 30
0
 11
3.29559710064978
 21
4.70658904580088
 31
0
  0
LINE
  5
1CA
100
AcDbEntity
  8
SEMA2D
100
AcDbLine
370
9
 62
7
  6
_SOLID
 10
3.29559710064978
 20
4.70658904580088
 30
0
 11
3.29687214626333
 21
4.70658716761108
 31
0
  0
LINE
  5
1CB
100
AcDbEntity
  8
SEMA2D
100
AcDbLine
370
9
 62
7
  6
_SOLID
 10
3.29687214626333
 20
4.70658716761108
 30
0
 11
3.29814559228238
 21
4.70662924350124
 31
0
  0
LINE
  5
1CC
100
AcDbEntity
  8
SEMA2D
100
AcDbLine
370
9
 62
7
  6
_SOLID
 10
3.29814559228238
 20
4.70662924350124
 30
0
 11
3.29941416755867
 21
4.70671516538946
 31
0
  0
LINE
  5
1CD
100
AcDbEntity
  8
SEMA2D
100
AcDbLine
370
9
 62
7
  6
_SOLID
 10
3.29941416755867
 20
4.70671516538946
 30
0
 11
3.30067461345555
 21
4.70684471256498
 31
0
  0
LINE
  5
1CE
100
AcDbEntity
  8
SEMA2D
100
AcDbLine
370
9
 62
7
  6
_SOLID
 10
3.30067461345555
 20
4.70684471256498
 30
0
 11
3.30192369221866
 21
4.70701755225513
 31
0
  0
LINE
  5
1CF
100
AcDbEntity
  8
SEMA2D
100
AcDbLine
370
9
 62
7
  6
_SOLID
 10
3.30192369221866
 20
4.70701755225513
 30
0
 11
3.30315819529278
 21
4.70723324048017
 31
0
  0
LINE
  5
1D0
100
AcDbEntity
  8
SEMA2D
100
AcDbLine
370
9
 62
7
  6
_SOLID
 10
3.30315819529278
 20
4.70723324048017
 30
0
 11
3.30437495156383
 21
4.7074912231937
 31
0
  0
LINE
  5
1D1
100
AcDbEntity
  8
SEMA2D
100
AcDbLine
370
9
 62
7
  6
_SOLID
 10
3.30437495156383
 20
4.7074912231937
 30
0
 11
3.30557083550459
 21
4.7077908377059
 31
0
  0
LINE
  5
1D2
100
AcDbEntity
  8
SEMA2D
100
AcDbLine
370
9
 62
7
  6
_SOLID
 10
3.30557083550459
 20
4.7077908377059
 30
0
 11
3.3067427752034
 21
4.7081313143858
 31
0
  0
LINE
  5
1D3
100
AcDbEntity
  8
SEMA2D
100
AcDbLine
370
9
 62
7
  6
_SOLID
 10
3.3067427752034
 20
4.7081313143858
 30
0
 11
3.30788776025502
 21
4.70851177863827
 31
0
  0
LINE
  5
1D4
100
AcDbEntity
  8
SEMA2D
100
AcDbLine
370
9
 62
7
  6
_SOLID
 10
3.30788776025502
 20
4.70851177863827
 30
0
 11
3.30900284949367
 21
4.70893125315057
 31
0
  0
LINE
  5
1D5
100
AcDbEntity
  8
SEMA2D
100
AcDbLine
370
9
 62
7
  6
_SOLID
 10
3.30900284949367
 20
4.70893125315057
 30
0
 11
3.31008517854801
 21
4.70938866040289
 31
0
  0
LINE
  5
1D6
100
AcDbEntity
  8
SEMA2D
100
AcDbLine
370
9
 62
7
  6
_SOLID
 10
3.44613158645896
 20
4.70916605996459
 30
0
 11
3.44579832461749
 21
4.7091830714458
 31
0
  0
LINE
  5
1D7
100
AcDbEntity
  8
SEMA2D
100
AcDbLine
370
9
 62
7
  6
_SOLID
 10
3.44579832461749
 20
4.7091830714458
 30
0
 11
3.445464268
 21
4.7091890747
 31
0
  0
LINE
  5
1D8
100
AcDbEntity
  8
SEMA2D
100
AcDbLine
370
9
 62
7
  6
_SOLID
 10
3.2522555269
 20
4.7094736783
 30
0
 11
3.25192146074419
 21
4.70946865921588
 31
0
  0
LINE
  5
1D9
100
AcDbEntity
  8
SEMA2D
100
AcDbLine
370
9
 62
7
  6
_SOLID
 10
3.25192146074419
 20
4.70946865921588
 30
0
 11
3.25158817031019
 21
4.70945262959136
 31
0
  0
LINE
  5
1DA
100
AcDbEntity
  8
SEMA2D
100
AcDbLine
370
9
 62
7
  6
_SOLID
 10
3.4708324868
 20
4.6912510066
 30
0
 11
3.47097261224858
 21
4.69125321330541
 31
0
  0
LINE
  5
1DB
100
AcDbEntity
  8
SEMA2D
100
AcDbLine
370
9
 62
7
  6
_SOLID
 10
3.47097261224858
 20
4.69125321330541
 30
0
 11
3.47111238297229
 21
4.6912602405878
 31
0
  0
LINE
  5
1DC
100
AcDbEntity
  8
SEMA2D
100
AcDbLine
370
9
 62
7
  6
_SOLID
 10
3.47111238297229
 20
4.6912602405878
 30
0
 11
3.47125144097838
 21
4.69127207044829
 31
0
  0
LINE
  5
1DD
100
AcDbEntity
  8
SEMA2D
100
AcDbLine
370
9
 62
7
  6
_SOLID
 10
3.47125144097838
 20
4.69127207044829
 30
0
 11
3.4713894300996
 21
4.69128867258722
 31
0
  0
LINE
  5
1DE
100
AcDbEntity
  8
SEMA2D
100
AcDbLine
370
9
 62
7
  6
_SOLID
 10
3.4713894300996
 20
4.69128867258722
 30
0
 11
3.47152599690637
 21
4.69131000448179
 31
0
  0
LINE
  5
1DF
100
AcDbEntity
  8
SEMA2D
100
AcDbLine
370
9
 62
7
  6
_SOLID
 10
3.47152599690637
 20
4.69131000448179
 30
0
 11
3.47166079161211
 21
4.6913360114949
 31
0
  0
LINE
  5
1E0
100
AcDbEntity
  8
SEMA2D
100
AcDbLine
370
9
 62
7
  6
_SOLID
 10
3.47166079161211
 20
4.6913360114949
 30
0
 11
3.47179346896906
 21
4.69136662701518
 31
0
  0
LINE
  5
1E1
100
AcDbEntity
  8
SEMA2D
100
AcDbLine
370
9
 62
7
  6
_SOLID
 10
3.47179346896906
 20
4.69136662701518
 30
0
 11
3.47192368915262
 21
4.69140177262753
 31
0
  0
LINE
  5
1E2
100
AcDbEntity
  8
SEMA2D
100
AcDbLine
370
9
 62
7
  6
_SOLID
 10
3.47192368915262
 20
4.69140177262753
 30
0
 11
3.47205111863171
 21
4.691441358314
 31
0
  0
LINE
  5
1E3
100
AcDbEntity
  8
SEMA2D
100
AcDbLine
370
9
 62
7
  6
_SOLID
 10
3.47205111863171
 20
4.691441358314
 30
0
 11
3.47217543102303
 21
4.69148528268433
 31
0
  0
LINE
  5
1E4
100
AcDbEntity
  8
SEMA2D
100
AcDbLine
370
9
 62
7
  6
_SOLID
 10
3.47217543102303
 20
4.69148528268433
 30
0
 11
3.47229630792705
 21
4.69153343323568
 31
0
  0
LINE
  5
1E5
100
AcDbEntity
  8
SEMA2D
100
AcDbLine
370
9
 62
7
  6
_SOLID
 10
3.47229630792705
 20
4.69153343323568
 30
0
 11
3.47241343974347
 21
4.69158568664072
 31
0
  0
LINE
  5
1E6
100
AcDbEntity
  8
SEMA2D
100
AcDbLine
370
9
 62
7
  6
_SOLID
 10
3.47241343974347
 20
4.69158568664072
 30
0
 11
3.47252652646426
 21
4.69164190906357
 31
0
  0
LINE
  5
1E7
100
AcDbEntity
  8
SEMA2D
100
AcDbLine
370
9
 62
7
  6
_SOLID
 10
3.47252652646426
 20
4.69164190906357
 30
0
 11
3.47263527844204
 21
4.69170195650253
 31
0
  0
LINE
  5
1E8
100
AcDbEntity
  8
SEMA2D
100
AcDbLine
370
9
 62
7
  6
_SOLID
 10
3.47263527844204
 20
4.69170195650253
 30
0
 11
3.47273941713192
 21
4.69176567515896
 31
0
  0
LINE
  5
1E9
100
AcDbEntity
  8
SEMA2D
100
AcDbLine
370
9
 62
7
  6
_SOLID
 10
3.47273941713192
 20
4.69176567515896
 30
0
 11
3.47283867580497
 21
4.69183290183118
 31
0
  0
LINE
  5
1EA
100
AcDbEntity
  8
SEMA2D
100
AcDbLine
370
9
 62
7
  6
_SOLID
 10
3.47283867580497
 20
4.69183290183118
 30
0
 11
3.47293280023138
 21
4.69190346433249
 31
0
  0
LINE
  5
1EB
100
AcDbEntity
  8
SEMA2D
100
AcDbLine
370
9
 62
7
  6
_SOLID
 10
3.47293280023138
 20
4.69190346433249
 30
0
 11
3.47302154933161
 21
4.69197718193217
 31
0
  0
LINE
  5
1EC
100
AcDbEntity
  8
SEMA2D
100
AcDbLine
370
9
 62
7
  6
_SOLID
 10
3.47302154933161
 20
4.69197718193217
 30
0
 11
3.47310469579387
 21
4.69205386581837
 31
0
  0
LINE
  5
1ED
100
AcDbEntity
  8
SEMA2D
100
AcDbLine
370
9
 62
7
  6
_SOLID
 10
3.47310469579387
 20
4.69205386581837
 30
0
 11
3.4731820266563
 21
4.69213331958178
 31
0
  0
LINE
  5
1EE
100
AcDbEntity
  8
SEMA2D
100
AcDbLine
370
9
 62
7
  6
_SOLID
 10
3.4731820266563
 20
4.69213331958178
 30
0
 11
3.4732533438525
 21
4.69221533971861
 31
0
  0
LINE
  5
1EF
100
AcDbEntity
  8
SEMA2D
100
AcDbLine
370
9
 62
7
  6
_SOLID
 10
3.4732533438525
 20
4.69221533971861
 30
0
 11
3.47331846471874
 21
4.69229971615185
 31
0
  0
LINE
  5
1F0
100
AcDbEntity
  8
SEMA2D
100
AcDbLine
370
9
 62
7
  6
_SOLID
 10
3.47331846471874
 20
4.69229971615185
 30
0
 11
3.47337722246189
 21
4.69238623276936
 31
0
  0
LINE
  5
1F1
100
AcDbEntity
  8
SEMA2D
100
AcDbLine
370
9
 62
7
  6
_SOLID
 10
3.47337722246189
 20
4.69238623276936
 30
0
 11
3.47342946658658
 21
4.69247466797738
 31
0
  0
LINE
  5
1F2
100
AcDbEntity
  8
SEMA2D
100
AcDbLine
370
9
 62
7
  6
_SOLID
 10
3.47342946658658
 20
4.69247466797738
 30
0
 11
3.47347506328069
 21
4.69256479526807
 31
0
  0
LINE
  5
1F3
100
AcDbEntity
  8
SEMA2D
100
AcDbLine
370
9
 62
7
  6
_SOLID
 10
3.47347506328069
 20
4.69256479526807
 30
0
 11
3.47351389575807
 21
4.6926563837997
 31
0
  0
LINE
  5
1F4
100
AcDbEntity
  8
SEMA2D
100
AcDbLine
370
9
 62
7
  6
_SOLID
 10
3.47351389575807
 20
4.6926563837997
 30
0
 11
3.47354586455764
 21
4.69274919898788
 31
0
  0
LINE
  5
1F5
100
AcDbEntity
  8
SEMA2D
100
AcDbLine
370
9
 62
7
  6
_SOLID
 10
3.47354586455764
 20
4.69274919898788
 30
0
 11
3.47357088779817
 21
4.69284300310641
 31
0
  0
LINE
  5
1F6
100
AcDbEntity
  8
SEMA2D
100
AcDbLine
370
9
 62
7
  6
_SOLID
 10
3.47357088779817
 20
4.69284300310641
 30
0
 11
3.47358890138801
 21
4.69293755589614
 31
0
  0
LINE
  5
1F7
100
AcDbEntity
  8
SEMA2D
100
AcDbLine
370
9
 62
7
  6
_SOLID
 10
3.47358890138801
 20
4.69293755589614
 30
0
 11
3.4735998591892
 21
4.69303261518036
 31
0
  0
LINE
  5
1F8
100
AcDbEntity
  8
SEMA2D
100
AcDbLine
370
9
 62
7
  6
_SOLID
 10
3.22409204503277
 20
4.69340014949791
 30
0
 11
3.22410283828496
 21
4.69330505817324
 31
0
  0
LINE
  5
1F9
100
AcDbEntity
  8
SEMA2D
100
AcDbLine
370
9
 62
7
  6
_SOLID
 10
3.22410283828496
 20
4.69330505817324
 30
0
 11
3.22412068818442
 21
4.69321045255471
 31
0
  0
LINE
  5
1FA
100
AcDbEntity
  8
SEMA2D
100
AcDbLine
370
9
 62
7
  6
_SOLID
 10
3.22412068818442
 20
4.69321045255471
 30
0
 11
3.22414554901243
 21
4.69311657495433
 31
0
  0
LINE
  5
1FB
100
AcDbEntity
  8
SEMA2D
100
AcDbLine
370
9
 62
7
  6
_SOLID
 10
3.22414554901243
 20
4.69311657495433
 30
0
 11
3.22417735709334
 21
4.69302366581945
 31
0
  0
LINE
  5
1FC
100
AcDbEntity
  8
SEMA2D
100
AcDbLine
370
9
 62
7
  6
_SOLID
 10
3.22417735709334
 20
4.69302366581945
 30
0
 11
3.22421603095755
 21
4.6929319631169
 31
0
  0
LINE
  5
1FD
100
AcDbEntity
  8
SEMA2D
100
AcDbLine
370
9
 62
7
  6
_SOLID
 10
3.22421603095755
 20
4.6929319631169
 30
0
 11
3.22426147155026
 21
4.6928417017235
 31
0
  0
LINE
  5
1FE
100
AcDbEntity
  8
SEMA2D
100
AcDbLine
370
9
 62
7
  6
_SOLID
 10
3.22426147155026
 20
4.6928417017235
 30
0
 11
3.22431356248512
 21
4.69275311282445
 31
0
  0
LINE
  5
1FF
100
AcDbEntity
  8
SEMA2D
100
AcDbLine
370
9
 62
7
  6
_SOLID
 10
3.22431356248512
 20
4.69275311282445
 30
0
 11
3.22437217034237
 21
4.69266642332124
 31
0
  0
LINE
  5
200
100
AcDbEntity
  8
SEMA2D
100
AcDbLine
370
9
 62
7
  6
_SOLID
 10
3.22437217034237
 20
4.69266642332124
 30
0
 11
3.22443714501056
 21
4.69258185525044
 31
0
  0
LINE
  5
201
100
AcDbEntity
  8
SEMA2D
100
AcDbLine
370
9
 62
7
  6
_SOLID
 10
3.22443714501056
 20
4.69258185525044
 30
0
 11
3.22450832007099
 21
4.69249962521503
 31
0
  0
LINE
  5
202
100
AcDbEntity
  8
SEMA2D
100
AcDbLine
370
9
 62
7
  6
_SOLID
 10
3.22450832007099
 20
4.69249962521503
 30
0
 11
3.22458551322401
 21
4.69241994382962
 31
0
  0
LINE
  5
203
100
AcDbEntity
  8
SEMA2D
100
AcDbLine
370
9
 62
7
  6
_SOLID
 10
3.22458551322401
 20
4.69241994382962
 30
0
 11
3.2246685267559
 21
4.69234301518101
 31
0
  0
LINE
  5
204
100
AcDbEntity
  8
SEMA2D
100
AcDbLine
370
9
 62
7
  6
_SOLID
 10
3.2246685267559
 20
4.69234301518101
 30
0
 11
3.2247571480453
 21
4.69226903630542
 31
0
  0
LINE
  5
205
100
AcDbEntity
  8
SEMA2D
100
AcDbLine
370
9
 62
7
  6
_SOLID
 10
3.2247571480453
 20
4.69226903630542
 30
0
 11
3.22485115010777
 21
4.6921981966839
 31
0
  0
LINE
  5
206
100
AcDbEntity
  8
SEMA2D
100
AcDbLine
370
9
 62
7
  6
_SOLID
 10
3.22485115010777
 20
4.6921981966839
 30
0
 11
3.22495029217718
 21
4.69213067775695
 31
0
  0
LINE
  5
207
100
AcDbEntity
  8
SEMA2D
100
AcDbLine
370
9
 62
7
  6
_SOLID
 10
3.22495029217718
 20
4.69213067775695
 30
0
 11
3.22505432032237
 21
4.69206665245983
 31
0
  0
LINE
  5
208
100
AcDbEntity
  8
SEMA2D
100
AcDbLine
370
9
 62
7
  6
_SOLID
 10
3.22505432032237
 20
4.69206665245983
 30
0
 11
3.22516296809755
 21
4.6920062847796
 31
0
  0
LINE
  5
209
100
AcDbEntity
  8
SEMA2D
100
AcDbLine
370
9
 62
7
  6
_SOLID
 10
3.22516296809755
 20
4.6920062847796
 30
0
 11
3.22527595722473
 21
4.69194972933515
 31
0
  0
LINE
  5
20A
100
AcDbEntity
  8
SEMA2D
100
AcDbLine
370
9
 62
7
  6
_SOLID
 10
3.22527595722473
 20
4.69194972933515
 30
0
 11
3.22539299830649
 21
4.69189713098112
 31
0
  0
LINE
  5
20B
100
AcDbEntity
  8
SEMA2D
100
AcDbLine
370
9
 62
7
  6
_SOLID
 10
3.22539299830649
 20
4.69189713098112
 30
0
 11
3.22551379156717
 21
4.69184862443691
 31
0
  0
LINE
  5
20C
100
AcDbEntity
  8
SEMA2D
100
AcDbLine
370
9
 62
7
  6
_SOLID
 10
3.22551379156717
 20
4.69184862443691
 30
0
 11
3.22563802762075
 21
4.69180433394165
 31
0
  0
LINE
  5
20D
100
AcDbEntity
  8
SEMA2D
100
AcDbLine
370
9
 62
7
  6
_SOLID
 10
3.22563802762075
 20
4.69180433394165
 30
0
 11
3.22576538826321
 21
4.69176437293593
 31
0
  0
LINE
  5
20E
100
AcDbEntity
  8
SEMA2D
100
AcDbLine
370
9
 62
7
  6
_SOLID
 10
3.22576538826321
 20
4.69176437293593
 30
0
 11
3.22589554728755
 21
4.69172884377132
 31
0
  0
LINE
  5
20F
100
AcDbEntity
  8
SEMA2D
100
AcDbLine
370
9
 62
7
  6
_SOLID
 10
3.22589554728755
 20
4.69172884377132
 30
0
 11
3.22602817131933
 21
4.69169783744815
 31
0
  0
LINE
  5
210
100
AcDbEntity
  8
SEMA2D
100
AcDbLine
370
9
 62
7
  6
_SOLID
 10
3.22602817131933
 20
4.69169783744815
 30
0
 11
3.22616292067054
 21
4.69167143338247
 31
0
  0
LINE
  5
211
100
AcDbEntity
  8
SEMA2D
100
AcDbLine
370
9
 62
7
  6
_SOLID
 10
3.22616292067054
 20
4.69167143338247
 30
0
 11
3.2262994502096
 21
4.69164969920263
 31
0
  0
LINE
  5
212
100
AcDbEntity
  8
SEMA2D
100
AcDbLine
370
9
 62
7
  6
_SOLID
 10
3.2262994502096
 20
4.69164969920263
 30
0
 11
3.22643741024535
 21
4.69163269057608
 31
0
  0
LINE
  5
213
100
AcDbEntity
  8
SEMA2D
100
AcDbLine
370
9
 62
7
  6
_SOLID
 10
3.22643741024535
 20
4.69163269057608
 30
0
 11
3.22657644742275
 21
4.69162045106676
 31
0
  0
LINE
  5
214
100
AcDbEntity
  8
SEMA2D
100
AcDbLine
370
9
 62
7
  6
_SOLID
 10
3.22657644742275
 20
4.69162045106676
 30
0
 11
3.22671620562786
 21
4.69161301202357
 31
0
  0
LINE
  5
215
100
AcDbEntity
  8
SEMA2D
100
AcDbLine
370
9
 62
7
  6
_SOLID
 10
3.22671620562786
 20
4.69161301202357
 30
0
 11
3.2268563269
 21
4.6916103925
 31
0
  0
LINE
  5
216
100
AcDbEntity
  8
SEMA2D
100
AcDbLine
370
9
 62
7
  6
_SOLID
 10
3.3416121581
 20
4.2090194684
 30
0
 11
3.3436816063
 21
4.2091482701
 31
0
  0
LINE
  5
217
100
AcDbEntity
  8
SEMA2D
100
AcDbLine
370
9
 62
7
  6
_SOLID
 10
3.3517463216
 20
4.2091659527
 30
0
 11
3.3538149329
 21
4.209046224
 31
0
  0
LINE
  5
218
100
AcDbEntity
  8
SEMA2D
100
AcDbLine
370
9
 62
7
  6
_SOLID
 10
3.2657925968
 20
4.5522660865
 30
0
 11
3.2673068625
 21
4.5529768136
 31
0
  0
LINE
  5
219
100
AcDbEntity
  8
SEMA2D
100
AcDbLine
370
9
 62
7
  6
_SOLID
 10
3.2657228711
 20
4.5315592045
 30
0
 11
3.2672364478
 21
4.5320653275
 31
0
  0
LINE
  5
21A
100
AcDbEntity
  8
SEMA2D
100
AcDbLine
370
9
 62
7
  6
_SOLID
 10
3.3326254627
 20
4.552412623
 30
0
 11
3.3350260804
 21
4.5531252935
 31
0
  0
LINE
  5
21B
100
AcDbEntity
  8
SEMA2D
100
AcDbLine
370
9
 62
7
  6
_SOLID
 10
3.2340497917
 20
4.2739340367
 30
0
 11
3.2310579467
 21
4.2758615885
 31
0
  0
LINE
  5
21C
100
AcDbEntity
  8
SEMA2D
100
AcDbLine
370
9
 62
7
  6
_SOLID
 10
3.3408407084
 20
4.2027690665
 30
0
 11
3.2299119128
 21
4.2749487252
 31
0
  0
ARC
  5
21D
100
AcDbEntity
  8
SEMA2D
100
AcDbCircle
370
9
 62
7
  6
_SOLID
 10
3.3476694635
 20
4.2132637903
 30
0
 40
0.0125208276000002
100
AcDbArc
 50
236.94856670938
 51
303.112861520432
  0
ARC
  5
21E
100
AcDbEntity
  8
SEMA2D
100
AcDbCircle
370
9
 62
7
  6
_SOLID
 10
3.2412559049
 20
4.2923826588
 30
0
 40
0.0207997162
100
AcDbArc
 50
179.807070238503
 51
236.948566709377
  0
LINE
  5
21F
100
AcDbEntity
  8
SEMA2D
100
AcDbLine
370
9
 62
7
  6
_SOLID
 10
3.3419746625
 20
4.2030161647
 30
0
 11
3.2305678657
 21
4.2755068514
 31
0
  0
LINE
  5
220
100
AcDbEntity
  8
SEMA2D
100
AcDbLine
370
9
 62
7
  6
_SOLID
 10
3.3425254556
 20
4.2034148472
 30
0
 11
3.2660698235
 21
4.2531633494
 31
0
  0
LINE
  5
221
100
AcDbEntity
  8
SEMA2D
100
AcDbLine
370
9
 62
9
  6
_SOLID
 10
3.3528638771
 20
4.203437515
 30
0
 11
3.3534119934
 21
4.203041242
 31
0
  0
LINE
  5
222
100
AcDbEntity
  8
SEMA2D
100
AcDbLine
370
9
 62
7
  6
_SOLID
 10
3.2235202482
 20
4.5730847327
 30
0
 11
3.2237403252
 21
4.5737926221
 31
0
  0
LINE
  5
223
100
AcDbEntity
  8
SEMA2D
100
AcDbLine
370
9
 62
7
  6
_SOLID
 10
3.2234498335
 20
4.5521732466
 30
0
 11
3.2236699105
 21
4.552881136
 31
0
  0
LINE
  5
224
100
AcDbEntity
  8
SEMA2D
100
AcDbLine
370
9
 62
7
  6
_SOLID
 10
3.2233801078
 20
4.5314663645
 30
0
 11
3.2235994958
 21
4.5319696499
 31
0
  0
LINE
  5
225
100
AcDbEntity
  8
SEMA2D
100
AcDbLine
370
9
 62
7
  6
_SOLID
 10
3.4412709685
 20
4.553358244
 30
0
 11
3.4388703507
 21
4.5526455736
 31
0
  0
LINE
  5
226
100
AcDbEntity
  8
SEMA2D
100
AcDbLine
370
9
 62
7
  6
_SOLID
 10
3.4412005538
 20
4.5324467579
 30
0
 11
3.438800625
 21
4.5319386915
 31
0
  0
LINE
  5
227
100
AcDbEntity
  8
SEMA2D
100
AcDbLine
370
9
 62
7
  6
_SOLID
 10
3.2577712532
 20
4.2852320259
 30
0
 11
3.2830819863
 21
4.2687627217
 31
0
  0
LINE
  5
228
100
AcDbEntity
  8
SEMA2D
100
AcDbLine
370
9
 62
7
  6
_SOLID
 10
3.2644592814
 20
4.2900730448
 30
0
 11
3.2897700145
 21
4.2736037407
 31
0
  0
LINE
  5
229
100
AcDbEntity
  8
SEMA2D
100
AcDbLine
370
9
 62
9
  6
_SOLID
 10
3.473332202
 20
4.2898287175
 30
0
 11
3.4739852867
 21
4.2898301494
 31
0
  0
LINE
  5
22A
100
AcDbEntity
  8
SEMA2D
100
AcDbLine
370
9
 62
9
  6
_SOLID
 10
3.2226371616
 20
4.2892790483
 30
0
 11
3.2219840769
 21
4.289277615
 31
0
  0
LINE
  5
22B
100
AcDbEntity
  8
SEMA2D
100
AcDbLine
370
9
 62
7
  6
_SOLID
 10
3.2692364443
 20
4.2935309155
 30
0
 11
3.2945471774
 21
4.2770616114
 31
0
  0
LINE
  5
22C
100
AcDbEntity
  8
SEMA2D
100
AcDbLine
370
9
 62
7
  6
_SOLID
 10
3.2702796914
 20
4.2942860527
 30
0
 11
3.2955904245
 21
4.2778167486
 31
0
  0
LINE
  5
22D
100
AcDbEntity
  8
SEMA2D
100
AcDbLine
370
9
 62
7
  6
_SOLID
 10
3.2235433471
 20
4.5152948058
 30
0
 11
3.2233801078
 21
4.5314663645
 31
0
  0
LINE
  5
22E
100
AcDbEntity
  8
SEMA2D
100
AcDbLine
370
9
 62
7
  6
_SOLID
 10
3.2236122985
 20
4.5357717383
 30
0
 11
3.2234498335
 21
4.5521732466
 31
0
  0
LINE
  5
22F
100
AcDbEntity
  8
SEMA2D
100
AcDbLine
370
9
 62
7
  6
_SOLID
 10
3.2236827132
 20
4.5566832244
 30
0
 11
3.2235202482
 21
4.5730847327
 31
0
  0
LINE
  5
230
100
AcDbEntity
  8
SEMA2D
100
AcDbLine
370
9
 62
7
  6
_SOLID
 10
3.2204563066
 20
4.2924526967
 30
0
 11
3.2214444553
 21
4.5859094354
 31
0
  0
LINE
  5
231
100
AcDbEntity
  8
SEMA2D
100
AcDbLine
370
9
 62
7
  6
_SOLID
 10
3.2219840769
 20
4.289277615
 30
0
 11
3.2229805185
 21
4.5851971371
 31
0
  0
LINE
  5
232
100
AcDbEntity
  8
SEMA2D
100
AcDbLine
370
9
 62
7
  6
_SOLID
 10
3.223378518
 20
4.5094443087
 30
0
 11
3.2226371616
 21
4.2892790483
 31
0
  0
LINE
  5
233
100
AcDbEntity
  8
SEMA2D
100
AcDbLine
370
9
 62
7
  6
_SOLID
 10
3.223776888
 20
4.584650925
 30
0
 11
3.2237403252
 21
4.5737926221
 31
0
  0
LINE
  5
234
100
AcDbEntity
  8
SEMA2D
100
AcDbLine
370
9
 62
7
  6
_SOLID
 10
3.2236827132
 20
4.5566832244
 30
0
 11
3.2236699105
 21
4.552881136
 31
0
  0
LINE
  5
235
100
AcDbEntity
  8
SEMA2D
100
AcDbLine
370
9
 62
7
  6
_SOLID
 10
3.2236122985
 20
4.5357717383
 30
0
 11
3.2235994958
 21
4.5319696499
 31
0
  0
LINE
  5
236
100
AcDbEntity
  8
SEMA2D
100
AcDbLine
370
9
 62
7
  6
_SOLID
 10
3.2235433471
 20
4.5152948058
 30
0
 11
3.2235273437
 21
4.5105421953
 31
0
  0
LINE
  5
237
100
AcDbEntity
  8
SEMA2D
100
AcDbLine
370
9
 62
7
  6
_SOLID
 10
3.223378518
 20
4.5094443087
 30
0
 11
3.2235273437
 21
4.5105421953
 31
0
  0
LINE
  5
238
100
AcDbEntity
  8
SEMA2D
100
AcDbLine
370
9
 62
9
  6
_SOLID
 10
3.2483290856
 20
4.3003798672
 30
0
 11
3.2580214398
 21
4.3004011185
 31
0
  0
LINE
  5
239
100
AcDbEntity
  8
SEMA2D
100
AcDbLine
370
9
 62
9
  6
_SOLID
 10
3.26494455
 20
4.300416298
 30
0
 11
3.2664564336
 21
4.3004196129
 31
0
  0
LINE
  5
23A
100
AcDbEntity
  8
SEMA2D
100
AcDbLine
370
9
 62
9
  6
_SOLID
 10
3.2746369042
 20
4.3004375493
 30
0
 11
3.2912523686
 21
4.30047398
 31
0
  0
LINE
  5
23B
100
AcDbEntity
  8
SEMA2D
100
AcDbLine
370
9
 62
9
  6
_SOLID
 10
3.2995601008
 20
4.3004921954
 30
0
 11
3.3161755651
 21
4.3005286261
 31
0
  0
LINE
  5
23C
100
AcDbEntity
  8
SEMA2D
100
AcDbLine
370
9
 62
9
  6
_SOLID
 10
3.3258679194
 20
4.3005498774
 30
0
 11
3.3424833837
 21
4.3005863082
 31
0
  0
LINE
  5
23D
100
AcDbEntity
  8
SEMA2D
100
AcDbLine
370
9
 62
9
  6
_SOLID
 10
3.35356036
 20
4.3006105953
 30
0
 11
3.3701758244
 21
4.3006470261
 31
0
  0
LINE
  5
23E
100
AcDbEntity
  8
SEMA2D
100
AcDbLine
370
9
 62
9
  6
_SOLID
 10
3.3798681786
 20
4.3006682774
 30
0
 11
3.396483643
 21
4.3007047081
 31
0
  0
LINE
  5
23F
100
AcDbEntity
  8
SEMA2D
100
AcDbLine
370
9
 62
9
  6
_SOLID
 10
3.4047913752
 20
4.3007229235
 30
0
 11
3.4214068395
 21
4.3007593543
 31
0
  0
LINE
  5
240
100
AcDbEntity
  8
SEMA2D
100
AcDbLine
370
9
 62
9
  6
_SOLID
 10
3.4295873101
 20
4.3007772906
 30
0
 11
3.4310991938
 21
4.3007806055
 31
0
  0
LINE
  5
241
100
AcDbEntity
  8
SEMA2D
100
AcDbLine
370
9
 62
9
  6
_SOLID
 10
3.4380223039
 20
4.300795785
 30
0
 11
3.4477146581
 21
4.3008170363
 31
0
  0
LINE
  5
242
100
AcDbEntity
  8
SEMA2D
100
AcDbLine
370
9
 62
7
  6
_SOLID
 10
3.2564864356
 20
4.5567551492
 30
0
 11
3.2589399013
 21
4.5731623932
 31
0
  0
LINE
  5
243
100
AcDbEntity
  8
SEMA2D
100
AcDbLine
370
9
 62
7
  6
_SOLID
 10
3.256416021
 20
4.5358436631
 30
0
 11
3.2588694866
 21
4.552250907
 31
0
  0
LINE
  5
244
100
AcDbEntity
  8
SEMA2D
100
AcDbLine
370
9
 62
7
  6
_SOLID
 10
3.2563470696
 20
4.5153667306
 30
0
 11
3.2587997609
 21
4.531544025
 31
0
  0
LINE
  5
245
100
AcDbEntity
  8
SEMA2D
100
AcDbLine
370
9
 62
7
  6
_SOLID
 10
3.4741816685
 20
4.5851999578
 30
0
 11
3.4749817283
 21
4.5857496702
 31
0
  0
LINE
  5
246
100
AcDbEntity
  8
SEMA2D
100
AcDbLine
370
9
 62
7
  6
_SOLID
 10
3.2490369477
 20
4.5105981272
 30
0
 11
3.2483290856
 21
4.3003798672
 31
0
  0
LINE
  5
247
100
AcDbEntity
  8
SEMA2D
100
AcDbLine
370
9
 62
7
  6
_SOLID
 10
3.2564864356
 20
4.5567551492
 30
0
 11
3.256473633
 21
4.5529530608
 31
0
  0
LINE
  5
248
100
AcDbEntity
  8
SEMA2D
100
AcDbLine
370
9
 62
7
  6
_SOLID
 10
3.256416021
 20
4.5358436631
 30
0
 11
3.2564032183
 21
4.5320415747
 31
0
  0
LINE
  5
249
100
AcDbEntity
  8
SEMA2D
100
AcDbLine
370
9
 62
7
  6
_SOLID
 10
3.2563470696
 20
4.5153667306
 30
0
 11
3.2563310662
 21
4.5106141201
 31
0
  0
LINE
  5
24A
100
AcDbEntity
  8
SEMA2D
100
AcDbLine
370
9
 62
7
  6
_SOLID
 10
3.2589399013
 20
4.5731623932
 30
0
 11
3.2587997609
 21
4.531544025
 31
0
  0
LINE
  5
24B
100
AcDbEntity
  8
SEMA2D
100
AcDbLine
370
9
 62
7
  6
_SOLID
 10
3.2587997609
 20
4.531544025
 30
0
 11
3.2580214398
 21
4.3004011185
 31
0
  0
LINE
  5
24C
100
AcDbEntity
  8
SEMA2D
100
AcDbLine
370
9
 62
7
  6
_SOLID
 10
3.2658630115
 20
4.5731775726
 30
0
 11
3.26494455
 21
4.300416298
 31
0
  0
LINE
  5
24D
100
AcDbEntity
  8
SEMA2D
100
AcDbLine
370
9
 62
7
  6
_SOLID
 10
3.2673196651
 20
4.556778902
 30
0
 11
3.2673068625
 21
4.5529768136
 31
0
  0
LINE
  5
24E
100
AcDbEntity
  8
SEMA2D
100
AcDbLine
370
9
 62
7
  6
_SOLID
 10
3.2672492505
 20
4.5358674159
 30
0
 11
3.2672364478
 21
4.5320653275
 31
0
  0
LINE
  5
24F
100
AcDbEntity
  8
SEMA2D
100
AcDbLine
370
9
 62
7
  6
_SOLID
 10
3.267180299
 20
4.5153904833
 30
0
 11
3.2664564336
 21
4.3004196129
 31
0
  0
LINE
  5
250
100
AcDbEntity
  8
SEMA2D
100
AcDbLine
370
9
 62
7
  6
_SOLID
 10
3.267180299
 20
4.5153904833
 30
0
 11
3.2657228711
 21
4.5315592045
 31
0
  0
LINE
  5
251
100
AcDbEntity
  8
SEMA2D
100
AcDbLine
370
9
 62
7
  6
_SOLID
 10
3.2672492505
 20
4.5358674159
 30
0
 11
3.2657925968
 21
4.5522660865
 31
0
  0
LINE
  5
252
100
AcDbEntity
  8
SEMA2D
100
AcDbLine
370
9
 62
7
  6
_SOLID
 10
3.2673196651
 20
4.556778902
 30
0
 11
3.2658630115
 21
4.5731775726
 31
0
  0
LINE
  5
253
100
AcDbEntity
  8
SEMA2D
100
AcDbLine
370
9
 62
7
  6
_SOLID
 10
3.2753447663
 20
4.5106558092
 30
0
 11
3.2746369042
 21
4.3004375493
 31
0
  0
LINE
  5
254
100
AcDbEntity
  8
SEMA2D
100
AcDbLine
370
9
 62
9
  6
_SOLID
 10
3.4003006679
 20
4.2780463343
 30
0
 11
3.4127483156
 21
4.2690470256
 31
0
  0
LINE
  5
255
100
AcDbEntity
  8
SEMA2D
100
AcDbLine
370
9
 62
7
  6
_SOLID
 10
3.2919602307
 20
4.51069224
 30
0
 11
3.2912523686
 21
4.30047398
 31
0
  0
LINE
  5
256
100
AcDbEntity
  8
SEMA2D
100
AcDbLine
370
9
 62
7
  6
_SOLID
 10
3.2912523686
 20
4.30047398
 30
0
 11
3.2912059543
 21
4.2866900569
 31
0
  0
LINE
  5
257
100
AcDbEntity
  8
SEMA2D
100
AcDbLine
370
9
 62
7
  6
_SOLID
 10
3.3002679629
 20
4.5107104553
 30
0
 11
3.2995601008
 21
4.3004921954
 31
0
  0
LINE
  5
258
100
AcDbEntity
  8
SEMA2D
100
AcDbLine
370
9
 62
7
  6
_SOLID
 10
3.2995601008
 20
4.3004921954
 30
0
 11
3.2995233631
 21
4.2895819736
 31
0
  0
LINE
  5
259
100
AcDbEntity
  8
SEMA2D
100
AcDbLine
370
9
 62
7
  6
_SOLID
 10
3.4411284018
 20
4.5110193033
 30
0
 11
3.4387246223
 21
4.5093676924
 31
0
  0
LINE
  5
25A
100
AcDbEntity
  8
SEMA2D
100
AcDbLine
370
9
 62
9
  6
_SOLID
 10
3.4257226888
 20
4.2946268741
 30
0
 11
3.4267608657
 21
4.2938763006
 31
0
  0
LINE
  5
25B
100
AcDbEntity
  8
SEMA2D
100
AcDbLine
370
9
 62
9
  6
_SOLID
 10
3.4315148119
 20
4.2904393277
 30
0
 11
3.4381703365
 21
4.2856275655
 31
0
  0
LINE
  5
25C
100
AcDbEntity
  8
SEMA2D
100
AcDbLine
370
9
 62
7
  6
_SOLID
 10
3.3168834273
 20
4.5107468861
 30
0
 11
3.3161755651
 21
4.3005286261
 31
0
  0
LINE
  5
25D
100
AcDbEntity
  8
SEMA2D
100
AcDbLine
370
9
 62
7
  6
_SOLID
 10
3.3161755651
 20
4.3005286261
 30
0
 11
3.3160705428
 21
4.269339472
 31
0
  0
LINE
  5
25E
100
AcDbEntity
  8
SEMA2D
100
AcDbLine
370
9
 62
7
  6
_SOLID
 10
3.3265757815
 20
4.5107681374
 30
0
 11
3.3258679194
 21
4.3005498774
 31
0
  0
LINE
  5
25F
100
AcDbEntity
  8
SEMA2D
100
AcDbLine
370
9
 62
7
  6
_SOLID
 10
3.3258679194
 20
4.3005498774
 30
0
 11
3.325757522
 21
4.2677644836
 31
0
  0
LINE
  5
260
100
AcDbEntity
  8
SEMA2D
100
AcDbLine
370
9
 62
9
  6
_SOLID
 10
3.4648209314
 20
4.2763741328
 30
0
 11
3.4653086306
 21
4.2760215396
 31
0
  0
LINE
  5
261
100
AcDbEntity
  8
SEMA2D
100
AcDbLine
370
9
 62
7
  6
_SOLID
 10
3.3350260804
 20
4.5531252935
 30
0
 11
3.3349684684
 21
4.5360158957
 31
0
  0
LINE
  5
262
100
AcDbEntity
  8
SEMA2D
100
AcDbLine
370
9
 62
7
  6
_SOLID
 10
3.3431912459
 20
4.5108045681
 30
0
 11
3.3424833837
 21
4.3005863082
 31
0
  0
LINE
  5
263
100
AcDbEntity
  8
SEMA2D
100
AcDbLine
370
9
 62
7
  6
_SOLID
 10
3.3424833837
 20
4.3005863082
 30
0
 11
3.3422669448
 21
4.2363090938
 31
0
  0
LINE
  5
264
100
AcDbEntity
  8
SEMA2D
100
AcDbLine
370
9
 62
7
  6
_SOLID
 10
3.3626609091
 20
4.5360766137
 30
0
 11
3.3651143747
 21
4.5524838576
 31
0
  0
LINE
  5
265
100
AcDbEntity
  8
SEMA2D
100
AcDbLine
370
9
 62
7
  6
_SOLID
 10
3.3349684684
 20
4.5360158957
 30
0
 11
3.3326254627
 21
4.552412623
 31
0
  0
LINE
  5
266
100
AcDbEntity
  8
SEMA2D
100
AcDbLine
370
9
 62
7
  6
_SOLID
 10
3.3542682221
 20
4.5108288553
 30
0
 11
3.35356036
 21
4.3006105953
 31
0
  0
LINE
  5
267
100
AcDbEntity
  8
SEMA2D
100
AcDbLine
370
9
 62
7
  6
_SOLID
 10
3.35356036
 20
4.3006105953
 30
0
 11
3.3533439211
 21
4.236333381
 31
0
  0
LINE
  5
268
100
AcDbEntity
  8
SEMA2D
100
AcDbLine
370
9
 62
7
  6
_SOLID
 10
3.3626609091
 20
4.5360766137
 30
0
 11
3.3627185211
 21
4.5531860114
 31
0
  0
LINE
  5
269
100
AcDbEntity
  8
SEMA2D
100
AcDbLine
370
9
 62
7
  6
_SOLID
 10
3.3708836865
 20
4.5108652861
 30
0
 11
3.3701758244
 21
4.3006470261
 31
0
  0
LINE
  5
26A
100
AcDbEntity
  8
SEMA2D
100
AcDbLine
370
9
 62
7
  6
_SOLID
 10
3.3701758244
 20
4.3006470261
 30
0
 11
3.370065427
 21
4.2678616323
 31
0
  0
LINE
  5
26B
100
AcDbEntity
  8
SEMA2D
100
AcDbLine
370
9
 62
7
  6
_SOLID
 10
3.3805760407
 20
4.5108865373
 30
0
 11
3.3798681786
 21
4.3006682774
 31
0
  0
LINE
  5
26C
100
AcDbEntity
  8
SEMA2D
100
AcDbLine
370
9
 62
7
  6
_SOLID
 10
3.3798681786
 20
4.3006682774
 30
0
 11
3.3797631562
 21
4.2694791233
 31
0
  0
LINE
  5
26D
100
AcDbEntity
  8
SEMA2D
100
AcDbLine
370
9
 62
9
  6
_SOLID
 10
3.2310579467
 20
4.2758615885
 30
0
 11
3.2305678657
 21
4.2755068514
 31
0
  0
LINE
  5
26E
100
AcDbEntity
  8
SEMA2D
100
AcDbLine
370
9
 62
9
  6
_SOLID
 10
3.2577712532
 20
4.2852320259
 30
0
 11
3.2644592814
 21
4.2900730448
 31
0
  0
LINE
  5
26F
100
AcDbEntity
  8
SEMA2D
100
AcDbLine
370
9
 62
9
  6
_SOLID
 10
3.2692364443
 20
4.2935309155
 30
0
 11
3.2702796914
 21
4.2942860527
 31
0
  0
LINE
  5
270
100
AcDbEntity
  8
SEMA2D
100
AcDbLine
370
9
 62
7
  6
_SOLID
 10
3.3971915051
 20
4.5109229681
 30
0
 11
3.396483643
 21
4.3007047081
 31
0
  0
LINE
  5
271
100
AcDbEntity
  8
SEMA2D
100
AcDbLine
370
9
 62
7
  6
_SOLID
 10
3.396483643
 20
4.3007047081
 30
0
 11
3.3964469053
 21
4.2897944864
 31
0
  0
LINE
  5
272
100
AcDbEntity
  8
SEMA2D
100
AcDbLine
370
9
 62
7
  6
_SOLID
 10
3.4054992373
 20
4.5109411835
 30
0
 11
3.4047913752
 21
4.3007229235
 31
0
  0
LINE
  5
273
100
AcDbEntity
  8
SEMA2D
100
AcDbLine
370
9
 62
7
  6
_SOLID
 10
3.4047913752
 20
4.3007229235
 30
0
 11
3.4047449609
 21
4.2869390004
 31
0
  0
LINE
  5
274
100
AcDbEntity
  8
SEMA2D
100
AcDbLine
370
9
 62
7
  6
_SOLID
 10
3.2587237582
 20
4.5089730259
 30
0
 11
3.2563310662
 21
4.5106141201
 31
0
  0
LINE
  5
275
100
AcDbEntity
  8
SEMA2D
100
AcDbLine
370
9
 62
7
  6
_SOLID
 10
3.4221147017
 20
4.5109776142
 30
0
 11
3.4214068395
 21
4.3007593543
 31
0
  0
LINE
  5
276
100
AcDbEntity
  8
SEMA2D
100
AcDbLine
370
9
 62
7
  6
_SOLID
 10
3.4304505417
 20
4.5571365796
 30
0
 11
3.430437739
 21
4.5533344913
 31
0
  0
LINE
  5
277
100
AcDbEntity
  8
SEMA2D
100
AcDbLine
370
9
 62
7
  6
_SOLID
 10
3.430380127
 20
4.5362250935
 30
0
 11
3.4303673244
 21
4.5324230052
 31
0
  0
LINE
  5
278
100
AcDbEntity
  8
SEMA2D
100
AcDbLine
370
9
 62
7
  6
_SOLID
 10
3.4303111756
 20
4.515748161
 30
0
 11
3.4295873101
 21
4.3007772906
 31
0
  0
LINE
  5
279
100
AcDbEntity
  8
SEMA2D
100
AcDbLine
370
9
 62
7
  6
_SOLID
 10
3.4320176553
 20
4.5735418802
 30
0
 11
3.4310991938
 21
4.3007806055
 31
0
  0
LINE
  5
27A
100
AcDbEntity
  8
SEMA2D
100
AcDbLine
370
9
 62
7
  6
_SOLID
 10
3.4304505417
 20
4.5571365796
 30
0
 11
3.4320176553
 21
4.5735418802
 31
0
  0
LINE
  5
27B
100
AcDbEntity
  8
SEMA2D
100
AcDbLine
370
9
 62
7
  6
_SOLID
 10
3.430380127
 20
4.5362250935
 30
0
 11
3.4319472406
 21
4.5526303941
 31
0
  0
LINE
  5
27C
100
AcDbEntity
  8
SEMA2D
100
AcDbLine
370
9
 62
7
  6
_SOLID
 10
3.4303111756
 20
4.515748161
 30
0
 11
3.4318775149
 21
4.531923512
 31
0
  0
LINE
  5
27D
100
AcDbEntity
  8
SEMA2D
100
AcDbLine
370
9
 62
9
  6
_SOLID
 10
3.2955904245
 20
4.2778167486
 30
0
 11
3.2830819863
 21
4.2687627217
 31
0
  0
LINE
  5
27E
100
AcDbEntity
  8
SEMA2D
100
AcDbLine
370
9
 62
7
  6
_SOLID
 10
3.4389407654
 20
4.5735570597
 30
0
 11
3.438800625
 21
4.5319386915
 31
0
  0
LINE
  5
27F
100
AcDbEntity
  8
SEMA2D
100
AcDbLine
370
9
 62
7
  6
_SOLID
 10
3.4380223039
 20
4.300795785
 30
0
 11
3.438800625
 21
4.5319386915
 31
0
  0
LINE
  5
280
100
AcDbEntity
  8
SEMA2D
100
AcDbLine
370
9
 62
7
  6
_SOLID
 10
3.4412837712
 20
4.5571603324
 30
0
 11
3.4412709685
 21
4.553358244
 31
0
  0
LINE
  5
281
100
AcDbEntity
  8
SEMA2D
100
AcDbLine
370
9
 62
7
  6
_SOLID
 10
3.4412133565
 20
4.5362488463
 30
0
 11
3.4412005538
 21
4.5324467579
 31
0
  0
LINE
  5
282
100
AcDbEntity
  8
SEMA2D
100
AcDbLine
370
9
 62
7
  6
_SOLID
 10
3.4411444051
 20
4.5157719138
 30
0
 11
3.4411284018
 21
4.5110193033
 31
0
  0
LINE
  5
283
100
AcDbEntity
  8
SEMA2D
100
AcDbLine
370
9
 62
7
  6
_SOLID
 10
3.4484225203
 20
4.5110352962
 30
0
 11
3.4477146581
 21
4.3008170363
 31
0
  0
LINE
  5
284
100
AcDbEntity
  8
SEMA2D
100
AcDbLine
370
9
 62
7
  6
_SOLID
 10
3.4411444051
 20
4.5157719138
 30
0
 11
3.438800625
 21
4.5319386915
 31
0
  0
LINE
  5
285
100
AcDbEntity
  8
SEMA2D
100
AcDbLine
370
9
 62
7
  6
_SOLID
 10
3.4412133565
 20
4.5362488463
 30
0
 11
3.4388703507
 21
4.5526455736
 31
0
  0
LINE
  5
286
100
AcDbEntity
  8
SEMA2D
100
AcDbLine
370
9
 62
7
  6
_SOLID
 10
3.4412837712
 20
4.5571603324
 30
0
 11
3.4389407654
 21
4.5735570597
 31
0
  0
LINE
  5
287
100
AcDbEntity
  8
SEMA2D
100
AcDbLine
370
9
 62
7
  6
_SOLID
 10
3.4741816685
 20
4.5851999578
 30
0
 11
3.4741451057
 21
4.5743416549
 31
0
  0
LINE
  5
288
100
AcDbEntity
  8
SEMA2D
100
AcDbLine
370
9
 62
7
  6
_SOLID
 10
3.4740874937
 20
4.5572322572
 30
0
 11
3.474074691
 21
4.5534301688
 31
0
  0
LINE
  5
289
100
AcDbEntity
  8
SEMA2D
100
AcDbLine
370
9
 62
7
  6
_SOLID
 10
3.474017079
 20
4.5363207711
 30
0
 11
3.4740042763
 21
4.5325186827
 31
0
  0
LINE
  5
28A
100
AcDbEntity
  8
SEMA2D
100
AcDbLine
370
9
 62
7
  6
_SOLID
 10
3.4739481276
 20
4.5158438386
 30
0
 11
3.4739321242
 21
4.5110912281
 31
0
  0
LINE
  5
28B
100
AcDbEntity
  8
SEMA2D
100
AcDbLine
370
9
 62
7
  6
_SOLID
 10
3.4740735584
 20
4.509993978
 30
0
 11
3.473332202
 21
4.2898287175
 31
0
  0
LINE
  5
28C
100
AcDbEntity
  8
SEMA2D
100
AcDbLine
370
9
 62
7
  6
_SOLID
 10
3.4749817283
 20
4.5857496702
 30
0
 11
3.4739852867
 21
4.2898301494
 31
0
  0
LINE
  5
28D
100
AcDbEntity
  8
SEMA2D
100
AcDbLine
370
9
 62
7
  6
_SOLID
 10
3.4760225953
 20
4.5864648387
 30
0
 11
3.4750315871
 21
4.2921589083
 31
0
  0
ARC
  5
28E
100
AcDbEntity
  8
SEMA2D
100
AcDbCircle
370
9
 62
7
  6
_SOLID
 10
3.4550127083
 20
4.2922263173
 30
0
 40
0.0200189922999998
100
AcDbArc
 50
303.112861520433
 51
-0.192929761496258
  0
LINE
  5
28F
100
AcDbEntity
  8
SEMA2D
100
AcDbLine
370
9
 62
7
  6
_SOLID
 10
3.4740874937
 20
4.5572322572
 30
0
 11
3.4743604185
 21
4.5736347201
 31
0
  0
LINE
  5
290
100
AcDbEntity
  8
SEMA2D
100
AcDbLine
370
9
 62
7
  6
_SOLID
 10
3.474017079
 20
4.5363207711
 30
0
 11
3.4742900038
 21
4.552723234
 31
0
  0
LINE
  5
291
100
AcDbEntity
  8
SEMA2D
100
AcDbLine
370
9
 62
7
  6
_SOLID
 10
3.4739481276
 20
4.5158438386
 30
0
 11
3.4742202781
 21
4.532016352
 31
0
  0
LINE
  5
292
100
AcDbEntity
  8
SEMA2D
100
AcDbLine
370
9
 62
7
  6
_SOLID
 10
3.223776888
 20
4.584650925
 30
0
 11
3.2229805185
 21
4.5851971371
 31
0
  0
LINE
  5
293
100
AcDbEntity
  8
SEMA2D
100
AcDbLine
370
9
 62
7
  6
_SOLID
 10
3.4740735584
 20
4.509993978
 30
0
 11
3.4739321242
 21
4.5110912281
 31
0
  0
LINE
  5
294
100
AcDbEntity
  8
SEMA2D
100
AcDbLine
370
9
 62
7
  6
_SOLID
 10
3.4387246223
 20
4.5093676924
 30
0
 11
3.4484225203
 21
4.5110352962
 31
0
  0
LINE
  5
295
100
AcDbEntity
  8
SEMA2D
100
AcDbLine
370
9
 62
7
  6
_SOLID
 10
3.2490369477
 20
4.5105981272
 30
0
 11
3.2587237582
 21
4.5089730259
 31
0
  0
LINE
  5
296
100
AcDbEntity
  8
SEMA2D
100
AcDbLine
370
9
 62
7
  6
_SOLID
 10
3.4257226888
 20
4.2946268741
 30
0
 11
3.4003006679
 21
4.2780463343
 31
0
  0
LINE
  5
297
100
AcDbEntity
  8
SEMA2D
100
AcDbLine
370
9
 62
7
  6
_SOLID
 10
3.4267608657
 20
4.2938763006
 30
0
 11
3.4013388448
 21
4.2772957608
 31
0
  0
LINE
  5
298
100
AcDbEntity
  8
SEMA2D
100
AcDbLine
370
9
 62
7
  6
_SOLID
 10
3.4315148119
 20
4.2904393277
 30
0
 11
3.406092791
 21
4.2738587878
 31
0
  0
LINE
  5
299
100
AcDbEntity
  8
SEMA2D
100
AcDbLine
370
9
 62
7
  6
_SOLID
 10
3.2587997609
 20
4.531544025
 30
0
 11
3.2564032183
 21
4.5320415747
 31
0
  0
LINE
  5
29A
100
AcDbEntity
  8
SEMA2D
100
AcDbLine
370
9
 62
9
  6
_SOLID
 10
3.3425254556
 20
4.2034148472
 30
0
 11
3.3419746625
 21
4.2030161647
 31
0
  0
LINE
  5
29B
100
AcDbEntity
  8
SEMA2D
100
AcDbLine
370
9
 62
7
  6
_SOLID
 10
3.4381703365
 20
4.2856275655
 30
0
 11
3.4127483156
 21
4.2690470256
 31
0
  0
LINE
  5
29C
100
AcDbEntity
  8
SEMA2D
100
AcDbLine
370
9
 62
7
  6
_SOLID
 10
3.223378518
 20
4.5094443087
 30
0
 11
3.2444426398
 21
4.5105655743
 31
0
  0
LINE
  5
29D
100
AcDbEntity
  8
SEMA2D
100
AcDbLine
370
9
 62
7
  6
_SOLID
 10
3.2235273437
 20
4.5105421953
 30
0
 11
3.2453270852
 21
4.510589993
 31
0
  0
LINE
  5
29E
100
AcDbEntity
  8
SEMA2D
100
AcDbLine
370
9
 62
7
  6
_SOLID
 10
3.2490369477
 20
4.5105981272
 30
0
 11
3.2563310662
 21
4.5106141201
 31
0
  0
LINE
  5
29F
100
AcDbEntity
  8
SEMA2D
100
AcDbLine
370
9
 62
7
  6
_SOLID
 10
3.2753447663
 20
4.5106558092
 30
0
 11
3.2919602307
 21
4.51069224
 31
0
  0
LINE
  5
2A0
100
AcDbEntity
  8
SEMA2D
100
AcDbLine
370
9
 62
7
  6
_SOLID
 10
3.3002679629
 20
4.5107104553
 30
0
 11
3.3168834273
 21
4.5107468861
 31
0
  0
LINE
  5
2A1
100
AcDbEntity
  8
SEMA2D
100
AcDbLine
370
9
 62
7
  6
_SOLID
 10
3.3265757815
 20
4.5107681374
 30
0
 11
3.3431912459
 21
4.5108045681
 31
0
  0
LINE
  5
2A2
100
AcDbEntity
  8
SEMA2D
100
AcDbLine
370
9
 62
7
  6
_SOLID
 10
3.3542682221
 20
4.5108288553
 30
0
 11
3.3708836865
 21
4.5108652861
 31
0
  0
LINE
  5
2A3
100
AcDbEntity
  8
SEMA2D
100
AcDbLine
370
9
 62
7
  6
_SOLID
 10
3.3805760407
 20
4.5108865373
 30
0
 11
3.3971915051
 21
4.5109229681
 31
0
  0
LINE
  5
2A4
100
AcDbEntity
  8
SEMA2D
100
AcDbLine
370
9
 62
7
  6
_SOLID
 10
3.4054992373
 20
4.5109411835
 30
0
 11
3.4221147017
 21
4.5109776142
 31
0
  0
LINE
  5
2A5
100
AcDbEntity
  8
SEMA2D
100
AcDbLine
370
9
 62
7
  6
_SOLID
 10
3.4411284018
 20
4.5110193033
 30
0
 11
3.4484225203
 21
4.5110352962
 31
0
  0
LINE
  5
2A6
100
AcDbEntity
  8
SEMA2D
100
AcDbLine
370
9
 62
7
  6
_SOLID
 10
3.4521323828
 20
4.5110434304
 30
0
 11
3.4739321242
 21
4.5110912281
 31
0
  0
LINE
  5
2A7
100
AcDbEntity
  8
SEMA2D
100
AcDbLine
370
9
 62
7
  6
_SOLID
 10
3.2235433471
 20
4.5152948058
 30
0
 11
3.2563470696
 21
4.5153667306
 31
0
  0
LINE
  5
2A8
100
AcDbEntity
  8
SEMA2D
100
AcDbLine
370
9
 62
7
  6
_SOLID
 10
3.267180299
 20
4.5153904833
 30
0
 11
3.4303111756
 21
4.515748161
 31
0
  0
LINE
  5
2A9
100
AcDbEntity
  8
SEMA2D
100
AcDbLine
370
9
 62
7
  6
_SOLID
 10
3.4411444051
 20
4.5157719138
 30
0
 11
3.4739481276
 21
4.5158438386
 31
0
  0
LINE
  5
2AA
100
AcDbEntity
  8
SEMA2D
100
AcDbLine
370
9
 62
7
  6
_SOLID
 10
3.4530166768
 20
4.5110228898
 30
0
 11
3.4740735584
 21
4.509993978
 31
0
  0
LINE
  5
2AB
100
AcDbEntity
  8
SEMA2D
100
AcDbLine
370
9
 62
7
  6
_SOLID
 10
3.2588694866
 20
4.552250907
 30
0
 11
3.256473633
 21
4.5529530608
 31
0
  0
LINE
  5
2AC
100
AcDbEntity
  8
SEMA2D
100
AcDbLine
370
9
 62
7
  6
_SOLID
 10
3.4742202781
 20
4.532016352
 30
0
 11
3.4740042763
 21
4.5325186827
 31
0
  0
LINE
  5
2AD
100
AcDbEntity
  8
SEMA2D
100
AcDbLine
370
9
 62
7
  6
_SOLID
 10
3.4742900038
 20
4.552723234
 30
0
 11
3.474074691
 21
4.5534301688
 31
0
  0
LINE
  5
2AE
100
AcDbEntity
  8
SEMA2D
100
AcDbLine
370
9
 62
7
  6
_SOLID
 10
3.4743604185
 20
4.5736347201
 30
0
 11
3.4741451057
 21
4.5743416549
 31
0
  0
LINE
  5
2AF
100
AcDbEntity
  8
SEMA2D
100
AcDbLine
370
9
 62
7
  6
_SOLID
 10
3.429987495
 20
4.2537384376
 30
0
 11
3.3528638771
 21
4.203437515
 31
0
  0
LINE
  5
2B0
100
AcDbEntity
  8
SEMA2D
100
AcDbLine
370
9
 62
7
  6
_SOLID
 10
3.4653086306
 20
4.2760215396
 30
0
 11
3.3534119934
 21
4.203041242
 31
0
  0
LINE
  5
2B1
100
AcDbEntity
  8
SEMA2D
100
AcDbLine
370
9
 62
7
  6
_SOLID
 10
3.4659488835
 20
4.2754584873
 30
0
 11
3.3545094664
 21
4.2027763939
 31
0
  0
LINE
  5
2B2
100
AcDbEntity
  8
SEMA2D
100
AcDbLine
370
9
 62
7
  6
_SOLID
 10
3.461816061
 20
4.2744334327
 30
0
 11
3.4648209314
 21
4.2763741328
 31
0
  0
LINE
  5
2B3
100
AcDbEntity
  8
SEMA2D
100
AcDbLine
370
9
 62
7
  6
_SOLID
 10
3.2233801078
 20
4.5314663645
 30
0
 11
3.2587997609
 21
4.531544025
 31
0
  0
LINE
  5
2B4
100
AcDbEntity
  8
SEMA2D
100
AcDbLine
370
9
 62
7
  6
_SOLID
 10
3.2657228711
 20
4.5315592045
 30
0
 11
3.4318775149
 21
4.531923512
 31
0
  0
LINE
  5
2B5
100
AcDbEntity
  8
SEMA2D
100
AcDbLine
370
9
 62
7
  6
_SOLID
 10
3.438800625
 20
4.5319386915
 30
0
 11
3.4742202781
 21
4.532016352
 31
0
  0
LINE
  5
2B6
100
AcDbEntity
  8
SEMA2D
100
AcDbLine
370
9
 62
7
  6
_SOLID
 10
3.2235994958
 20
4.5319696499
 30
0
 11
3.2564032183
 21
4.5320415747
 31
0
  0
LINE
  5
2B7
100
AcDbEntity
  8
SEMA2D
100
AcDbLine
370
9
 62
7
  6
_SOLID
 10
3.2672364478
 20
4.5320653275
 30
0
 11
3.4303673244
 21
4.5324230052
 31
0
  0
LINE
  5
2B8
100
AcDbEntity
  8
SEMA2D
100
AcDbLine
370
9
 62
7
  6
_SOLID
 10
3.4412005538
 20
4.5324467579
 30
0
 11
3.4740042763
 21
4.5325186827
 31
0
  0
LINE
  5
2B9
100
AcDbEntity
  8
SEMA2D
100
AcDbLine
370
9
 62
7
  6
_SOLID
 10
3.2236122985
 20
4.5357717383
 30
0
 11
3.256416021
 21
4.5358436631
 31
0
  0
LINE
  5
2BA
100
AcDbEntity
  8
SEMA2D
100
AcDbLine
370
9
 62
7
  6
_SOLID
 10
3.2672492505
 20
4.5358674159
 30
0
 11
3.3349684684
 21
4.5360158957
 31
0
  0
LINE
  5
2BB
100
AcDbEntity
  8
SEMA2D
100
AcDbLine
370
9
 62
7
  6
_SOLID
 10
3.3626609091
 20
4.5360766137
 30
0
 11
3.430380127
 21
4.5362250935
 31
0
  0
LINE
  5
2BC
100
AcDbEntity
  8
SEMA2D
100
AcDbLine
370
9
 62
7
  6
_SOLID
 10
3.4412133565
 20
4.5362488463
 30
0
 11
3.474017079
 21
4.5363207711
 31
0
  0
LINE
  5
2BD
100
AcDbEntity
  8
SEMA2D
100
AcDbLine
370
9
 62
7
  6
_SOLID
 10
3.3651143747
 20
4.5524838576
 30
0
 11
3.3627185211
 21
4.5531860114
 31
0
  0
LINE
  5
2BE
100
AcDbEntity
  8
SEMA2D
100
AcDbLine
370
9
 62
7
  6
_SOLID
 10
3.4303673244
 20
4.5324230052
 30
0
 11
3.4318775149
 21
4.531923512
 31
0
  0
LINE
  5
2BF
100
AcDbEntity
  8
SEMA2D
100
AcDbLine
370
9
 62
7
  6
_SOLID
 10
3.4319472406
 20
4.5526303941
 30
0
 11
3.3651143747
 21
4.5524838576
 31
0
  0
LINE
  5
2C0
100
AcDbEntity
  8
SEMA2D
100
AcDbLine
370
9
 62
7
  6
_SOLID
 10
3.3326254627
 20
4.552412623
 30
0
 11
3.2657925968
 21
4.5522660865
 31
0
  0
LINE
  5
2C1
100
AcDbEntity
  8
SEMA2D
100
AcDbLine
370
9
 62
7
  6
_SOLID
 10
3.2588694866
 20
4.552250907
 30
0
 11
3.2234498335
 21
4.5521732466
 31
0
  0
LINE
  5
2C2
100
AcDbEntity
  8
SEMA2D
100
AcDbLine
370
9
 62
7
  6
_SOLID
 10
3.4388703507
 20
4.5526455736
 30
0
 11
3.4742900038
 21
4.552723234
 31
0
  0
LINE
  5
2C3
100
AcDbEntity
  8
SEMA2D
100
AcDbLine
370
9
 62
7
  6
_SOLID
 10
3.2236699105
 20
4.552881136
 30
0
 11
3.256473633
 21
4.5529530608
 31
0
  0
LINE
  5
2C4
100
AcDbEntity
  8
SEMA2D
100
AcDbLine
370
9
 62
7
  6
_SOLID
 10
3.2673068625
 20
4.5529768136
 30
0
 11
3.3350260804
 21
4.5531252935
 31
0
  0
LINE
  5
2C5
100
AcDbEntity
  8
SEMA2D
100
AcDbLine
370
9
 62
7
  6
_SOLID
 10
3.3627185211
 20
4.5531860114
 30
0
 11
3.430437739
 21
4.5533344913
 31
0
  0
LINE
  5
2C6
100
AcDbEntity
  8
SEMA2D
100
AcDbLine
370
9
 62
7
  6
_SOLID
 10
3.4412709685
 20
4.553358244
 30
0
 11
3.474074691
 21
4.5534301688
 31
0
  0
LINE
  5
2C7
100
AcDbEntity
  8
SEMA2D
100
AcDbLine
370
9
 62
7
  6
_SOLID
 10
3.2236827132
 20
4.5566832244
 30
0
 11
3.2564864356
 21
4.5567551492
 31
0
  0
LINE
  5
2C8
100
AcDbEntity
  8
SEMA2D
100
AcDbLine
370
9
 62
7
  6
_SOLID
 10
3.2673196651
 20
4.556778902
 30
0
 11
3.4304505417
 21
4.5571365796
 31
0
  0
LINE
  5
2C9
100
AcDbEntity
  8
SEMA2D
100
AcDbLine
370
9
 62
7
  6
_SOLID
 10
3.4412837712
 20
4.5571603324
 30
0
 11
3.4740874937
 21
4.5572322572
 31
0
  0
LINE
  5
2CA
100
AcDbEntity
  8
SEMA2D
100
AcDbLine
370
9
 62
7
  6
_SOLID
 10
3.430437739
 20
4.5533344913
 30
0
 11
3.4319472406
 21
4.5526303941
 31
0
  0
LINE
  5
2CB
100
AcDbEntity
  8
SEMA2D
100
AcDbLine
370
9
 62
7
  6
_SOLID
 10
3.2235202482
 20
4.5730847327
 30
0
 11
3.4743604185
 21
4.5736347201
 31
0
  0
LINE
  5
2CC
100
AcDbEntity
  8
SEMA2D
100
AcDbLine
370
9
 62
7
  6
_SOLID
 10
3.2237403252
 20
4.5737926221
 30
0
 11
3.4741451057
 21
4.5743416549
 31
0
  0
LINE
  5
2CD
100
AcDbEntity
  8
SEMA2D
100
AcDbLine
370
9
 62
7
  6
_SOLID
 10
3.223776888
 20
4.584650925
 30
0
 11
3.4741816685
 21
4.5851999578
 31
0
  0
LINE
  5
2CE
100
AcDbEntity
  8
SEMA2D
100
AcDbLine
370
9
 62
7
  6
_SOLID
 10
3.2229805185
 20
4.5851971371
 30
0
 11
3.4749817283
 21
4.5857496702
 31
0
  0
LINE
  5
2CF
100
AcDbEntity
  8
SEMA2D
100
AcDbLine
370
9
 62
7
  6
_SOLID
 10
3.2214444614
 20
4.5859066555
 30
0
 11
3.4760225953
 21
4.5864648387
 31
0
  0
LINE
  5
2D0
100
AcDbEntity
  8
SEMA2D
100
AcDbLine
370
9
 62
7
  6
_SOLID
 10
3.26606982332164
 20
4.25316334944649
 30
0
 11
3.2500773391282
 21
4.26356081617538
 31
0
  0
LINE
  5
2D1
100
AcDbEntity
  8
SEMA2D
100
AcDbLine
370
9
 62
7
  6
_SOLID
 10
3.2500773391282
 20
4.26356081617538
 30
0
 11
3.23404979171684
 21
4.27393403658658
 31
0
  0
LINE
  5
2D2
100
AcDbEntity
  8
SEMA2D
100
AcDbLine
370
9
 62
7
  6
_SOLID
 10
3.46181606107848
 20
4.27443343276737
 30
0
 11
3.4458845037536
 21
4.26409786352367
 31
0
  0
LINE
  5
2D3
100
AcDbEntity
  8
SEMA2D
100
AcDbLine
370
9
 62
7
  6
_SOLID
 10
3.4458845037536
 20
4.26409786352367
 30
0
 11
3.42998749607764
 21
4.25373844276119
 31
0
  0
LINE
  5
2D4
100
AcDbEntity
  8
SEMA2D
100
AcDbLine
370
9
 62
7
  6
_SOLID
 10
3.34161215810967
 20
4.20901946849707
 30
0
 11
3.33649841125885
 21
4.21734970751635
 31
0
  0
LINE
  5
2D5
100
AcDbEntity
  8
SEMA2D
100
AcDbLine
370
9
 62
7
  6
_SOLID
 10
3.33649841125885
 20
4.21734970751635
 30
0
 11
3.33071672128171
 21
4.22547957012781
 31
0
  0
LINE
  5
2D6
100
AcDbEntity
  8
SEMA2D
100
AcDbLine
370
9
 62
7
  6
_SOLID
 10
3.33071672128171
 20
4.22547957012781
 30
0
 11
3.32428408024464
 21
4.23338516311581
 31
0
  0
LINE
  5
2D7
100
AcDbEntity
  8
SEMA2D
100
AcDbLine
370
9
 62
7
  6
_SOLID
 10
3.32428408024464
 20
4.23338516311581
 30
0
 11
3.31721939332314
 21
4.24104325238071
 31
0
  0
LINE
  5
2D8
100
AcDbEntity
  8
SEMA2D
100
AcDbLine
370
9
 62
7
  6
_SOLID
 10
3.31721939332314
 20
4.24104325238071
 30
0
 11
3.30954342324053
 21
4.2484313312226
 31
0
  0
LINE
  5
2D9
100
AcDbEntity
  8
SEMA2D
100
AcDbLine
370
9
 62
7
  6
_SOLID
 10
3.30954342324053
 20
4.2484313312226
 30
0
 11
3.30127872924745
 21
4.25552768648723
 31
0
  0
LINE
  5
2DA
100
AcDbEntity
  8
SEMA2D
100
AcDbLine
370
9
 62
7
  6
_SOLID
 10
3.30127872924745
 20
4.25552768648723
 30
0
 11
3.2924496008215
 21
4.26231146237978
 31
0
  0
LINE
  5
2DB
100
AcDbEntity
  8
SEMA2D
100
AcDbLine
370
9
 62
7
  6
_SOLID
 10
3.2924496008215
 20
4.26231146237978
 30
0
 11
3.28308198628178
 21
4.26876272175888
 31
0
  0
LINE
  5
2DC
100
AcDbEntity
  8
SEMA2D
100
AcDbLine
370
9
 62
7
  6
_SOLID
 10
3.41274831563259
 20
4.26904702563891
 30
0
 11
3.40333711615546
 21
4.26255459218314
 31
0
  0
LINE
  5
2DD
100
AcDbEntity
  8
SEMA2D
100
AcDbLine
370
9
 62
7
  6
_SOLID
 10
3.40333711615546
 20
4.26255459218314
 30
0
 11
3.39446217137967
 21
4.25573199867055
 31
0
  0
LINE
  5
2DE
100
AcDbEntity
  8
SEMA2D
100
AcDbLine
370
9
 62
7
  6
_SOLID
 10
3.39446217137967
 20
4.25573199867055
 30
0
 11
3.38614956427607
 21
4.24859929632534
 31
0
  0
LINE
  5
2DF
100
AcDbEntity
  8
SEMA2D
100
AcDbLine
370
9
 62
7
  6
_SOLID
 10
3.38614956427607
 20
4.24859929632534
 30
0
 11
3.37842372513621
 21
4.24117744776438
 31
0
  0
LINE
  5
2E0
100
AcDbEntity
  8
SEMA2D
100
AcDbLine
370
9
 62
7
  6
_SOLID
 10
3.37842372513621
 20
4.24117744776438
 30
0
 11
3.37130735977313
 21
4.23348826538926
 31
0
  0
LINE
  5
2E1
100
AcDbEntity
  8
SEMA2D
100
AcDbLine
370
9
 62
7
  6
_SOLID
 10
3.37130735977313
 20
4.23348826538926
 30
0
 11
3.36482138279023
 21
4.22555434728082
 31
0
  0
LINE
  5
2E2
100
AcDbEntity
  8
SEMA2D
100
AcDbLine
370
9
 62
7
  6
_SOLID
 10
3.36482138279023
 20
4.22555434728082
 30
0
 11
3.3589848561144
 21
4.21739901078465
 31
0
  0
LINE
  5
2E3
100
AcDbEntity
  8
SEMA2D
100
AcDbLine
370
9
 62
7
  6
_SOLID
 10
3.3589848561144
 20
4.21739901078465
 30
0
 11
3.35381493297404
 21
4.20904622398273
 31
0
  0
LINE
  5
2E4
100
AcDbEntity
  8
SEMA2D
100
AcDbLine
370
9
 62
7
  6
_SOLID
 10
3.3422669449189
 20
4.23630909381957
 30
0
 11
3.33897136393567
 21
4.24235161498562
 31
0
  0
LINE
  5
2E5
100
AcDbEntity
  8
SEMA2D
100
AcDbLine
370
9
 62
7
  6
_SOLID
 10
3.33897136393567
 20
4.24235161498562
 30
0
 11
3.3351694531028
 21
4.24825760245493
 31
0
  0
LINE
  5
2E6
100
AcDbEntity
  8
SEMA2D
100
AcDbLine
370
9
 62
7
  6
_SOLID
 10
3.3351694531028
 20
4.24825760245493
 30
0
 11
3.33087340254016
 21
4.25400811977726
 31
0
  0
LINE
  5
2E7
100
AcDbEntity
  8
SEMA2D
100
AcDbLine
370
9
 62
7
  6
_SOLID
 10
3.36485682746792
 20
4.25408263112016
 30
0
 11
3.36052198606675
 21
4.24831318986537
 31
0
  0
LINE
  5
2E8
100
AcDbEntity
  8
SEMA2D
100
AcDbLine
370
9
 62
7
  6
_SOLID
 10
3.36052198606675
 20
4.24831318986537
 30
0
 11
3.35668024466349
 21
4.24239044306699
 31
0
  0
LINE
  5
2E9
100
AcDbEntity
  8
SEMA2D
100
AcDbLine
370
9
 62
7
  6
_SOLID
 10
3.35668024466349
 20
4.24239044306699
 30
0
 11
3.35334392108733
 21
4.23633338091092
 31
0
  0
LINE
  5
2EA
100
AcDbEntity
  8
SEMA2D
100
AcDbLine
370
9
 62
7
  6
_SOLID
 10
3.31607054276188
 20
4.26933947202637
 30
0
 11
3.31163848756536
 21
4.27303108463505
 31
0
  0
LINE
  5
2EB
100
AcDbEntity
  8
SEMA2D
100
AcDbLine
370
9
 62
7
  6
_SOLID
 10
3.31163848756536
 20
4.27303108463505
 30
0
 11
3.30697502442694
 21
4.27659222566878
 31
0
  0
LINE
  5
2EC
100
AcDbEntity
  8
SEMA2D
100
AcDbLine
370
9
 62
7
  6
_SOLID
 10
3.38890765317394
 20
4.27677186959728
 30
0
 11
3.38422013833314
 21
4.27319022578676
 31
0
  0
LINE
  5
2ED
100
AcDbEntity
  8
SEMA2D
100
AcDbLine
370
9
 62
7
  6
_SOLID
 10
3.38422013833314
 20
4.27319022578676
 30
0
 11
3.37976315617807
 21
4.26947912324354
 31
0
  0
LINE
  5
2EE
100
AcDbEntity
  8
SEMA2D
100
AcDbLine
370
9
 62
7
  6
_SOLID
 10
3.29120595426647
 20
4.28669005689448
 30
0
 11
3.28623525365548
 21
4.28936463434395
 31
0
  0
LINE
  5
2EF
100
AcDbEntity
  8
SEMA2D
100
AcDbLine
370
9
 62
7
  6
_SOLID
 10
3.28623525365548
 20
4.28936463434395
 30
0
 11
3.28111176740263
 21
4.29190694008475
 31
0
  0
LINE
  5
2F0
100
AcDbEntity
  8
SEMA2D
100
AcDbLine
370
9
 62
7
  6
_SOLID
 10
3.41487443047911
 20
4.29220022558309
 30
0
 11
3.40973374717441
 21
4.28963541481681
 31
0
  0
LINE
  5
2F1
100
AcDbEntity
  8
SEMA2D
100
AcDbLine
370
9
 62
7
  6
_SOLID
 10
3.40973374717441
 20
4.28963541481681
 30
0
 11
3.40474496097133
 21
4.28693900038351
 31
0
  0
LINE
  5
2F2
100
AcDbEntity
  8
SEMA2D
100
AcDbLine
370
9
 62
7
  6
_SOLID
 10
3.4530166768232
 20
4.51102288981047
 30
0
 11
3.45257531749325
 21
4.51103877969546
 31
0
  0
LINE
  5
2F3
100
AcDbEntity
  8
SEMA2D
100
AcDbLine
370
9
 62
7
  6
_SOLID
 10
3.45257531749325
 20
4.51103877969546
 30
0
 11
3.4521332832
 21
4.5110434324
 31
0
  0
LINE
  5
2F4
100
AcDbEntity
  8
SEMA2D
100
AcDbLine
370
9
 62
7
  6
_SOLID
 10
3.2453261812
 20
4.5105899911
 30
0
 11
3.24488411085703
 21
4.51058339992173
 31
0
  0
LINE
  5
2F5
100
AcDbEntity
  8
SEMA2D
100
AcDbLine
370
9
 62
7
  6
_SOLID
 10
3.24488411085703
 20
4.51058339992173
 30
0
 11
3.24444263981204
 21
4.51056557435692
 31
0
  0
LINE
  5
2F6
100
AcDbEntity
  8
SEMA2D
100
AcDbLine
370
9
 62
7
  6
_SOLID
 10
3.2746369042
 20
4.3004375493
 30
0
 11
3.2746623186
 21
4.2998160927
 31
0
  0
LINE
  5
2F7
100
AcDbEntity
  8
SEMA2D
100
AcDbLine
370
9
 62
7
  6
_SOLID
 10
3.2746623186
 20
4.2998160927
 30
0
 11
3.274742309
 21
4.2991960917
 31
0
  0
LINE
  5
2F8
100
AcDbEntity
  8
SEMA2D
100
AcDbLine
370
9
 62
7
  6
_SOLID
 10
3.274742309
 20
4.2991960917
 30
0
 11
3.2748762193
 21
4.2985799405
 31
0
  0
LINE
  5
2F9
100
AcDbEntity
  8
SEMA2D
100
AcDbLine
370
9
 62
7
  6
_SOLID
 10
3.2748762193
 20
4.2985799405
 30
0
 11
3.2750633933
 21
4.2979700335
 31
0
  0
LINE
  5
2FA
100
AcDbEntity
  8
SEMA2D
100
AcDbLine
370
9
 62
7
  6
_SOLID
 10
3.2750633933
 20
4.2979700335
 30
0
 11
3.2750680691
 21
4.2979568051
 31
0
  0
LINE
  5
2FB
100
AcDbEntity
  8
SEMA2D
100
AcDbLine
370
9
 62
7
  6
_SOLID
 10
3.2750680691
 20
4.2979568051
 30
0
 11
3.2753031669
 21
4.2973687345
 31
0
  0
LINE
  5
2FC
100
AcDbEntity
  8
SEMA2D
100
AcDbLine
370
9
 62
7
  6
_SOLID
 10
3.2753031669
 20
4.2973687345
 30
0
 11
3.2755948424
 21
4.2967782777
 31
0
  0
LINE
  5
2FD
100
AcDbEntity
  8
SEMA2D
100
AcDbLine
370
9
 62
7
  6
_SOLID
 10
3.2755948424
 20
4.2967782777
 30
0
 11
3.2759377131
 21
4.2962008626
 31
0
  0
LINE
  5
2FE
100
AcDbEntity
  8
SEMA2D
100
AcDbLine
370
9
 62
7
  6
_SOLID
 10
3.2759377131
 20
4.2962008626
 30
0
 11
3.2763310722
 21
4.2956386888
 31
0
  0
LINE
  5
2FF
100
AcDbEntity
  8
SEMA2D
100
AcDbLine
370
9
 62
7
  6
_SOLID
 10
3.2763310722
 20
4.2956386888
 30
0
 11
3.2763445766
 21
4.2956208554
 31
0
  0
LINE
  5
300
100
AcDbEntity
  8
SEMA2D
100
AcDbLine
370
9
 62
7
  6
_SOLID
 10
3.2763445766
 20
4.2956208554
 30
0
 11
3.2767740067
 21
4.2950938756
 31
0
  0
LINE
  5
301
100
AcDbEntity
  8
SEMA2D
100
AcDbLine
370
9
 62
7
  6
_SOLID
 10
3.2767740067
 20
4.2950938756
 30
0
 11
3.2772646944
 21
4.2945681891
 31
0
  0
LINE
  5
302
100
AcDbEntity
  8
SEMA2D
100
AcDbLine
370
9
 62
7
  6
_SOLID
 10
3.2772646944
 20
4.2945681891
 30
0
 11
3.2772821062
 21
4.2945507581
 31
0
  0
LINE
  5
303
100
AcDbEntity
  8
SEMA2D
100
AcDbLine
370
9
 62
7
  6
_SOLID
 10
3.2772821062
 20
4.2945507581
 30
0
 11
3.2778012102
 21
4.2940632416
 31
0
  0
LINE
  5
304
100
AcDbEntity
  8
SEMA2D
100
AcDbLine
370
9
 62
7
  6
_SOLID
 10
3.2778012102
 20
4.2940632416
 30
0
 11
3.2783822825
 21
4.2935803938
 31
0
  0
LINE
  5
305
100
AcDbEntity
  8
SEMA2D
100
AcDbLine
370
9
 62
7
  6
_SOLID
 10
3.2783822825
 20
4.2935803938
 30
0
 11
3.2784007978
 21
4.293565947
 31
0
  0
LINE
  5
306
100
AcDbEntity
  8
SEMA2D
100
AcDbLine
370
9
 62
7
  6
_SOLID
 10
3.2784007978
 20
4.293565947
 30
0
 11
3.2790065502
 21
4.2931210991
 31
0
  0
LINE
  5
307
100
AcDbEntity
  8
SEMA2D
100
AcDbLine
370
9
 62
7
  6
_SOLID
 10
3.2790065502
 20
4.2931210991
 30
0
 11
3.2796714674
 21
4.2926875202
 31
0
  0
LINE
  5
308
100
AcDbEntity
  8
SEMA2D
100
AcDbLine
370
9
 62
7
  6
_SOLID
 10
3.2796714674
 20
4.2926875202
 30
0
 11
3.2803741634
 21
4.2922820148
 31
0
  0
LINE
  5
309
100
AcDbEntity
  8
SEMA2D
100
AcDbLine
370
9
 62
7
  6
_SOLID
 10
3.2803741634
 20
4.2922820148
 30
0
 11
3.2811117675
 21
4.2919069401
 31
0
  0
LINE
  5
30A
100
AcDbEntity
  8
SEMA2D
100
AcDbLine
370
9
 62
7
  6
_SOLID
 10
3.2995233631
 20
4.2895819736
 30
0
 11
3.2995966406
 21
4.2881627168
 31
0
  0
LINE
  5
30B
100
AcDbEntity
  8
SEMA2D
100
AcDbLine
370
9
 62
7
  6
_SOLID
 10
3.2995966406
 20
4.2881627168
 30
0
 11
3.2998252001
 21
4.2867475116
 31
0
  0
LINE
  5
30C
100
AcDbEntity
  8
SEMA2D
100
AcDbLine
370
9
 62
7
  6
_SOLID
 10
3.2998252001
 20
4.2867475116
 30
0
 11
3.3002078035
 21
4.2853450304
 31
0
  0
LINE
  5
30D
100
AcDbEntity
  8
SEMA2D
100
AcDbLine
370
9
 62
7
  6
_SOLID
 10
3.3002078035
 20
4.2853450304
 30
0
 11
3.3007432127
 21
4.2839639451
 31
0
  0
LINE
  5
30E
100
AcDbEntity
  8
SEMA2D
100
AcDbLine
370
9
 62
7
  6
_SOLID
 10
3.3007432127
 20
4.2839639451
 30
0
 11
3.3014301895
 21
4.2826129279
 31
0
  0
LINE
  5
30F
100
AcDbEntity
  8
SEMA2D
100
AcDbLine
370
9
 62
7
  6
_SOLID
 10
3.3014301895
 20
4.2826129279
 30
0
 11
3.3014417689
 21
4.2825927141
 31
0
  0
LINE
  5
310
100
AcDbEntity
  8
SEMA2D
100
AcDbLine
370
9
 62
7
  6
_SOLID
 10
3.3014417689
 20
4.2825927141
 30
0
 11
3.3022665688
 21
4.2813004953
 31
0
  0
LINE
  5
311
100
AcDbEntity
  8
SEMA2D
100
AcDbLine
370
9
 62
7
  6
_SOLID
 10
3.3022665688
 20
4.2813004953
 30
0
 11
3.3032463039
 21
4.2800345133
 31
0
  0
LINE
  5
312
100
AcDbEntity
  8
SEMA2D
100
AcDbLine
370
9
 62
7
  6
_SOLID
 10
3.3032463039
 20
4.2800345133
 30
0
 11
3.3043623329
 21
4.2788226773
 31
0
  0
LINE
  5
313
100
AcDbEntity
  8
SEMA2D
100
AcDbLine
370
9
 62
7
  6
_SOLID
 10
3.3043623329
 20
4.2788226773
 30
0
 11
3.3056075938
 21
4.2776726829
 31
0
  0
LINE
  5
314
100
AcDbEntity
  8
SEMA2D
100
AcDbLine
370
9
 62
7
  6
_SOLID
 10
3.3056075938
 20
4.2776726829
 30
0
 11
3.3069750244
 21
4.2765922257
 31
0
  0
LINE
  5
315
100
AcDbEntity
  8
SEMA2D
100
AcDbLine
370
9
 62
7
  6
_SOLID
 10
3.325757522
 20
4.2677644836
 30
0
 11
3.3258059545
 21
4.2663339615
 31
0
  0
LINE
  5
316
100
AcDbEntity
  8
SEMA2D
100
AcDbLine
370
9
 62
7
  6
_SOLID
 10
3.3258059545
 20
4.2663339615
 30
0
 11
3.3259602123
 21
4.2649054846
 31
0
  0
LINE
  5
317
100
AcDbEntity
  8
SEMA2D
100
AcDbLine
370
9
 62
7
  6
_SOLID
 10
3.3259602123
 20
4.2649054846
 30
0
 11
3.326219287
 21
4.2634828537
 31
0
  0
LINE
  5
318
100
AcDbEntity
  8
SEMA2D
100
AcDbLine
370
9
 62
7
  6
_SOLID
 10
3.326219287
 20
4.2634828537
 30
0
 11
3.3265821706
 21
4.2620698694
 31
0
  0
LINE
  5
319
100
AcDbEntity
  8
SEMA2D
100
AcDbLine
370
9
 62
7
  6
_SOLID
 10
3.3265821706
 20
4.2620698694
 30
0
 11
3.3270478548
 21
4.2606703323
 31
0
  0
LINE
  5
31A
100
AcDbEntity
  8
SEMA2D
100
AcDbLine
370
9
 62
7
  6
_SOLID
 10
3.3270478548
 20
4.2606703323
 30
0
 11
3.3270515705
 21
4.260660334
 31
0
  0
LINE
  5
31B
100
AcDbEntity
  8
SEMA2D
100
AcDbLine
370
9
 62
7
  6
_SOLID
 10
3.3270515705
 20
4.260660334
 30
0
 11
3.3276152561
 21
4.2592880489
 31
0
  0
LINE
  5
31C
100
AcDbEntity
  8
SEMA2D
100
AcDbLine
370
9
 62
7
  6
_SOLID
 10
3.3276152561
 20
4.2592880489
 30
0
 11
3.3282829823
 21
4.2579268496
 31
0
  0
LINE
  5
31D
100
AcDbEntity
  8
SEMA2D
100
AcDbLine
370
9
 62
7
  6
_SOLID
 10
3.3282829823
 20
4.2579268496
 30
0
 11
3.3290495626
 21
4.2565905707
 31
0
  0
LINE
  5
31E
100
AcDbEntity
  8
SEMA2D
100
AcDbLine
370
9
 62
7
  6
_SOLID
 10
3.3290495626
 20
4.2565905707
 30
0
 11
3.3299135263
 21
4.2552830486
 31
0
  0
LINE
  5
31F
100
AcDbEntity
  8
SEMA2D
100
AcDbLine
370
9
 62
7
  6
_SOLID
 10
3.3299135263
 20
4.2552830486
 30
0
 11
3.3308734025
 21
4.2540081198
 31
0
  0
LINE
  5
320
100
AcDbEntity
  8
SEMA2D
100
AcDbLine
370
9
 62
7
  6
_SOLID
 10
3.370065427
 20
4.2678616323
 30
0
 11
3.3700073598
 21
4.2664308766
 31
0
  0
LINE
  5
321
100
AcDbEntity
  8
SEMA2D
100
AcDbLine
370
9
 62
7
  6
_SOLID
 10
3.3700073598
 20
4.2664308766
 30
0
 11
3.3698434796
 21
4.2650017022
 31
0
  0
LINE
  5
322
100
AcDbEntity
  8
SEMA2D
100
AcDbLine
370
9
 62
7
  6
_SOLID
 10
3.3698434796
 20
4.2650017022
 30
0
 11
3.3695748201
 21
4.2635779142
 31
0
  0
LINE
  5
323
100
AcDbEntity
  8
SEMA2D
100
AcDbLine
370
9
 62
7
  6
_SOLID
 10
3.3695748201
 20
4.2635779142
 30
0
 11
3.3692024153
 21
4.2621633177
 31
0
  0
LINE
  5
324
100
AcDbEntity
  8
SEMA2D
100
AcDbLine
370
9
 62
7
  6
_SOLID
 10
3.3692024153
 20
4.2621633177
 30
0
 11
3.3687272989
 21
4.2607617179
 31
0
  0
LINE
  5
325
100
AcDbEntity
  8
SEMA2D
100
AcDbLine
370
9
 62
7
  6
_SOLID
 10
3.3687272989
 20
4.2607617179
 30
0
 11
3.3687235159
 21
4.2607517031
 31
0
  0
LINE
  5
326
100
AcDbEntity
  8
SEMA2D
100
AcDbLine
370
9
 62
7
  6
_SOLID
 10
3.3687235159
 20
4.2607517031
 30
0
 11
3.3681505802
 21
4.2593769259
 31
0
  0
LINE
  5
327
100
AcDbEntity
  8
SEMA2D
100
AcDbLine
370
9
 62
7
  6
_SOLID
 10
3.3681505802
 20
4.2593769259
 30
0
 11
3.367473677
 21
4.2580127784
 31
0
  0
LINE
  5
328
100
AcDbEntity
  8
SEMA2D
100
AcDbLine
370
9
 62
7
  6
_SOLID
 10
3.367473677
 20
4.2580127784
 30
0
 11
3.366698086
 21
4.2566731182
 31
0
  0
LINE
  5
329
100
AcDbEntity
  8
SEMA2D
100
AcDbLine
370
9
 62
7
  6
_SOLID
 10
3.366698086
 20
4.2566731182
 30
0
 11
3.3658253039
 21
4.2553617881
 31
0
  0
LINE
  5
32A
100
AcDbEntity
  8
SEMA2D
100
AcDbLine
370
9
 62
7
  6
_SOLID
 10
3.3658253039
 20
4.2553617881
 30
0
 11
3.3648568275
 21
4.2540826312
 31
0
  0
LINE
  5
32B
100
AcDbEntity
  8
SEMA2D
100
AcDbLine
370
9
 62
7
  6
_SOLID
 10
3.3964469053
 20
4.2897944864
 30
0
 11
3.3963640685
 21
4.2883748872
 31
0
  0
LINE
  5
32C
100
AcDbEntity
  8
SEMA2D
100
AcDbLine
370
9
 62
7
  6
_SOLID
 10
3.3963640685
 20
4.2883748872
 30
0
 11
3.3961259748
 21
4.2869586589
 31
0
  0
LINE
  5
32D
100
AcDbEntity
  8
SEMA2D
100
AcDbLine
370
9
 62
7
  6
_SOLID
 10
3.3961259748
 20
4.2869586589
 30
0
 11
3.3957339206
 21
4.2855544792
 31
0
  0
LINE
  5
32E
100
AcDbEntity
  8
SEMA2D
100
AcDbLine
370
9
 62
7
  6
_SOLID
 10
3.3957339206
 20
4.2855544792
 30
0
 11
3.3951892025
 21
4.2841710256
 31
0
  0
LINE
  5
32F
100
AcDbEntity
  8
SEMA2D
100
AcDbLine
370
9
 62
7
  6
_SOLID
 10
3.3951892025
 20
4.2841710256
 30
0
 11
3.394493117
 21
4.2828169759
 31
0
  0
LINE
  5
330
100
AcDbEntity
  8
SEMA2D
100
AcDbLine
370
9
 62
7
  6
_SOLID
 10
3.394493117
 20
4.2828169759
 30
0
 11
3.3944814013
 21
4.282796711
 31
0
  0
LINE
  5
331
100
AcDbEntity
  8
SEMA2D
100
AcDbLine
370
9
 62
7
  6
_SOLID
 10
3.3944814013
 20
4.282796711
 30
0
 11
3.3936478867
 21
4.2815008563
 31
0
  0
LINE
  5
332
100
AcDbEntity
  8
SEMA2D
100
AcDbLine
370
9
 62
7
  6
_SOLID
 10
3.3936478867
 20
4.2815008563
 30
0
 11
3.3926596112
 21
4.2802305592
 31
0
  0
LINE
  5
333
100
AcDbEntity
  8
SEMA2D
100
AcDbLine
370
9
 62
7
  6
_SOLID
 10
3.3926596112
 20
4.2802305592
 30
0
 11
3.3915354044
 21
4.2790138113
 31
0
  0
LINE
  5
334
100
AcDbEntity
  8
SEMA2D
100
AcDbLine
370
9
 62
7
  6
_SOLID
 10
3.3915354044
 20
4.2790138113
 30
0
 11
3.3902823805
 21
4.2778583393
 31
0
  0
LINE
  5
335
100
AcDbEntity
  8
SEMA2D
100
AcDbLine
370
9
 62
7
  6
_SOLID
 10
3.3902823805
 20
4.2778583393
 30
0
 11
3.3889076532
 21
4.2767718696
 31
0
  0
LINE
  5
336
100
AcDbEntity
  8
SEMA2D
100
AcDbLine
370
9
 62
7
  6
_SOLID
 10
3.4214068395
 20
4.3007593543
 30
0
 11
3.4213772395
 21
4.3001377771
 31
0
  0
LINE
  5
337
100
AcDbEntity
  8
SEMA2D
100
AcDbLine
370
9
 62
7
  6
_SOLID
 10
3.4213772395
 20
4.3001377771
 30
0
 11
3.4212930724
 21
4.2995174162
 31
0
  0
LINE
  5
338
100
AcDbEntity
  8
SEMA2D
100
AcDbLine
370
9
 62
7
  6
_SOLID
 10
3.4212930724
 20
4.2995174162
 30
0
 11
3.4211550106
 21
4.2989006687
 31
0
  0
LINE
  5
339
100
AcDbEntity
  8
SEMA2D
100
AcDbLine
370
9
 62
7
  6
_SOLID
 10
3.4211550106
 20
4.2989006687
 30
0
 11
3.4209637264
 21
4.2982899318
 31
0
  0
LINE
  5
33A
100
AcDbEntity
  8
SEMA2D
100
AcDbLine
370
9
 62
7
  6
_SOLID
 10
3.4209637264
 20
4.2982899318
 30
0
 11
3.4209589615
 21
4.2982766827
 31
0
  0
LINE
  5
33B
100
AcDbEntity
  8
SEMA2D
100
AcDbLine
370
9
 62
7
  6
_SOLID
 10
3.4209589615
 20
4.2982766827
 30
0
 11
3.4207198997
 21
4.2976875725
 31
0
  0
LINE
  5
33C
100
AcDbEntity
  8
SEMA2D
100
AcDbLine
370
9
 62
7
  6
_SOLID
 10
3.4207198997
 20
4.2976875725
 30
0
 11
3.4204242435
 21
4.2970958279
 31
0
  0
LINE
  5
33D
100
AcDbEntity
  8
SEMA2D
100
AcDbLine
370
9
 62
7
  6
_SOLID
 10
3.4204242435
 20
4.2970958279
 30
0
 11
3.4200774791
 21
4.2965169008
 31
0
  0
LINE
  5
33E
100
AcDbEntity
  8
SEMA2D
100
AcDbLine
370
9
 62
7
  6
_SOLID
 10
3.4200774791
 20
4.2965169008
 30
0
 11
3.4196803281
 21
4.2959529937
 31
0
  0
LINE
  5
33F
100
AcDbEntity
  8
SEMA2D
100
AcDbLine
370
9
 62
7
  6
_SOLID
 10
3.4196803281
 20
4.2959529937
 30
0
 11
3.4196667034
 21
4.2959351008
 31
0
  0
LINE
  5
340
100
AcDbEntity
  8
SEMA2D
100
AcDbLine
370
9
 62
7
  6
_SOLID
 10
3.4196667034
 20
4.2959351008
 30
0
 11
3.419233718
 21
4.2954062301
 31
0
  0
LINE
  5
341
100
AcDbEntity
  8
SEMA2D
100
AcDbLine
370
9
 62
7
  6
_SOLID
 10
3.419233718
 20
4.2954062301
 30
0
 11
3.4187394828
 21
4.2948783841
 31
0
  0
LINE
  5
342
100
AcDbEntity
  8
SEMA2D
100
AcDbLine
370
9
 62
7
  6
_SOLID
 10
3.4187394828
 20
4.2948783841
 30
0
 11
3.4187219533
 21
4.2948608765
 31
0
  0
LINE
  5
343
100
AcDbEntity
  8
SEMA2D
100
AcDbLine
370
9
 62
7
  6
_SOLID
 10
3.4187219533
 20
4.2948608765
 30
0
 11
3.4181995584
 21
4.2943710763
 31
0
  0
LINE
  5
344
100
AcDbEntity
  8
SEMA2D
100
AcDbLine
370
9
 62
7
  6
_SOLID
 10
3.4181995584
 20
4.2943710763
 30
0
 11
3.4176152258
 21
4.2938856733
 31
0
  0
LINE
  5
345
100
AcDbEntity
  8
SEMA2D
100
AcDbLine
370
9
 62
7
  6
_SOLID
 10
3.4176152258
 20
4.2938856733
 30
0
 11
3.4175966129
 21
4.2938711451
 31
0
  0
LINE
  5
346
100
AcDbEntity
  8
SEMA2D
100
AcDbLine
370
9
 62
7
  6
_SOLID
 10
3.4175966129
 20
4.2938711451
 30
0
 11
3.4169878557
 21
4.2934236343
 31
0
  0
LINE
  5
347
100
AcDbEntity
  8
SEMA2D
100
AcDbLine
370
9
 62
7
  6
_SOLID
 10
3.4169878557
 20
4.2934236343
 30
0
 11
3.4163200086
 21
4.2929871333
 31
0
  0
LINE
  5
348
100
AcDbEntity
  8
SEMA2D
100
AcDbLine
370
9
 62
7
  6
_SOLID
 10
3.4163200086
 20
4.2929871333
 30
0
 11
3.4156145714
 21
4.2925785404
 31
0
  0
LINE
  5
349
100
AcDbEntity
  8
SEMA2D
100
AcDbLine
370
9
 62
7
  6
_SOLID
 10
3.4156145714
 20
4.2925785404
 30
0
 11
3.4148744304
 21
4.2922002256
 31
0
  0
LINE
  5
34A
100
AcDbEntity
  8
SEMA2D
100
AcDbLine
370
9
 62
9
  6
_SOLID
 10
3.4513774798
 20
4.3125698548
 30
0
 11
3.4514478367
 21
4.3145118065
 31
0
  0
LINE
  5
34B
100
AcDbEntity
  8
SEMA2D
100
AcDbLine
370
9
 62
9
  6
_SOLID
 10
3.4514478367
 20
4.3145118065
 30
0
 11
3.4514624304
 21
4.3152158239
 31
0
  0
LINE
  5
34C
100
AcDbEntity
  8
SEMA2D
100
AcDbLine
370
9
 62
9
  6
_SOLID
 10
3.4514624304
 20
4.3152158239
 30
0
 11
3.4514773727
 21
4.3165378793
 31
0
  0
LINE
  5
34D
100
AcDbEntity
  8
SEMA2D
100
AcDbLine
370
9
 62
9
  6
_SOLID
 10
3.4514773727
 20
4.3165378793
 30
0
 11
3.4514826552
 21
4.3178621582
 31
0
  0
LINE
  5
34E
100
AcDbEntity
  8
SEMA2D
100
AcDbLine
370
9
 62
9
  6
_SOLID
 10
3.4514826552
 20
4.3178621582
 30
0
 11
3.4514842561
 21
4.3185639785
 31
0
  0
LINE
  5
34F
100
AcDbEntity
  8
SEMA2D
100
AcDbLine
370
9
 62
9
  6
_SOLID
 10
3.4514842561
 20
4.3185639785
 30
0
 11
3.4514907799
 21
4.3205084738
 31
0
  0
LINE
  5
350
100
AcDbEntity
  8
SEMA2D
100
AcDbLine
370
9
 62
9
  6
_SOLID
 10
3.4514907799
 20
4.3205084738
 30
0
 11
3.4514910745
 21
4.3205900815
 31
0
  0
LINE
  5
351
100
AcDbEntity
  8
SEMA2D
100
AcDbLine
370
9
 62
9
  6
_SOLID
 10
3.4514910745
 20
4.3205900815
 30
0
 11
3.4514978969
 21
4.3226161763
 31
0
  0
LINE
  5
352
100
AcDbEntity
  8
SEMA2D
100
AcDbLine
370
9
 62
9
  6
_SOLID
 10
3.4514978969
 20
4.3226161763
 30
0
 11
3.45149969
 21
4.3231547916
 31
0
  0
LINE
  5
353
100
AcDbEntity
  8
SEMA2D
100
AcDbLine
370
9
 62
9
  6
_SOLID
 10
3.45149969
 20
4.3231547916
 30
0
 11
3.4515086357
 21
4.3258011102
 31
0
  0
LINE
  5
354
100
AcDbEntity
  8
SEMA2D
100
AcDbLine
370
9
 62
9
  6
_SOLID
 10
3.4515086357
 20
4.3258011102
 30
0
 11
3.4515175339
 21
4.3284474284
 31
0
  0
LINE
  5
355
100
AcDbEntity
  8
SEMA2D
100
AcDbLine
370
9
 62
9
  6
_SOLID
 10
3.4515175339
 20
4.3284474284
 30
0
 11
3.4515183642
 21
4.3286944773
 31
0
  0
LINE
  5
356
100
AcDbEntity
  8
SEMA2D
100
AcDbLine
370
9
 62
9
  6
_SOLID
 10
3.4515183642
 20
4.3286944773
 30
0
 11
3.4515264399
 21
4.331093747
 31
0
  0
LINE
  5
357
100
AcDbEntity
  8
SEMA2D
100
AcDbLine
370
9
 62
9
  6
_SOLID
 10
3.4515264399
 20
4.331093747
 30
0
 11
3.451535355
 21
4.3337400658
 31
0
  0
LINE
  5
358
100
AcDbEntity
  8
SEMA2D
100
AcDbLine
370
9
 62
9
  6
_SOLID
 10
3.451535355
 20
4.3337400658
 30
0
 11
3.4521323828
 21
4.5110434304
 31
0
  0
LINE
  5
359
100
AcDbEntity
  8
SEMA2D
100
AcDbLine
370
9
 62
7
  6
_SOLID
 10
3.3528638771
 20
4.203437515
 30
0
 11
3.3522485247
 21
4.2030775667
 31
0
  0
LINE
  5
35A
100
AcDbEntity
  8
SEMA2D
100
AcDbLine
370
9
 62
7
  6
_SOLID
 10
3.3522485247
 20
4.2030775667
 30
0
 11
3.3515765859
 21
4.2027627875
 31
0
  0
LINE
  5
35B
100
AcDbEntity
  8
SEMA2D
100
AcDbLine
370
9
 62
7
  6
_SOLID
 10
3.3515765859
 20
4.2027627875
 30
0
 11
3.3508571091
 21
4.202498017
 31
0
  0
LINE
  5
35C
100
AcDbEntity
  8
SEMA2D
100
AcDbLine
370
9
 62
7
  6
_SOLID
 10
3.3508571091
 20
4.202498017
 30
0
 11
3.3504820785
 21
4.2023858162
 31
0
  0
LINE
  5
35D
100
AcDbEntity
  8
SEMA2D
100
AcDbLine
370
9
 62
7
  6
_SOLID
 10
3.3504820785
 20
4.2023858162
 30
0
 11
3.3500991574
 21
4.202288021
 31
0
  0
LINE
  5
35E
100
AcDbEntity
  8
SEMA2D
100
AcDbLine
370
9
 62
7
  6
_SOLID
 10
3.3500991574
 20
4.202288021
 30
0
 11
3.3493121366
 21
4.2021358641
 31
0
  0
LINE
  5
35F
100
AcDbEntity
  8
SEMA2D
100
AcDbLine
370
9
 62
7
  6
_SOLID
 10
3.3493121366
 20
4.2021358641
 30
0
 11
3.3485057959
 21
4.2020429085
 31
0
  0
LINE
  5
360
100
AcDbEntity
  8
SEMA2D
100
AcDbLine
370
9
 62
7
  6
_SOLID
 10
3.3485057959
 20
4.2020429085
 30
0
 11
3.3476898992
 21
4.2020104423
 31
0
  0
LINE
  5
361
100
AcDbEntity
  8
SEMA2D
100
AcDbLine
370
9
 62
7
  6
_SOLID
 10
3.3476898992
 20
4.2020104423
 30
0
 11
3.3468742091
 21
4.2020393312
 31
0
  0
LINE
  5
362
100
AcDbEntity
  8
SEMA2D
100
AcDbLine
370
9
 62
7
  6
_SOLID
 10
3.3468742091
 20
4.2020393312
 30
0
 11
3.3460684824
 21
4.2021287521
 31
0
  0
LINE
  5
363
100
AcDbEntity
  8
SEMA2D
100
AcDbLine
370
9
 62
7
  6
_SOLID
 10
3.3460684824
 20
4.2021287521
 30
0
 11
3.3452824748
 21
4.20227746
 31
0
  0
LINE
  5
364
100
AcDbEntity
  8
SEMA2D
100
AcDbLine
370
9
 62
7
  6
_SOLID
 10
3.3452824748
 20
4.20227746
 30
0
 11
3.3449002066
 21
4.2023735775
 31
0
  0
LINE
  5
365
100
AcDbEntity
  8
SEMA2D
100
AcDbLine
370
9
 62
7
  6
_SOLID
 10
3.3449002066
 20
4.2023735775
 30
0
 11
3.3445259261
 21
4.2024841354
 31
0
  0
LINE
  5
366
100
AcDbEntity
  8
SEMA2D
100
AcDbLine
370
9
 62
7
  6
_SOLID
 10
3.3445259261
 20
4.2024841354
 30
0
 11
3.3438082218
 21
4.2027457547
 31
0
  0
LINE
  5
367
100
AcDbEntity
  8
SEMA2D
100
AcDbLine
370
9
 62
7
  6
_SOLID
 10
3.3438082218
 20
4.2027457547
 30
0
 11
3.343138393
 21
4.203057592
 31
0
  0
LINE
  5
368
100
AcDbEntity
  8
SEMA2D
100
AcDbLine
370
9
 62
7
  6
_SOLID
 10
3.343138393
 20
4.203057592
 30
0
 11
3.3425254556
 21
4.2034148472
 31
0
  0
LINE
  5
369
100
AcDbEntity
  8
SEMA2D
100
AcDbLine
370
9
 62
9
  6
_SOLID
 10
3.2453270852
 20
4.510589993
 30
0
 11
3.2447009593
 21
4.3246446881
 31
0
  0
LINE
  5
36A
100
AcDbEntity
  8
SEMA2D
100
AcDbLine
370
9
 62
9
  6
_SOLID
 10
3.2447009593
 20
4.3246446881
 30
0
 11
3.2446987315
 21
4.323983845
 31
0
  0
LINE
  5
36B
100
AcDbEntity
  8
SEMA2D
100
AcDbLine
370
9
 62
9
  6
_SOLID
 10
3.2446987315
 20
4.323983845
 30
0
 11
3.2446919015
 21
4.3219555176
 31
0
  0
LINE
  5
36C
100
AcDbEntity
  8
SEMA2D
100
AcDbLine
370
9
 62
9
  6
_SOLID
 10
3.2446919015
 20
4.3219555176
 30
0
 11
3.2446891581
 21
4.3211362837
 31
0
  0
LINE
  5
36D
100
AcDbEntity
  8
SEMA2D
100
AcDbLine
370
9
 62
9
  6
_SOLID
 10
3.2446891581
 20
4.3211362837
 30
0
 11
3.244685071
 21
4.31992719
 31
0
  0
LINE
  5
36E
100
AcDbEntity
  8
SEMA2D
100
AcDbLine
370
9
 62
9
  6
_SOLID
 10
3.244685071
 20
4.31992719
 30
0
 11
3.2446782407
 21
4.3178988623
 31
0
  0
LINE
  5
36F
100
AcDbEntity
  8
SEMA2D
100
AcDbLine
370
9
 62
9
  6
_SOLID
 10
3.2446782407
 20
4.3178988623
 30
0
 11
3.2446773899
 21
4.3176278786
 31
0
  0
LINE
  5
370
100
AcDbEntity
  8
SEMA2D
100
AcDbLine
370
9
 62
9
  6
_SOLID
 10
3.2446773899
 20
4.3176278786
 30
0
 11
3.2446748307
 21
4.3168846985
 31
0
  0
LINE
  5
371
100
AcDbEntity
  8
SEMA2D
100
AcDbLine
370
9
 62
9
  6
_SOLID
 10
3.2446748307
 20
4.3168846985
 30
0
 11
3.2446718098
 21
4.315870536
 31
0
  0
LINE
  5
372
100
AcDbEntity
  8
SEMA2D
100
AcDbLine
370
9
 62
9
  6
_SOLID
 10
3.2446718098
 20
4.315870536
 30
0
 11
3.2446870444
 21
4.3141195753
 31
0
  0
LINE
  5
373
100
AcDbEntity
  8
SEMA2D
100
AcDbLine
370
9
 62
9
  6
_SOLID
 10
3.2446870444
 20
4.3141195753
 30
0
 11
3.2446924429
 21
4.313842369
 31
0
  0
LINE
  5
374
100
AcDbEntity
  8
SEMA2D
100
AcDbLine
370
9
 62
9
  6
_SOLID
 10
3.2446924429
 20
4.313842369
 30
0
 11
3.2447579813
 21
4.3118147968
 31
0
  0
LINE
  5
375
100
AcDbEntity
  8
SEMA2D
100
AcDbLine
370
9
 62
9
  6
_SOLID
 10
3.2447579813
 20
4.3118147968
 30
0
 11
3.2448180384
 21
4.3106128348
 31
0
  0
LINE
  5
376
100
AcDbEntity
  8
SEMA2D
100
AcDbLine
370
9
 62
9
  6
_SOLID
 10
3.2448180384
 20
4.3106128348
 30
0
 11
3.2450231292
 21
4.307763197
 31
0
  0
LINE
  5
377
100
AcDbEntity
  8
SEMA2D
100
AcDbLine
370
9
 62
9
  6
_SOLID
 10
3.2450231292
 20
4.307763197
 30
0
 11
3.245082623
 21
4.3071098825
 31
0
  0
LINE
  5
378
100
AcDbEntity
  8
SEMA2D
100
AcDbLine
370
9
 62
9
  6
_SOLID
 10
3.245082623
 20
4.3071098825
 30
0
 11
3.2454661954
 21
4.3037192387
 31
0
  0
LINE
  5
379
100
AcDbEntity
  8
SEMA2D
100
AcDbLine
370
9
 62
9
  6
_SOLID
 10
3.2454661954
 20
4.3037192387
 30
0
 11
3.2454802282
 21
4.3036130833
 31
0
  0
LINE
  5
37A
100
AcDbEntity
  8
SEMA2D
100
AcDbLine
370
9
 62
9
  6
_SOLID
 10
3.2454802282
 20
4.3036130833
 30
0
 11
3.2460097145
 21
4.3001246207
 31
0
  0
LINE
  5
37B
100
AcDbEntity
  8
SEMA2D
100
AcDbLine
370
9
 62
9
  6
_SOLID
 10
3.2460097145
 20
4.3001246207
 30
0
 11
3.2460856236
 21
4.2996863219
 31
0
  0
LINE
  5
37C
100
AcDbEntity
  8
SEMA2D
100
AcDbLine
370
9
 62
9
  6
_SOLID
 10
3.2460856236
 20
4.2996863219
 30
0
 11
3.2466697286
 21
4.2966466294
 31
0
  0
LINE
  5
37D
100
AcDbEntity
  8
SEMA2D
100
AcDbLine
370
9
 62
9
  6
_SOLID
 10
3.2466697286
 20
4.2966466294
 30
0
 11
3.2468792787
 21
4.2956677617
 31
0
  0
LINE
  5
37E
100
AcDbEntity
  8
SEMA2D
100
AcDbLine
370
9
 62
9
  6
_SOLID
 10
3.2468792787
 20
4.2956677617
 30
0
 11
3.2474585897
 21
4.2931812033
 31
0
  0
LINE
  5
37F
100
AcDbEntity
  8
SEMA2D
100
AcDbLine
370
9
 62
7
  6
_SOLID
 10
3.2483290856
 20
4.3003798672
 30
0
 11
3.2483647495
 21
4.2993254393
 31
0
  0
LINE
  5
380
100
AcDbEntity
  8
SEMA2D
100
AcDbLine
370
9
 62
7
  6
_SOLID
 10
3.2483647495
 20
4.2993254393
 30
0
 11
3.2484783976
 21
4.2982727846
 31
0
  0
LINE
  5
381
100
AcDbEntity
  8
SEMA2D
100
AcDbLine
370
9
 62
7
  6
_SOLID
 10
3.2484783976
 20
4.2982727846
 30
0
 11
3.2486693638
 21
4.2972248162
 31
0
  0
LINE
  5
382
100
AcDbEntity
  8
SEMA2D
100
AcDbLine
370
9
 62
7
  6
_SOLID
 10
3.2486693638
 20
4.2972248162
 30
0
 11
3.248936982
 21
4.2961844474
 31
0
  0
LINE
  5
383
100
AcDbEntity
  8
SEMA2D
100
AcDbLine
370
9
 62
7
  6
_SOLID
 10
3.248936982
 20
4.2961844474
 30
0
 11
3.2489419824
 21
4.2961675447
 31
0
  0
LINE
  5
384
100
AcDbEntity
  8
SEMA2D
100
AcDbLine
370
9
 62
7
  6
_SOLID
 10
3.2489419824
 20
4.2961675447
 30
0
 11
3.2492805788
 21
4.2951545503
 31
0
  0
LINE
  5
385
100
AcDbEntity
  8
SEMA2D
100
AcDbLine
370
9
 62
7
  6
_SOLID
 10
3.2492805788
 20
4.2951545503
 30
0
 11
3.249699451
 21
4.2941378246
 31
0
  0
LINE
  5
386
100
AcDbEntity
  8
SEMA2D
100
AcDbLine
370
9
 62
7
  6
_SOLID
 10
3.249699451
 20
4.2941378246
 30
0
 11
3.2501928875
 21
4.2931369247
 31
0
  0
LINE
  5
387
100
AcDbEntity
  8
SEMA2D
100
AcDbLine
370
9
 62
7
  6
_SOLID
 10
3.2501928875
 20
4.2931369247
 30
0
 11
3.2507601773
 21
4.292154505
 31
0
  0
LINE
  5
388
100
AcDbEntity
  8
SEMA2D
100
AcDbLine
370
9
 62
7
  6
_SOLID
 10
3.2507601773
 20
4.292154505
 30
0
 11
3.2507750463
 21
4.2921306106
 31
0
  0
LINE
  5
389
100
AcDbEntity
  8
SEMA2D
100
AcDbLine
370
9
 62
7
  6
_SOLID
 10
3.2507750463
 20
4.2921306106
 30
0
 11
3.2514003949
 21
4.2911931397
 31
0
  0
LINE
  5
38A
100
AcDbEntity
  8
SEMA2D
100
AcDbLine
370
9
 62
7
  6
_SOLID
 10
3.2514003949
 20
4.2911931397
 30
0
 11
3.2521116925
 21
4.2902550565
 31
0
  0
LINE
  5
38B
100
AcDbEntity
  8
SEMA2D
100
AcDbLine
370
9
 62
7
  6
_SOLID
 10
3.2521116925
 20
4.2902550565
 30
0
 11
3.2521311533
 21
4.2902309494
 31
0
  0
LINE
  5
38C
100
AcDbEntity
  8
SEMA2D
100
AcDbLine
370
9
 62
7
  6
_SOLID
 10
3.2521311533
 20
4.2902309494
 30
0
 11
3.252892126
 21
4.2893423134
 31
0
  0
LINE
  5
38D
100
AcDbEntity
  8
SEMA2D
100
AcDbLine
370
9
 62
7
  6
_SOLID
 10
3.252892126
 20
4.2893423134
 30
0
 11
3.2537404096
 21
4.2884566361
 31
0
  0
LINE
  5
38E
100
AcDbEntity
  8
SEMA2D
100
AcDbLine
370
9
 62
7
  6
_SOLID
 10
3.2537404096
 20
4.2884566361
 30
0
 11
3.2537613243
 21
4.2884359908
 31
0
  0
LINE
  5
38F
100
AcDbEntity
  8
SEMA2D
100
AcDbLine
370
9
 62
7
  6
_SOLID
 10
3.2537613243
 20
4.2884359908
 30
0
 11
3.2546551593
 21
4.2875998785
 31
0
  0
LINE
  5
390
100
AcDbEntity
  8
SEMA2D
100
AcDbLine
370
9
 62
7
  6
_SOLID
 10
3.2546551593
 20
4.2875998785
 30
0
 11
3.2556338071
 21
4.2867748304
 31
0
  0
LINE
  5
391
100
AcDbEntity
  8
SEMA2D
100
AcDbLine
370
9
 62
7
  6
_SOLID
 10
3.2556338071
 20
4.2867748304
 30
0
 11
3.2566734671
 21
4.2859845326
 31
0
  0
LINE
  5
392
100
AcDbEntity
  8
SEMA2D
100
AcDbLine
370
9
 62
7
  6
_SOLID
 10
3.2566734671
 20
4.2859845326
 30
0
 11
3.2577712532
 21
4.2852320259
 31
0
  0
LINE
  5
393
100
AcDbEntity
  8
SEMA2D
100
AcDbLine
370
9
 62
7
  6
_SOLID
 10
3.3436816063
 20
4.2091482701
 30
0
 11
3.3427878712
 21
4.2146537207
 31
0
  0
LINE
  5
394
100
AcDbEntity
  8
SEMA2D
100
AcDbLine
370
9
 62
7
  6
_SOLID
 10
3.3427878712
 20
4.2146537207
 30
0
 11
3.3414796283
 21
4.2201249516
 31
0
  0
LINE
  5
395
100
AcDbEntity
  8
SEMA2D
100
AcDbLine
370
9
 62
7
  6
_SOLID
 10
3.3414796283
 20
4.2201249516
 30
0
 11
3.339762068
 21
4.2255459105
 31
0
  0
LINE
  5
396
100
AcDbEntity
  8
SEMA2D
100
AcDbLine
370
9
 62
7
  6
_SOLID
 10
3.339762068
 20
4.2255459105
 30
0
 11
3.3387184131
 21
4.228315684
 31
0
  0
LINE
  5
397
100
AcDbEntity
  8
SEMA2D
100
AcDbLine
370
9
 62
7
  6
_SOLID
 10
3.3387184131
 20
4.228315684
 30
0
 11
3.3376403693
 21
4.2309005928
 31
0
  0
LINE
  5
398
100
AcDbEntity
  8
SEMA2D
100
AcDbLine
370
9
 62
7
  6
_SOLID
 10
3.3376403693
 20
4.2309005928
 30
0
 11
3.3351194168
 21
4.2361741731
 31
0
  0
LINE
  5
399
100
AcDbEntity
  8
SEMA2D
100
AcDbLine
370
9
 62
7
  6
_SOLID
 10
3.3351194168
 20
4.2361741731
 30
0
 11
3.332203789
 21
4.2413530543
 31
0
  0
LINE
  5
39A
100
AcDbEntity
  8
SEMA2D
100
AcDbLine
370
9
 62
7
  6
_SOLID
 10
3.332203789
 20
4.2413530543
 30
0
 11
3.3288980502
 21
4.2464236966
 31
0
  0
LINE
  5
39B
100
AcDbEntity
  8
SEMA2D
100
AcDbLine
370
9
 62
7
  6
_SOLID
 10
3.3288980502
 20
4.2464236966
 30
0
 11
3.3288172032
 21
4.2465393144
 31
0
  0
LINE
  5
39C
100
AcDbEntity
  8
SEMA2D
100
AcDbLine
370
9
 62
7
  6
_SOLID
 10
3.3288172032
 20
4.2465393144
 30
0
 11
3.3252077133
 21
4.251372793
 31
0
  0
LINE
  5
39D
100
AcDbEntity
  8
SEMA2D
100
AcDbLine
370
9
 62
7
  6
_SOLID
 10
3.3252077133
 20
4.251372793
 30
0
 11
3.3211423575
 21
4.2561880352
 31
0
  0
LINE
  5
39E
100
AcDbEntity
  8
SEMA2D
100
AcDbLine
370
9
 62
7
  6
_SOLID
 10
3.3211423575
 20
4.2561880352
 30
0
 11
3.3167126516
 21
4.2608573822
 31
0
  0
LINE
  5
39F
100
AcDbEntity
  8
SEMA2D
100
AcDbLine
370
9
 62
7
  6
_SOLID
 10
3.3167126516
 20
4.2608573822
 30
0
 11
3.314275113
 21
4.2632178038
 31
0
  0
LINE
  5
3A0
100
AcDbEntity
  8
SEMA2D
100
AcDbLine
370
9
 62
7
  6
_SOLID
 10
3.314275113
 20
4.2632178038
 30
0
 11
3.3119293349
 21
4.2653687449
 31
0
  0
LINE
  5
3A1
100
AcDbEntity
  8
SEMA2D
100
AcDbLine
370
9
 62
7
  6
_SOLID
 10
3.3119293349
 20
4.2653687449
 30
0
 11
3.3068049231
 21
4.2697088209
 31
0
  0
LINE
  5
3A2
100
AcDbEntity
  8
SEMA2D
100
AcDbLine
370
9
 62
7
  6
_SOLID
 10
3.3068049231
 20
4.2697088209
 30
0
 11
3.3013537966
 21
4.2738630343
 31
0
  0
LINE
  5
3A3
100
AcDbEntity
  8
SEMA2D
100
AcDbLine
370
9
 62
7
  6
_SOLID
 10
3.3013537966
 20
4.2738630343
 30
0
 11
3.2955904245
 21
4.2778167486
 31
0
  0
LINE
  5
3A4
100
AcDbEntity
  8
SEMA2D
100
AcDbLine
370
9
 62
7
  6
_SOLID
 10
3.2664564336
 20
4.3004196129
 30
0
 11
3.2664753434
 21
4.2999318045
 31
0
  0
LINE
  5
3A5
100
AcDbEntity
  8
SEMA2D
100
AcDbLine
370
9
 62
7
  6
_SOLID
 10
3.2664753434
 20
4.2999318045
 30
0
 11
3.2665352386
 21
4.2994451351
 31
0
  0
LINE
  5
3A6
100
AcDbEntity
  8
SEMA2D
100
AcDbLine
370
9
 62
7
  6
_SOLID
 10
3.2665352386
 20
4.2994451351
 30
0
 11
3.2666359402
 21
4.2989614279
 31
0
  0
LINE
  5
3A7
100
AcDbEntity
  8
SEMA2D
100
AcDbLine
370
9
 62
7
  6
_SOLID
 10
3.2666359402
 20
4.2989614279
 30
0
 11
3.2667015553
 21
4.2987211946
 31
0
  0
LINE
  5
3A8
100
AcDbEntity
  8
SEMA2D
100
AcDbLine
370
9
 62
7
  6
_SOLID
 10
3.2667015553
 20
4.2987211946
 30
0
 11
3.2667772605
 21
4.2984824987
 31
0
  0
LINE
  5
3A9
100
AcDbEntity
  8
SEMA2D
100
AcDbLine
370
9
 62
7
  6
_SOLID
 10
3.2667772605
 20
4.2984824987
 30
0
 11
3.2669588066
 21
4.2980099885
 31
0
  0
LINE
  5
3AA
100
AcDbEntity
  8
SEMA2D
100
AcDbLine
370
9
 62
7
  6
_SOLID
 10
3.2669588066
 20
4.2980099885
 30
0
 11
3.2671799807
 21
4.2975453639
 31
0
  0
LINE
  5
3AB
100
AcDbEntity
  8
SEMA2D
100
AcDbLine
370
9
 62
7
  6
_SOLID
 10
3.2671799807
 20
4.2975453639
 30
0
 11
3.2674401762
 21
4.2970900838
 31
0
  0
LINE
  5
3AC
100
AcDbEntity
  8
SEMA2D
100
AcDbLine
370
9
 62
7
  6
_SOLID
 10
3.2674401762
 20
4.2970900838
 30
0
 11
3.2674402313
 21
4.2970899951
 31
0
  0
LINE
  5
3AD
100
AcDbEntity
  8
SEMA2D
100
AcDbLine
370
9
 62
7
  6
_SOLID
 10
3.2674402313
 20
4.2970899951
 30
0
 11
3.2677387357
 21
4.2966456008
 31
0
  0
LINE
  5
3AE
100
AcDbEntity
  8
SEMA2D
100
AcDbLine
370
9
 62
7
  6
_SOLID
 10
3.2677387357
 20
4.2966456008
 30
0
 11
3.2680747986
 21
4.2962133428
 31
0
  0
LINE
  5
3AF
100
AcDbEntity
  8
SEMA2D
100
AcDbLine
370
9
 62
7
  6
_SOLID
 10
3.2680747986
 20
4.2962133428
 30
0
 11
3.2684474539
 21
4.2957947311
 31
0
  0
LINE
  5
3B0
100
AcDbEntity
  8
SEMA2D
100
AcDbLine
370
9
 62
7
  6
_SOLID
 10
3.2684474539
 20
4.2957947311
 30
0
 11
3.2686472874
 21
4.2955909192
 31
0
  0
LINE
  5
3B1
100
AcDbEntity
  8
SEMA2D
100
AcDbLine
370
9
 62
7
  6
_SOLID
 10
3.2686472874
 20
4.2955909192
 30
0
 11
3.2688557725
 21
4.2953911898
 31
0
  0
LINE
  5
3B2
100
AcDbEntity
  8
SEMA2D
100
AcDbLine
370
9
 62
7
  6
_SOLID
 10
3.2688557725
 20
4.2953911898
 30
0
 11
3.2692984178
 21
4.2950042016
 31
0
  0
LINE
  5
3B3
100
AcDbEntity
  8
SEMA2D
100
AcDbLine
370
9
 62
7
  6
_SOLID
 10
3.2692984178
 20
4.2950042016
 30
0
 11
3.2697736449
 21
4.2946353079
 31
0
  0
LINE
  5
3B4
100
AcDbEntity
  8
SEMA2D
100
AcDbLine
370
9
 62
7
  6
_SOLID
 10
3.2697736449
 20
4.2946353079
 30
0
 11
3.2702796914
 21
4.2942860527
 31
0
  0
LINE
  5
3B5
100
AcDbEntity
  8
SEMA2D
100
AcDbLine
370
9
 62
7
  6
_SOLID
 10
3.4295873101
 20
4.3007772906
 30
0
 11
3.4295651148
 21
4.300289392
 31
0
  0
LINE
  5
3B6
100
AcDbEntity
  8
SEMA2D
100
AcDbLine
370
9
 62
7
  6
_SOLID
 10
3.4295651148
 20
4.300289392
 30
0
 11
3.4295019412
 21
4.2998024528
 31
0
  0
LINE
  5
3B7
100
AcDbEntity
  8
SEMA2D
100
AcDbLine
370
9
 62
7
  6
_SOLID
 10
3.4295019412
 20
4.2998024528
 30
0
 11
3.4293979805
 21
4.2993182969
 31
0
  0
LINE
  5
3B8
100
AcDbEntity
  8
SEMA2D
100
AcDbLine
370
9
 62
7
  6
_SOLID
 10
3.4293979805
 20
4.2993182969
 30
0
 11
3.4293307466
 21
4.2990777723
 31
0
  0
LINE
  5
3B9
100
AcDbEntity
  8
SEMA2D
100
AcDbLine
370
9
 62
7
  6
_SOLID
 10
3.4293307466
 20
4.2990777723
 30
0
 11
3.4292534328
 21
4.2988387409
 31
0
  0
LINE
  5
3BA
100
AcDbEntity
  8
SEMA2D
100
AcDbLine
370
9
 62
7
  6
_SOLID
 10
3.4292534328
 20
4.2988387409
 30
0
 11
3.4290687019
 21
4.2983654276
 31
0
  0
LINE
  5
3BB
100
AcDbEntity
  8
SEMA2D
100
AcDbLine
370
9
 62
7
  6
_SOLID
 10
3.4290687019
 20
4.2983654276
 30
0
 11
3.4288443954
 21
4.2978998262
 31
0
  0
LINE
  5
3BC
100
AcDbEntity
  8
SEMA2D
100
AcDbLine
370
9
 62
7
  6
_SOLID
 10
3.4288443954
 20
4.2978998262
 30
0
 11
3.4285811299
 21
4.2974433984
 31
0
  0
LINE
  5
3BD
100
AcDbEntity
  8
SEMA2D
100
AcDbLine
370
9
 62
7
  6
_SOLID
 10
3.4285811299
 20
4.2974433984
 30
0
 11
3.4285810743
 21
4.2974433095
 31
0
  0
LINE
  5
3BE
100
AcDbEntity
  8
SEMA2D
100
AcDbLine
370
9
 62
7
  6
_SOLID
 10
3.4285810743
 20
4.2974433095
 30
0
 11
3.4282795726
 21
4.2969975996
 31
0
  0
LINE
  5
3BF
100
AcDbEntity
  8
SEMA2D
100
AcDbLine
370
9
 62
7
  6
_SOLID
 10
3.4282795726
 20
4.2969975996
 30
0
 11
3.4279405936
 21
4.2965638615
 31
0
  0
LINE
  5
3C0
100
AcDbEntity
  8
SEMA2D
100
AcDbLine
370
9
 62
7
  6
_SOLID
 10
3.4279405936
 20
4.2965638615
 30
0
 11
3.4275651137
 21
4.2961436095
 31
0
  0
LINE
  5
3C1
100
AcDbEntity
  8
SEMA2D
100
AcDbLine
370
9
 62
7
  6
_SOLID
 10
3.4275651137
 20
4.2961436095
 30
0
 11
3.4273639047
 21
4.2959389183
 31
0
  0
LINE
  5
3C2
100
AcDbEntity
  8
SEMA2D
100
AcDbLine
370
9
 62
7
  6
_SOLID
 10
3.4273639047
 20
4.2959389183
 30
0
 11
3.4271540714
 21
4.2957382717
 31
0
  0
LINE
  5
3C3
100
AcDbEntity
  8
SEMA2D
100
AcDbLine
370
9
 62
7
  6
_SOLID
 10
3.4271540714
 20
4.2957382717
 30
0
 11
3.4267088134
 21
4.2953493367
 31
0
  0
LINE
  5
3C4
100
AcDbEntity
  8
SEMA2D
100
AcDbLine
370
9
 62
7
  6
_SOLID
 10
3.4267088134
 20
4.2953493367
 30
0
 11
3.4262310949
 21
4.2949783536
 31
0
  0
LINE
  5
3C5
100
AcDbEntity
  8
SEMA2D
100
AcDbLine
370
9
 62
7
  6
_SOLID
 10
3.4262310949
 20
4.2949783536
 30
0
 11
3.4257226888
 21
4.2946268741
 31
0
  0
LINE
  5
3C6
100
AcDbEntity
  8
SEMA2D
100
AcDbLine
370
9
 62
7
  6
_SOLID
 10
3.3517463216
 20
4.2091659527
 30
0
 11
3.3526771469
 21
4.2146754038
 31
0
  0
LINE
  5
3C7
100
AcDbEntity
  8
SEMA2D
100
AcDbLine
370
9
 62
7
  6
_SOLID
 10
3.3526771469
 20
4.2146754038
 30
0
 11
3.3540222557
 21
4.2201524524
 31
0
  0
LINE
  5
3C8
100
AcDbEntity
  8
SEMA2D
100
AcDbLine
370
9
 62
7
  6
_SOLID
 10
3.3540222557
 20
4.2201524524
 30
0
 11
3.3557763492
 21
4.2255810231
 31
0
  0
LINE
  5
3C9
100
AcDbEntity
  8
SEMA2D
100
AcDbLine
370
9
 62
7
  6
_SOLID
 10
3.3557763492
 20
4.2255810231
 30
0
 11
3.3568386729
 21
4.2283554141
 31
0
  0
LINE
  5
3CA
100
AcDbEntity
  8
SEMA2D
100
AcDbLine
370
9
 62
7
  6
_SOLID
 10
3.3568386729
 20
4.2283554141
 30
0
 11
3.3579341409
 21
4.2309450885
 31
0
  0
LINE
  5
3CB
100
AcDbEntity
  8
SEMA2D
100
AcDbLine
370
9
 62
7
  6
_SOLID
 10
3.3579341409
 20
4.2309450885
 30
0
 11
3.3604906461
 21
4.2362298016
 31
0
  0
LINE
  5
3CC
100
AcDbEntity
  8
SEMA2D
100
AcDbLine
370
9
 62
7
  6
_SOLID
 10
3.3604906461
 20
4.2362298016
 30
0
 11
3.3634411946
 21
4.2414215448
 31
0
  0
LINE
  5
3CD
100
AcDbEntity
  8
SEMA2D
100
AcDbLine
370
9
 62
7
  6
_SOLID
 10
3.3634411946
 20
4.2414215448
 30
0
 11
3.3667811309
 21
4.2465067583
 31
0
  0
LINE
  5
3CE
100
AcDbEntity
  8
SEMA2D
100
AcDbLine
370
9
 62
7
  6
_SOLID
 10
3.3667811309
 20
4.2465067583
 30
0
 11
3.3668627578
 21
4.2466227323
 31
0
  0
LINE
  5
3CF
100
AcDbEntity
  8
SEMA2D
100
AcDbLine
370
9
 62
7
  6
_SOLID
 10
3.3668627578
 20
4.2466227323
 30
0
 11
3.3705048525
 21
4.2514721106
 31
0
  0
LINE
  5
3D0
100
AcDbEntity
  8
SEMA2D
100
AcDbLine
370
9
 62
7
  6
_SOLID
 10
3.3705048525
 20
4.2514721106
 30
0
 11
3.374602697
 21
4.2563052513
 31
0
  0
LINE
  5
3D1
100
AcDbEntity
  8
SEMA2D
100
AcDbLine
370
9
 62
7
  6
_SOLID
 10
3.374602697
 20
4.2563052513
 30
0
 11
3.3790639144
 21
4.2609940924
 31
0
  0
LINE
  5
3D2
100
AcDbEntity
  8
SEMA2D
100
AcDbLine
370
9
 62
7
  6
_SOLID
 10
3.3790639144
 20
4.2609940924
 30
0
 11
3.3815173856
 21
4.2633652379
 31
0
  0
LINE
  5
3D3
100
AcDbEntity
  8
SEMA2D
100
AcDbLine
370
9
 62
7
  6
_SOLID
 10
3.3815173856
 20
4.2633652379
 30
0
 11
3.3838776839
 21
4.2655264975
 31
0
  0
LINE
  5
3D4
100
AcDbEntity
  8
SEMA2D
100
AcDbLine
370
9
 62
7
  6
_SOLID
 10
3.3838776839
 20
4.2655264975
 30
0
 11
3.3890314001
 21
4.2698891092
 31
0
  0
LINE
  5
3D5
100
AcDbEntity
  8
SEMA2D
100
AcDbLine
370
9
 62
7
  6
_SOLID
 10
3.3890314001
 20
4.2698891092
 30
0
 11
3.394510584
 21
4.2740672881
 31
0
  0
LINE
  5
3D6
100
AcDbEntity
  8
SEMA2D
100
AcDbLine
370
9
 62
7
  6
_SOLID
 10
3.394510584
 20
4.2740672881
 30
0
 11
3.4003006679
 21
4.2780463343
 31
0
  0
LINE
  5
3D7
100
AcDbEntity
  8
SEMA2D
100
AcDbLine
370
9
 62
7
  6
_SOLID
 10
3.4477146581
 20
4.3008170363
 30
0
 11
3.4476718926
 21
4.2997624364
 31
0
  0
LINE
  5
3D8
100
AcDbEntity
  8
SEMA2D
100
AcDbLine
370
9
 62
7
  6
_SOLID
 10
3.4476718926
 20
4.2997624364
 30
0
 11
3.4475511535
 21
4.2987092678
 31
0
  0
LINE
  5
3D9
100
AcDbEntity
  8
SEMA2D
100
AcDbLine
370
9
 62
7
  6
_SOLID
 10
3.4475511535
 20
4.2987092678
 30
0
 11
3.4473531269
 21
4.2976604465
 31
0
  0
LINE
  5
3DA
100
AcDbEntity
  8
SEMA2D
100
AcDbLine
370
9
 62
7
  6
_SOLID
 10
3.4473531269
 20
4.2976604465
 30
0
 11
3.4470784983
 21
4.2966188888
 31
0
  0
LINE
  5
3DB
100
AcDbEntity
  8
SEMA2D
100
AcDbLine
370
9
 62
7
  6
_SOLID
 10
3.4470784983
 20
4.2966188888
 30
0
 11
3.4470733839
 21
4.2966019638
 31
0
  0
LINE
  5
3DC
100
AcDbEntity
  8
SEMA2D
100
AcDbLine
370
9
 62
7
  6
_SOLID
 10
3.4470733839
 20
4.2966019638
 30
0
 11
3.4467279605
 21
4.2955874697
 31
0
  0
LINE
  5
3DD
100
AcDbEntity
  8
SEMA2D
100
AcDbLine
370
9
 62
7
  6
_SOLID
 10
3.4467279605
 20
4.2955874697
 30
0
 11
3.4463022349
 21
4.2945688921
 31
0
  0
LINE
  5
3DE
100
AcDbEntity
  8
SEMA2D
100
AcDbLine
370
9
 62
7
  6
_SOLID
 10
3.4463022349
 20
4.2945688921
 30
0
 11
3.4458020504
 21
4.2935658136
 31
0
  0
LINE
  5
3DF
100
AcDbEntity
  8
SEMA2D
100
AcDbLine
370
9
 62
7
  6
_SOLID
 10
3.4458020504
 20
4.2935658136
 30
0
 11
3.4452281361
 21
4.2925808918
 31
0
  0
LINE
  5
3E0
100
AcDbEntity
  8
SEMA2D
100
AcDbLine
370
9
 62
7
  6
_SOLID
 10
3.4452281361
 20
4.2925808918
 30
0
 11
3.4452131059
 21
4.2925569318
 31
0
  0
LINE
  5
3E1
100
AcDbEntity
  8
SEMA2D
100
AcDbLine
370
9
 62
7
  6
_SOLID
 10
3.4452131059
 20
4.2925569318
 30
0
 11
3.4445814346
 21
4.2916167048
 31
0
  0
LINE
  5
3E2
100
AcDbEntity
  8
SEMA2D
100
AcDbLine
370
9
 62
7
  6
_SOLID
 10
3.4445814346
 20
4.2916167048
 30
0
 11
3.4438638088
 21
4.2906754886
 31
0
  0
LINE
  5
3E3
100
AcDbEntity
  8
SEMA2D
100
AcDbLine
370
9
 62
7
  6
_SOLID
 10
3.4438638088
 20
4.2906754886
 30
0
 11
3.4438441855
 21
4.2906512958
 31
0
  0
LINE
  5
3E4
100
AcDbEntity
  8
SEMA2D
100
AcDbLine
370
9
 62
7
  6
_SOLID
 10
3.4438441855
 20
4.2906512958
 30
0
 11
3.4430772168
 21
4.2897593097
 31
0
  0
LINE
  5
3E5
100
AcDbEntity
  8
SEMA2D
100
AcDbLine
370
9
 62
7
  6
_SOLID
 10
3.4430772168
 20
4.2897593097
 30
0
 11
3.4422229561
 21
4.2888698994
 31
0
  0
LINE
  5
3E6
100
AcDbEntity
  8
SEMA2D
100
AcDbLine
370
9
 62
7
  6
_SOLID
 10
3.4422229561
 20
4.2888698994
 30
0
 11
3.442201902
 21
4.2888491621
 31
0
  0
LINE
  5
3E7
100
AcDbEntity
  8
SEMA2D
100
AcDbLine
370
9
 62
7
  6
_SOLID
 10
3.442201902
 20
4.2888491621
 30
0
 11
3.441302423
 21
4.2880091178
 31
0
  0
LINE
  5
3E8
100
AcDbEntity
  8
SEMA2D
100
AcDbLine
370
9
 62
7
  6
_SOLID
 10
3.441302423
 20
4.2880091178
 30
0
 11
3.4403182043
 21
4.2871797659
 31
0
  0
LINE
  5
3E9
100
AcDbEntity
  8
SEMA2D
100
AcDbLine
370
9
 62
7
  6
_SOLID
 10
3.4403182043
 20
4.2871797659
 30
0
 11
3.4392732067
 21
4.2863848973
 31
0
  0
LINE
  5
3EA
100
AcDbEntity
  8
SEMA2D
100
AcDbLine
370
9
 62
7
  6
_SOLID
 10
3.4392732067
 20
4.2863848973
 30
0
 11
3.4381703365
 21
4.2856275655
 31
0
  0
LINE
  5
3EB
100
AcDbEntity
  8
SEMA2D
100
AcDbLine
370
9
 62
7
  6
_SOLID
 10
3.3529781568
 20
4.5389069287
 30
0
 11
3.3529380677
 21
4.5393065497
 31
0
  0
LINE
  5
3EC
100
AcDbEntity
  8
SEMA2D
100
AcDbLine
370
9
 62
7
  6
_SOLID
 10
3.3529380677
 20
4.5393065497
 30
0
 11
3.3528163174
 21
4.5397000697
 31
0
  0
LINE
  5
3ED
100
AcDbEntity
  8
SEMA2D
100
AcDbLine
370
9
 62
7
  6
_SOLID
 10
3.3528163174
 20
4.5397000697
 30
0
 11
3.3526655384
 21
4.5399975007
 31
0
  0
LINE
  5
3EE
100
AcDbEntity
  8
SEMA2D
100
AcDbLine
370
9
 62
7
  6
_SOLID
 10
3.3526655384
 20
4.5399975007
 30
0
 11
3.3526147262
 21
4.5400785317
 31
0
  0
LINE
  5
3EF
100
AcDbEntity
  8
SEMA2D
100
AcDbLine
370
9
 62
7
  6
_SOLID
 10
3.3526147262
 20
4.5400785317
 30
0
 11
3.3523362817
 21
4.5404336662
 31
0
  0
LINE
  5
3F0
100
AcDbEntity
  8
SEMA2D
100
AcDbLine
370
9
 62
7
  6
_SOLID
 10
3.3523362817
 20
4.5404336662
 30
0
 11
3.3519864436
 21
4.5407586586
 31
0
  0
LINE
  5
3F1
100
AcDbEntity
  8
SEMA2D
100
AcDbLine
370
9
 62
7
  6
_SOLID
 10
3.3519864436
 20
4.5407586586
 30
0
 11
3.3517680795
 21
4.5409205209
 31
0
  0
LINE
  5
3F2
100
AcDbEntity
  8
SEMA2D
100
AcDbLine
370
9
 62
7
  6
_SOLID
 10
3.3517680795
 20
4.5409205209
 30
0
 11
3.351571052
 21
4.541046899
 31
0
  0
LINE
  5
3F3
100
AcDbEntity
  8
SEMA2D
100
AcDbLine
370
9
 62
7
  6
_SOLID
 10
3.351571052
 20
4.541046899
 30
0
 11
3.3510978195
 21
4.5412923306
 31
0
  0
LINE
  5
3F4
100
AcDbEntity
  8
SEMA2D
100
AcDbLine
370
9
 62
7
  6
_SOLID
 10
3.3510978195
 20
4.5412923306
 30
0
 11
3.3505765611
 21
4.5414895177
 31
0
  0
LINE
  5
3F5
100
AcDbEntity
  8
SEMA2D
100
AcDbLine
370
9
 62
7
  6
_SOLID
 10
3.3505765611
 20
4.5414895177
 30
0
 11
3.350422582
 21
4.541535567
 31
0
  0
LINE
  5
3F6
100
AcDbEntity
  8
SEMA2D
100
AcDbLine
370
9
 62
7
  6
_SOLID
 10
3.350422582
 20
4.541535567
 30
0
 11
3.3500173877
 21
4.5416332695
 31
0
  0
LINE
  5
3F7
100
AcDbEntity
  8
SEMA2D
100
AcDbLine
370
9
 62
7
  6
_SOLID
 10
3.3500173877
 20
4.5416332695
 30
0
 11
3.3494321975
 21
4.5417204485
 31
0
  0
LINE
  5
3F8
100
AcDbEntity
  8
SEMA2D
100
AcDbLine
370
9
 62
7
  6
_SOLID
 10
3.3494321975
 20
4.5417204485
 30
0
 11
3.3488338916
 21
4.5417490688
 31
0
  0
LINE
  5
3F9
100
AcDbEntity
  8
SEMA2D
100
AcDbLine
370
9
 62
7
  6
_SOLID
 10
3.3488338916
 20
4.5417490688
 30
0
 11
3.3482353841
 21
4.5417178244
 31
0
  0
LINE
  5
3FA
100
AcDbEntity
  8
SEMA2D
100
AcDbLine
370
9
 62
7
  6
_SOLID
 10
3.3482353841
 20
4.5417178244
 30
0
 11
3.3476495983
 21
4.541628078
 31
0
  0
LINE
  5
3FB
100
AcDbEntity
  8
SEMA2D
100
AcDbLine
370
9
 62
7
  6
_SOLID
 10
3.3476495983
 20
4.541628078
 30
0
 11
3.3472437403
 21
4.5415285972
 31
0
  0
LINE
  5
3FC
100
AcDbEntity
  8
SEMA2D
100
AcDbLine
370
9
 62
7
  6
_SOLID
 10
3.3472437403
 20
4.5415285972
 30
0
 11
3.3470894485
 21
4.5414818719
 31
0
  0
LINE
  5
3FD
100
AcDbEntity
  8
SEMA2D
100
AcDbLine
370
9
 62
7
  6
_SOLID
 10
3.3470894485
 20
4.5414818719
 30
0
 11
3.3465668544
 21
4.5412823961
 31
0
  0
LINE
  5
3FE
100
AcDbEntity
  8
SEMA2D
100
AcDbLine
370
9
 62
7
  6
_SOLID
 10
3.3465668544
 20
4.5412823961
 30
0
 11
3.3460919622
 21
4.5410348856
 31
0
  0
LINE
  5
3FF
100
AcDbEntity
  8
SEMA2D
100
AcDbLine
370
9
 62
7
  6
_SOLID
 10
3.3460919622
 20
4.5410348856
 30
0
 11
3.3458940804
 21
4.5409076416
 31
0
  0
LINE
  5
400
100
AcDbEntity
  8
SEMA2D
100
AcDbLine
370
9
 62
7
  6
_SOLID
 10
3.3458940804
 20
4.5409076416
 30
0
 11
3.3456746232
 21
4.5407448194
 31
0
  0
LINE
  5
401
100
AcDbEntity
  8
SEMA2D
100
AcDbLine
370
9
 62
7
  6
_SOLID
 10
3.3456746232
 20
4.5407448194
 30
0
 11
3.3453225913
 21
4.5404182882
 31
0
  0
LINE
  5
402
100
AcDbEntity
  8
SEMA2D
100
AcDbLine
370
9
 62
7
  6
_SOLID
 10
3.3453225913
 20
4.5404182882
 30
0
 11
3.3450417509
 21
4.5400619275
 31
0
  0
LINE
  5
403
100
AcDbEntity
  8
SEMA2D
100
AcDbLine
370
9
 62
7
  6
_SOLID
 10
3.3450417509
 20
4.5400619275
 30
0
 11
3.3449903922
 21
4.5399806723
 31
0
  0
LINE
  5
404
100
AcDbEntity
  8
SEMA2D
100
AcDbLine
370
9
 62
7
  6
_SOLID
 10
3.3449903922
 20
4.5399806723
 30
0
 11
3.3448376079
 21
4.5396825758
 31
0
  0
LINE
  5
405
100
AcDbEntity
  8
SEMA2D
100
AcDbLine
370
9
 62
7
  6
_SOLID
 10
3.3448376079
 20
4.5396825758
 30
0
 11
3.3447132057
 21
4.5392885161
 31
0
  0
LINE
  5
406
100
AcDbEntity
  8
SEMA2D
100
AcDbLine
370
9
 62
7
  6
_SOLID
 10
3.3447132057
 20
4.5392885161
 30
0
 11
3.3446704246
 21
4.5388887133
 31
0
  0
LINE
  5
407
100
AcDbEntity
  8
SEMA2D
100
AcDbLine
370
9
 62
7
  6
_SOLID
 10
3.3446704246
 20
4.5388887133
 30
0
 11
3.3447105138
 21
4.5384890922
 31
0
  0
LINE
  5
408
100
AcDbEntity
  8
SEMA2D
100
AcDbLine
370
9
 62
7
  6
_SOLID
 10
3.3447105138
 20
4.5384890922
 30
0
 11
3.344832264
 21
4.5380955723
 31
0
  0
LINE
  5
409
100
AcDbEntity
  8
SEMA2D
100
AcDbLine
370
9
 62
7
  6
_SOLID
 10
3.344832264
 20
4.5380955723
 30
0
 11
3.3449830431
 21
4.5377981413
 31
0
  0
LINE
  5
40A
100
AcDbEntity
  8
SEMA2D
100
AcDbLine
370
9
 62
7
  6
_SOLID
 10
3.3449830431
 20
4.5377981413
 30
0
 11
3.3450338552
 21
4.5377171102
 31
0
  0
LINE
  5
40B
100
AcDbEntity
  8
SEMA2D
100
AcDbLine
370
9
 62
7
  6
_SOLID
 10
3.3450338552
 20
4.5377171102
 30
0
 11
3.3453122998
 21
4.5373619758
 31
0
  0
LINE
  5
40C
100
AcDbEntity
  8
SEMA2D
100
AcDbLine
370
9
 62
7
  6
_SOLID
 10
3.3453122998
 20
4.5373619758
 30
0
 11
3.3456621379
 21
4.5370369834
 31
0
  0
LINE
  5
40D
100
AcDbEntity
  8
SEMA2D
100
AcDbLine
370
9
 62
7
  6
_SOLID
 10
3.3456621379
 20
4.5370369834
 30
0
 11
3.345880502
 21
4.536875121
 31
0
  0
LINE
  5
40E
100
AcDbEntity
  8
SEMA2D
100
AcDbLine
370
9
 62
7
  6
_SOLID
 10
3.345880502
 20
4.536875121
 30
0
 11
3.3460775295
 21
4.536748743
 31
0
  0
LINE
  5
40F
100
AcDbEntity
  8
SEMA2D
100
AcDbLine
370
9
 62
7
  6
_SOLID
 10
3.3460775295
 20
4.536748743
 30
0
 11
3.3465507619
 21
4.5365033114
 31
0
  0
LINE
  5
410
100
AcDbEntity
  8
SEMA2D
100
AcDbLine
370
9
 62
7
  6
_SOLID
 10
3.3465507619
 20
4.5365033114
 30
0
 11
3.3470720204
 21
4.5363061243
 31
0
  0
LINE
  5
411
100
AcDbEntity
  8
SEMA2D
100
AcDbLine
370
9
 62
7
  6
_SOLID
 10
3.3470720204
 20
4.5363061243
 30
0
 11
3.3472259994
 21
4.536260075
 31
0
  0
LINE
  5
412
100
AcDbEntity
  8
SEMA2D
100
AcDbLine
370
9
 62
7
  6
_SOLID
 10
3.3472259994
 20
4.536260075
 30
0
 11
3.3476311938
 21
4.5361623724
 31
0
  0
LINE
  5
413
100
AcDbEntity
  8
SEMA2D
100
AcDbLine
370
9
 62
7
  6
_SOLID
 10
3.3476311938
 20
4.5361623724
 30
0
 11
3.348216384
 21
4.5360751935
 31
0
  0
LINE
  5
414
100
AcDbEntity
  8
SEMA2D
100
AcDbLine
370
9
 62
7
  6
_SOLID
 10
3.348216384
 20
4.5360751935
 30
0
 11
3.3488146899
 21
4.5360465732
 31
0
  0
LINE
  5
415
100
AcDbEntity
  8
SEMA2D
100
AcDbLine
370
9
 62
7
  6
_SOLID
 10
3.3488146899
 20
4.5360465732
 30
0
 11
3.3494131974
 21
4.5360778176
 31
0
  0
LINE
  5
416
100
AcDbEntity
  8
SEMA2D
100
AcDbLine
370
9
 62
7
  6
_SOLID
 10
3.3494131974
 20
4.5360778176
 30
0
 11
3.3499989832
 21
4.536167564
 31
0
  0
LINE
  5
417
100
AcDbEntity
  8
SEMA2D
100
AcDbLine
370
9
 62
7
  6
_SOLID
 10
3.3499989832
 20
4.536167564
 30
0
 11
3.3504048411
 21
4.5362670447
 31
0
  0
LINE
  5
418
100
AcDbEntity
  8
SEMA2D
100
AcDbLine
370
9
 62
7
  6
_SOLID
 10
3.3504048411
 20
4.5362670447
 30
0
 11
3.350559133
 21
4.5363137701
 31
0
  0
LINE
  5
419
100
AcDbEntity
  8
SEMA2D
100
AcDbLine
370
9
 62
7
  6
_SOLID
 10
3.350559133
 20
4.5363137701
 30
0
 11
3.351081727
 21
4.5365132459
 31
0
  0
LINE
  5
41A
100
AcDbEntity
  8
SEMA2D
100
AcDbLine
370
9
 62
7
  6
_SOLID
 10
3.351081727
 20
4.5365132459
 30
0
 11
3.3515566193
 21
4.5367607563
 31
0
  0
LINE
  5
41B
100
AcDbEntity
  8
SEMA2D
100
AcDbLine
370
9
 62
7
  6
_SOLID
 10
3.3515566193
 20
4.5367607563
 30
0
 11
3.3517545011
 21
4.5368880004
 31
0
  0
LINE
  5
41C
100
AcDbEntity
  8
SEMA2D
100
AcDbLine
370
9
 62
7
  6
_SOLID
 10
3.3517545011
 20
4.5368880004
 30
0
 11
3.3519739582
 21
4.5370508225
 31
0
  0
LINE
  5
41D
100
AcDbEntity
  8
SEMA2D
100
AcDbLine
370
9
 62
7
  6
_SOLID
 10
3.3519739582
 20
4.5370508225
 30
0
 11
3.3523259902
 21
4.5373773538
 31
0
  0
LINE
  5
41E
100
AcDbEntity
  8
SEMA2D
100
AcDbLine
370
9
 62
7
  6
_SOLID
 10
3.3523259902
 20
4.5373773538
 30
0
 11
3.3526068306
 21
4.5377337145
 31
0
  0
LINE
  5
41F
100
AcDbEntity
  8
SEMA2D
100
AcDbLine
370
9
 62
7
  6
_SOLID
 10
3.3526068306
 20
4.5377337145
 30
0
 11
3.3526581893
 21
4.5378149697
 31
0
  0
LINE
  5
420
100
AcDbEntity
  8
SEMA2D
100
AcDbLine
370
9
 62
7
  6
_SOLID
 10
3.3526581893
 20
4.5378149697
 30
0
 11
3.3528109735
 21
4.5381130662
 31
0
  0
LINE
  5
421
100
AcDbEntity
  8
SEMA2D
100
AcDbLine
370
9
 62
7
  6
_SOLID
 10
3.3528109735
 20
4.5381130662
 30
0
 11
3.3529353758
 21
4.5385071259
 31
0
  0
LINE
  5
422
100
AcDbEntity
  8
SEMA2D
100
AcDbLine
370
9
 62
7
  6
_SOLID
 10
3.3529353758
 20
4.5385071259
 30
0
 11
3.3529781568
 21
4.5389069287
 31
0
  0
LINE
  5
423
100
AcDbEntity
  8
SEMA2D
100
AcDbLine
370
9
 62
7
  6
_SOLID
 10
3.4310991938
 20
4.3007806055
 30
0
 11
3.4310513828
 21
4.3000170894
 31
0
  0
LINE
  5
424
100
AcDbEntity
  8
SEMA2D
100
AcDbLine
370
9
 62
7
  6
_SOLID
 10
3.4310513828
 20
4.3000170894
 30
0
 11
3.4309136687
 21
4.2992556789
 31
0
  0
LINE
  5
425
100
AcDbEntity
  8
SEMA2D
100
AcDbLine
370
9
 62
7
  6
_SOLID
 10
3.4309136687
 20
4.2992556789
 30
0
 11
3.430686924
 21
4.2985017958
 31
0
  0
LINE
  5
426
100
AcDbEntity
  8
SEMA2D
100
AcDbLine
370
9
 62
7
  6
_SOLID
 10
3.430686924
 20
4.2985017958
 30
0
 11
3.4303720214
 21
4.2977608622
 31
0
  0
LINE
  5
427
100
AcDbEntity
  8
SEMA2D
100
AcDbLine
370
9
 62
7
  6
_SOLID
 10
3.4303720214
 20
4.2977608622
 30
0
 11
3.4299698333
 21
4.2970383001
 31
0
  0
LINE
  5
428
100
AcDbEntity
  8
SEMA2D
100
AcDbLine
370
9
 62
7
  6
_SOLID
 10
3.4299698333
 20
4.2970383001
 30
0
 11
3.4299621244
 21
4.2970260124
 31
0
  0
LINE
  5
429
100
AcDbEntity
  8
SEMA2D
100
AcDbLine
370
9
 62
7
  6
_SOLID
 10
3.4299621244
 20
4.2970260124
 30
0
 11
3.4294818518
 21
4.2963394199
 31
0
  0
LINE
  5
42A
100
AcDbEntity
  8
SEMA2D
100
AcDbLine
370
9
 62
7
  6
_SOLID
 10
3.4294818518
 20
4.2963394199
 30
0
 11
3.4289121771
 21
4.2956690626
 31
0
  0
LINE
  5
42B
100
AcDbEntity
  8
SEMA2D
100
AcDbLine
370
9
 62
7
  6
_SOLID
 10
3.4289121771
 20
4.2956690626
 30
0
 11
3.4282655964
 21
4.2950319454
 31
0
  0
LINE
  5
42C
100
AcDbEntity
  8
SEMA2D
100
AcDbLine
370
9
 62
7
  6
_SOLID
 10
3.4282655964
 20
4.2950319454
 30
0
 11
3.4275468969
 21
4.2944327856
 31
0
  0
LINE
  5
42D
100
AcDbEntity
  8
SEMA2D
100
AcDbLine
370
9
 62
7
  6
_SOLID
 10
3.4275468969
 20
4.2944327856
 30
0
 11
3.4267608657
 21
4.2938763006
 31
0
  0
LINE
  5
42E
100
AcDbEntity
  8
SEMA2D
100
AcDbLine
370
9
 62
7
  6
_SOLID
 10
3.4380223039
 20
4.300795785
 30
0
 11
3.43798493
 21
4.2999742308
 31
0
  0
LINE
  5
42F
100
AcDbEntity
  8
SEMA2D
100
AcDbLine
370
9
 62
7
  6
_SOLID
 10
3.43798493
 20
4.2999742308
 30
0
 11
3.4378785544
 21
4.2991542919
 31
0
  0
LINE
  5
430
100
AcDbEntity
  8
SEMA2D
100
AcDbLine
370
9
 62
7
  6
_SOLID
 10
3.4378785544
 20
4.2991542919
 30
0
 11
3.4377034989
 21
4.2983390398
 31
0
  0
LINE
  5
431
100
AcDbEntity
  8
SEMA2D
100
AcDbLine
370
9
 62
7
  6
_SOLID
 10
3.4377034989
 20
4.2983390398
 30
0
 11
3.4375902861
 21
4.2979340294
 31
0
  0
LINE
  5
432
100
AcDbEntity
  8
SEMA2D
100
AcDbLine
370
9
 62
7
  6
_SOLID
 10
3.4375902861
 20
4.2979340294
 30
0
 11
3.4374601003
 21
4.2975315333
 31
0
  0
LINE
  5
433
100
AcDbEntity
  8
SEMA2D
100
AcDbLine
370
9
 62
7
  6
_SOLID
 10
3.4374601003
 20
4.2975315333
 30
0
 11
3.4371490388
 21
4.2967345387
 31
0
  0
LINE
  5
434
100
AcDbEntity
  8
SEMA2D
100
AcDbLine
370
9
 62
7
  6
_SOLID
 10
3.4371490388
 20
4.2967345387
 30
0
 11
3.4367713375
 21
4.2959505299
 31
0
  0
LINE
  5
435
100
AcDbEntity
  8
SEMA2D
100
AcDbLine
370
9
 62
7
  6
_SOLID
 10
3.4367713375
 20
4.2959505299
 30
0
 11
3.4363280345
 21
4.295181968
 31
0
  0
LINE
  5
436
100
AcDbEntity
  8
SEMA2D
100
AcDbLine
370
9
 62
7
  6
_SOLID
 10
3.4363280345
 20
4.295181968
 30
0
 11
3.4363279408
 21
4.2951818183
 31
0
  0
LINE
  5
437
100
AcDbEntity
  8
SEMA2D
100
AcDbLine
370
9
 62
7
  6
_SOLID
 10
3.4363279408
 20
4.2951818183
 30
0
 11
3.4358202534
 21
4.2944313041
 31
0
  0
LINE
  5
438
100
AcDbEntity
  8
SEMA2D
100
AcDbLine
370
9
 62
7
  6
_SOLID
 10
3.4358202534
 20
4.2944313041
 30
0
 11
3.4352494593
 21
4.2937009486
 31
0
  0
LINE
  5
439
100
AcDbEntity
  8
SEMA2D
100
AcDbLine
370
9
 62
7
  6
_SOLID
 10
3.4352494593
 20
4.2937009486
 30
0
 11
3.4346172026
 21
4.2929933019
 31
0
  0
LINE
  5
43A
100
AcDbEntity
  8
SEMA2D
100
AcDbLine
370
9
 62
7
  6
_SOLID
 10
3.4346172026
 20
4.2929933019
 30
0
 11
3.4342783942
 21
4.2926486299
 31
0
  0
LINE
  5
43B
100
AcDbEntity
  8
SEMA2D
100
AcDbLine
370
9
 62
7
  6
_SOLID
 10
3.4342783942
 20
4.2926486299
 30
0
 11
3.4339250637
 21
4.2923107686
 31
0
  0
LINE
  5
43C
100
AcDbEntity
  8
SEMA2D
100
AcDbLine
370
9
 62
7
  6
_SOLID
 10
3.4339250637
 20
4.2923107686
 30
0
 11
3.4331753103
 21
4.2916558554
 31
0
  0
LINE
  5
43D
100
AcDbEntity
  8
SEMA2D
100
AcDbLine
370
9
 62
7
  6
_SOLID
 10
3.4331753103
 20
4.2916558554
 30
0
 11
3.4323708979
 21
4.2910311708
 31
0
  0
LINE
  5
43E
100
AcDbEntity
  8
SEMA2D
100
AcDbLine
370
9
 62
7
  6
_SOLID
 10
3.4323708979
 20
4.2910311708
 30
0
 11
3.4315148119
 21
4.2904393277
 31
0
  0
LINE
  5
43F
100
AcDbEntity
  8
SEMA2D
100
AcDbLine
370
9
 62
7
  6
_SOLID
 10
3.2580214398
 20
4.3004011185
 30
0
 11
3.2580532814
 21
4.299579716
 31
0
  0
LINE
  5
440
100
AcDbEntity
  8
SEMA2D
100
AcDbLine
370
9
 62
7
  6
_SOLID
 10
3.2580532814
 20
4.299579716
 30
0
 11
3.2581541367
 21
4.2987602315
 31
0
  0
LINE
  5
441
100
AcDbEntity
  8
SEMA2D
100
AcDbLine
370
9
 62
7
  6
_SOLID
 10
3.2581541367
 20
4.2987602315
 30
0
 11
3.2583237044
 21
4.2979457351
 31
0
  0
LINE
  5
442
100
AcDbEntity
  8
SEMA2D
100
AcDbLine
370
9
 62
7
  6
_SOLID
 10
3.2583237044
 20
4.2979457351
 30
0
 11
3.2584341912
 21
4.2975412151
 31
0
  0
LINE
  5
443
100
AcDbEntity
  8
SEMA2D
100
AcDbLine
370
9
 62
7
  6
_SOLID
 10
3.2584341912
 20
4.2975412151
 30
0
 11
3.2585616683
 21
4.297139284
 31
0
  0
LINE
  5
444
100
AcDbEntity
  8
SEMA2D
100
AcDbLine
370
9
 62
7
  6
_SOLID
 10
3.2585616683
 20
4.297139284
 30
0
 11
3.258867367
 21
4.2963436417
 31
0
  0
LINE
  5
445
100
AcDbEntity
  8
SEMA2D
100
AcDbLine
370
9
 62
7
  6
_SOLID
 10
3.258867367
 20
4.2963436417
 30
0
 11
3.2592397939
 21
4.2955612775
 31
0
  0
LINE
  5
446
100
AcDbEntity
  8
SEMA2D
100
AcDbLine
370
9
 62
7
  6
_SOLID
 10
3.2592397939
 20
4.2955612775
 30
0
 11
3.2596779275
 21
4.2947946483
 31
0
  0
LINE
  5
447
100
AcDbEntity
  8
SEMA2D
100
AcDbLine
370
9
 62
7
  6
_SOLID
 10
3.2596779275
 20
4.2947946483
 30
0
 11
3.2596780201
 21
4.294794499
 31
0
  0
LINE
  5
448
100
AcDbEntity
  8
SEMA2D
100
AcDbLine
370
9
 62
7
  6
_SOLID
 10
3.2596780201
 20
4.294794499
 30
0
 11
3.2601806606
 21
4.2940462
 31
0
  0
LINE
  5
449
100
AcDbEntity
  8
SEMA2D
100
AcDbLine
370
9
 62
7
  6
_SOLID
 10
3.2601806606
 20
4.2940462
 30
0
 11
3.2607465445
 21
4.2933183368
 31
0
  0
LINE
  5
44A
100
AcDbEntity
  8
SEMA2D
100
AcDbLine
370
9
 62
7
  6
_SOLID
 10
3.2607465445
 20
4.2933183368
 30
0
 11
3.2613740448
 21
4.2926134522
 31
0
  0
LINE
  5
44B
100
AcDbEntity
  8
SEMA2D
100
AcDbLine
370
9
 62
7
  6
_SOLID
 10
3.2613740448
 20
4.2926134522
 30
0
 11
3.261710537
 21
4.2922702609
 31
0
  0
LINE
  5
44C
100
AcDbEntity
  8
SEMA2D
100
AcDbLine
370
9
 62
7
  6
_SOLID
 10
3.261710537
 20
4.2922702609
 30
0
 11
3.2620615974
 21
4.291933944
 31
0
  0
LINE
  5
44D
100
AcDbEntity
  8
SEMA2D
100
AcDbLine
370
9
 62
7
  6
_SOLID
 10
3.2620615974
 20
4.291933944
 30
0
 11
3.2628069512
 21
4.291282309
 31
0
  0
LINE
  5
44E
100
AcDbEntity
  8
SEMA2D
100
AcDbLine
370
9
 62
7
  6
_SOLID
 10
3.2628069512
 20
4.291282309
 30
0
 11
3.2636071685
 21
4.2906611426
 31
0
  0
LINE
  5
44F
100
AcDbEntity
  8
SEMA2D
100
AcDbLine
370
9
 62
7
  6
_SOLID
 10
3.2636071685
 20
4.2906611426
 30
0
 11
3.2644592814
 21
4.2900730448
 31
0
  0
LINE
  5
450
100
AcDbEntity
  8
SEMA2D
100
AcDbLine
370
9
 62
7
  6
_SOLID
 10
3.26494455
 20
4.300416298
 30
0
 11
3.2649872196
 21
4.2996529803
 31
0
  0
LINE
  5
451
100
AcDbEntity
  8
SEMA2D
100
AcDbLine
370
9
 62
7
  6
_SOLID
 10
3.2649872196
 20
4.2996529803
 30
0
 11
3.265119808
 21
4.2988921624
 31
0
  0
LINE
  5
452
100
AcDbEntity
  8
SEMA2D
100
AcDbLine
370
9
 62
7
  6
_SOLID
 10
3.265119808
 20
4.2988921624
 30
0
 11
3.2653414789
 21
4.2981392625
 31
0
  0
LINE
  5
453
100
AcDbEntity
  8
SEMA2D
100
AcDbLine
370
9
 62
7
  6
_SOLID
 10
3.2653414789
 20
4.2981392625
 30
0
 11
3.2656513964
 21
4.2973996989
 31
0
  0
LINE
  5
454
100
AcDbEntity
  8
SEMA2D
100
AcDbLine
370
9
 62
7
  6
_SOLID
 10
3.2656513964
 20
4.2973996989
 30
0
 11
3.2660487241
 21
4.2966788898
 31
0
  0
LINE
  5
455
100
AcDbEntity
  8
SEMA2D
100
AcDbLine
370
9
 62
7
  6
_SOLID
 10
3.2660487241
 20
4.2966788898
 30
0
 11
3.2660563504
 21
4.2966666357
 31
0
  0
LINE
  5
456
100
AcDbEntity
  8
SEMA2D
100
AcDbLine
370
9
 62
7
  6
_SOLID
 10
3.2660563504
 20
4.2966666357
 30
0
 11
3.2665320062
 21
4.2959821391
 31
0
  0
LINE
  5
457
100
AcDbEntity
  8
SEMA2D
100
AcDbLine
370
9
 62
7
  6
_SOLID
 10
3.2665320062
 20
4.2959821391
 30
0
 11
3.2670971747
 21
4.29531427
 31
0
  0
LINE
  5
458
100
AcDbEntity
  8
SEMA2D
100
AcDbLine
370
9
 62
7
  6
_SOLID
 10
3.2670971747
 20
4.29531427
 30
0
 11
3.2677394743
 21
4.2946799788
 31
0
  0
LINE
  5
459
100
AcDbEntity
  8
SEMA2D
100
AcDbLine
370
9
 62
7
  6
_SOLID
 10
3.2677394743
 20
4.2946799788
 30
0
 11
3.2684541493
 21
4.2940839619
 31
0
  0
LINE
  5
45A
100
AcDbEntity
  8
SEMA2D
100
AcDbLine
370
9
 62
7
  6
_SOLID
 10
3.2684541493
 20
4.2940839619
 30
0
 11
3.2692364443
 21
4.2935309155
 31
0
  0
LINE
  5
45B
100
AcDbEntity
  8
SEMA2D
100
AcDbLine
370
9
 62
7
  6
_SOLID
 10
3.2305678657
 20
4.2755068514
 30
0
 11
3.2294320813
 21
4.2762911079
 31
0
  0
LINE
  5
45C
100
AcDbEntity
  8
SEMA2D
100
AcDbLine
370
9
 62
7
  6
_SOLID
 10
3.2294320813
 20
4.2762911079
 30
0
 11
3.228365828
 21
4.2771196228
 31
0
  0
LINE
  5
45D
100
AcDbEntity
  8
SEMA2D
100
AcDbLine
370
9
 62
7
  6
_SOLID
 10
3.228365828
 20
4.2771196228
 30
0
 11
3.2273725932
 21
4.2779887221
 31
0
  0
LINE
  5
45E
100
AcDbEntity
  8
SEMA2D
100
AcDbLine
370
9
 62
7
  6
_SOLID
 10
3.2273725932
 20
4.2779887221
 30
0
 11
3.226922476
 21
4.2784195466
 31
0
  0
LINE
  5
45F
100
AcDbEntity
  8
SEMA2D
100
AcDbLine
370
9
 62
7
  6
_SOLID
 10
3.226922476
 20
4.2784195466
 30
0
 11
3.2264558425
 21
4.2788947469
 31
0
  0
LINE
  5
460
100
AcDbEntity
  8
SEMA2D
100
AcDbLine
370
9
 62
7
  6
_SOLID
 10
3.2264558425
 20
4.2788947469
 30
0
 11
3.2256185809
 21
4.2798343601
 31
0
  0
LINE
  5
461
100
AcDbEntity
  8
SEMA2D
100
AcDbLine
370
9
 62
7
  6
_SOLID
 10
3.2256185809
 20
4.2798343601
 30
0
 11
3.2248633765
 21
4.2808045302
 31
0
  0
LINE
  5
462
100
AcDbEntity
  8
SEMA2D
100
AcDbLine
370
9
 62
7
  6
_SOLID
 10
3.2248633765
 20
4.2808045302
 30
0
 11
3.2242076775
 21
4.2817782922
 31
0
  0
LINE
  5
463
100
AcDbEntity
  8
SEMA2D
100
AcDbLine
370
9
 62
7
  6
_SOLID
 10
3.2242076775
 20
4.2817782922
 30
0
 11
3.2241927797
 21
4.2818022381
 31
0
  0
LINE
  5
464
100
AcDbEntity
  8
SEMA2D
100
AcDbLine
370
9
 62
7
  6
_SOLID
 10
3.2241927797
 20
4.2818022381
 30
0
 11
3.2236090364
 21
4.2828243979
 31
0
  0
LINE
  5
465
100
AcDbEntity
  8
SEMA2D
100
AcDbLine
370
9
 62
7
  6
_SOLID
 10
3.2236090364
 20
4.2828243979
 30
0
 11
3.2231132559
 21
4.2838676763
 31
0
  0
LINE
  5
466
100
AcDbEntity
  8
SEMA2D
100
AcDbLine
370
9
 62
7
  6
_SOLID
 10
3.2231132559
 20
4.2838676763
 30
0
 11
3.2227062832
 21
4.2849286823
 31
0
  0
LINE
  5
467
100
AcDbEntity
  8
SEMA2D
100
AcDbLine
370
9
 62
7
  6
_SOLID
 10
3.2227062832
 20
4.2849286823
 30
0
 11
3.2225412559
 21
4.2854482321
 31
0
  0
LINE
  5
468
100
AcDbEntity
  8
SEMA2D
100
AcDbLine
370
9
 62
7
  6
_SOLID
 10
3.2225412559
 20
4.2854482321
 30
0
 11
3.2223889654
 21
4.2860040103
 31
0
  0
LINE
  5
469
100
AcDbEntity
  8
SEMA2D
100
AcDbLine
370
9
 62
7
  6
_SOLID
 10
3.2223889654
 20
4.2860040103
 30
0
 11
3.2221621976
 21
4.2870899484
 31
0
  0
LINE
  5
46A
100
AcDbEntity
  8
SEMA2D
100
AcDbLine
370
9
 62
7
  6
_SOLID
 10
3.2221621976
 20
4.2870899484
 30
0
 11
3.2220269205
 21
4.28818249
 31
0
  0
LINE
  5
46B
100
AcDbEntity
  8
SEMA2D
100
AcDbLine
370
9
 62
7
  6
_SOLID
 10
3.2220269205
 20
4.28818249
 30
0
 11
3.2219840769
 21
4.2892776163
 31
0
  0
LINE
  5
46C
100
AcDbEntity
  8
SEMA2D
100
AcDbLine
370
9
 62
7
  6
_SOLID
 10
3.3520221365
 20
4.2091499888
 30
0
 11
3.3531378871
 21
4.2146044934
 31
0
  0
LINE
  5
46D
100
AcDbEntity
  8
SEMA2D
100
AcDbLine
370
9
 62
7
  6
_SOLID
 10
3.3531378871
 20
4.2146044934
 30
0
 11
3.3546407413
 21
4.2200226781
 31
0
  0
LINE
  5
46E
100
AcDbEntity
  8
SEMA2D
100
AcDbLine
370
9
 62
7
  6
_SOLID
 10
3.3546407413
 20
4.2200226781
 30
0
 11
3.3565275719
 21
4.2253900115
 31
0
  0
LINE
  5
46F
100
AcDbEntity
  8
SEMA2D
100
AcDbLine
370
9
 62
7
  6
_SOLID
 10
3.3565275719
 20
4.2253900115
 30
0
 11
3.357696092
 21
4.2282413864
 31
0
  0
LINE
  5
470
100
AcDbEntity
  8
SEMA2D
100
AcDbLine
370
9
 62
7
  6
_SOLID
 10
3.357696092
 20
4.2282413864
 30
0
 11
3.3587952501
 21
4.2306919911
 31
0
  0
LINE
  5
471
100
AcDbEntity
  8
SEMA2D
100
AcDbLine
370
9
 62
7
  6
_SOLID
 10
3.3587952501
 20
4.2306919911
 30
0
 11
3.3614405972
 21
4.235914902
 31
0
  0
LINE
  5
472
100
AcDbEntity
  8
SEMA2D
100
AcDbLine
370
9
 62
7
  6
_SOLID
 10
3.3614405972
 20
4.235914902
 30
0
 11
3.3644603803
 21
4.2410458946
 31
0
  0
LINE
  5
473
100
AcDbEntity
  8
SEMA2D
100
AcDbLine
370
9
 62
7
  6
_SOLID
 10
3.3644603803
 20
4.2410458946
 30
0
 11
3.3678513634
 21
4.2460721637
 31
0
  0
LINE
  5
474
100
AcDbEntity
  8
SEMA2D
100
AcDbLine
370
9
 62
7
  6
_SOLID
 10
3.3678513634
 20
4.2460721637
 30
0
 11
3.3680179612
 21
4.2463030404
 31
0
  0
LINE
  5
475
100
AcDbEntity
  8
SEMA2D
100
AcDbLine
370
9
 62
7
  6
_SOLID
 10
3.3680179612
 20
4.2463030404
 30
0
 11
3.3716094348
 21
4.2509810679
 31
0
  0
LINE
  5
476
100
AcDbEntity
  8
SEMA2D
100
AcDbLine
370
9
 62
7
  6
_SOLID
 10
3.3716094348
 20
4.2509810679
 30
0
 11
3.375726454
 21
4.2557607187
 31
0
  0
LINE
  5
477
100
AcDbEntity
  8
SEMA2D
100
AcDbLine
370
9
 62
7
  6
_SOLID
 10
3.375726454
 20
4.2557607187
 30
0
 11
3.380193123
 21
4.2603994444
 31
0
  0
LINE
  5
478
100
AcDbEntity
  8
SEMA2D
100
AcDbLine
370
9
 62
7
  6
_SOLID
 10
3.380193123
 20
4.2603994444
 30
0
 11
3.3827135971
 21
4.2628103771
 31
0
  0
LINE
  5
479
100
AcDbEntity
  8
SEMA2D
100
AcDbLine
370
9
 62
7
  6
_SOLID
 10
3.3827135971
 20
4.2628103771
 30
0
 11
3.3850000668
 21
4.264885534
 31
0
  0
LINE
  5
47A
100
AcDbEntity
  8
SEMA2D
100
AcDbLine
370
9
 62
7
  6
_SOLID
 10
3.3850000668
 20
4.264885534
 30
0
 11
3.3901358325
 21
4.2692062281
 31
0
  0
LINE
  5
47B
100
AcDbEntity
  8
SEMA2D
100
AcDbLine
370
9
 62
7
  6
_SOLID
 10
3.3901358325
 20
4.2692062281
 30
0
 11
3.3955867026
 21
4.2733476238
 31
0
  0
LINE
  5
47C
100
AcDbEntity
  8
SEMA2D
100
AcDbLine
370
9
 62
7
  6
_SOLID
 10
3.3955867026
 20
4.2733476238
 30
0
 11
3.4013388448
 21
4.2772957608
 31
0
  0
LINE
  5
47D
100
AcDbEntity
  8
SEMA2D
100
AcDbLine
370
9
 62
7
  6
_SOLID
 10
3.3527855779
 20
4.2091058018
 30
0
 11
3.3543871231
 21
4.2136627132
 31
0
  0
LINE
  5
47E
100
AcDbEntity
  8
SEMA2D
100
AcDbLine
370
9
 62
7
  6
_SOLID
 10
3.3543871231
 20
4.2136627132
 30
0
 11
3.3562340759
 21
4.2181810617
 31
0
  0
LINE
  5
47F
100
AcDbEntity
  8
SEMA2D
100
AcDbLine
370
9
 62
7
  6
_SOLID
 10
3.3562340759
 20
4.2181810617
 30
0
 11
3.3583235609
 21
4.2226540859
 31
0
  0
LINE
  5
480
100
AcDbEntity
  8
SEMA2D
100
AcDbLine
370
9
 62
7
  6
_SOLID
 10
3.3583235609
 20
4.2226540859
 30
0
 11
3.3606527029
 21
4.2270750244
 31
0
  0
LINE
  5
481
100
AcDbEntity
  8
SEMA2D
100
AcDbLine
370
9
 62
7
  6
_SOLID
 10
3.3606527029
 20
4.2270750244
 30
0
 11
3.3606852683
 21
4.227133416
 31
0
  0
LINE
  5
482
100
AcDbEntity
  8
SEMA2D
100
AcDbLine
370
9
 62
7
  6
_SOLID
 10
3.3606852683
 20
4.227133416
 30
0
 11
3.363218637
 21
4.2314371964
 31
0
  0
LINE
  5
483
100
AcDbEntity
  8
SEMA2D
100
AcDbLine
370
9
 62
7
  6
_SOLID
 10
3.363218637
 20
4.2314371964
 30
0
 11
3.3660185417
 21
4.2357342547
 31
0
  0
LINE
  5
484
100
AcDbEntity
  8
SEMA2D
100
AcDbLine
370
9
 62
7
  6
_SOLID
 10
3.3660185417
 20
4.2357342547
 30
0
 11
3.369049607
 21
4.2399599394
 31
0
  0
LINE
  5
485
100
AcDbEntity
  8
SEMA2D
100
AcDbLine
370
9
 62
7
  6
_SOLID
 10
3.369049607
 20
4.2399599394
 30
0
 11
3.372309023
 21
4.2441079904
 31
0
  0
LINE
  5
486
100
AcDbEntity
  8
SEMA2D
100
AcDbLine
370
9
 62
7
  6
_SOLID
 10
3.372309023
 20
4.2441079904
 30
0
 11
3.3723736692
 21
4.2441866495
 31
0
  0
LINE
  5
487
100
AcDbEntity
  8
SEMA2D
100
AcDbLine
370
9
 62
7
  6
_SOLID
 10
3.3723736692
 20
4.2441866495
 30
0
 11
3.3757935972
 21
4.2481723483
 31
0
  0
LINE
  5
488
100
AcDbEntity
  8
SEMA2D
100
AcDbLine
370
9
 62
7
  6
_SOLID
 10
3.3757935972
 20
4.2481723483
 30
0
 11
3.3794985176
 21
4.2521478032
 31
0
  0
LINE
  5
489
100
AcDbEntity
  8
SEMA2D
100
AcDbLine
370
9
 62
7
  6
_SOLID
 10
3.3794985176
 20
4.2521478032
 30
0
 11
3.3795731982
 21
4.252224695
 31
0
  0
LINE
  5
48A
100
AcDbEntity
  8
SEMA2D
100
AcDbLine
370
9
 62
7
  6
_SOLID
 10
3.3795731982
 20
4.252224695
 30
0
 11
3.383418881
 21
4.2560295381
 31
0
  0
LINE
  5
48B
100
AcDbEntity
  8
SEMA2D
100
AcDbLine
370
9
 62
7
  6
_SOLID
 10
3.383418881
 20
4.2560295381
 30
0
 11
3.3875512164
 21
4.2598134488
 31
0
  0
LINE
  5
48C
100
AcDbEntity
  8
SEMA2D
100
AcDbLine
370
9
 62
7
  6
_SOLID
 10
3.3875512164
 20
4.2598134488
 30
0
 11
3.3876239244
 21
4.2598774735
 31
0
  0
LINE
  5
48D
100
AcDbEntity
  8
SEMA2D
100
AcDbLine
370
9
 62
7
  6
_SOLID
 10
3.3876239244
 20
4.2598774735
 30
0
 11
3.3918917465
 21
4.2634951128
 31
0
  0
LINE
  5
48E
100
AcDbEntity
  8
SEMA2D
100
AcDbLine
370
9
 62
7
  6
_SOLID
 10
3.3918917465
 20
4.2634951128
 30
0
 11
3.3964338041
 21
4.2670679713
 31
0
  0
LINE
  5
48F
100
AcDbEntity
  8
SEMA2D
100
AcDbLine
370
9
 62
7
  6
_SOLID
 10
3.3964338041
 20
4.2670679713
 30
0
 11
3.4011699615
 21
4.2705249033
 31
0
  0
LINE
  5
490
100
AcDbEntity
  8
SEMA2D
100
AcDbLine
370
9
 62
7
  6
_SOLID
 10
3.4011699615
 20
4.2705249033
 30
0
 11
3.406092791
 21
4.2738587878
 31
0
  0
LINE
  5
491
100
AcDbEntity
  8
SEMA2D
100
AcDbLine
370
9
 62
7
  6
_SOLID
 10
3.3434608651
 20
4.2091345313
 30
0
 11
3.3423810938
 21
4.2145850818
 31
0
  0
LINE
  5
492
100
AcDbEntity
  8
SEMA2D
100
AcDbLine
370
9
 62
7
  6
_SOLID
 10
3.3423810938
 20
4.2145850818
 30
0
 11
3.340912146
 21
4.2199973995
 31
0
  0
LINE
  5
493
100
AcDbEntity
  8
SEMA2D
100
AcDbLine
370
9
 62
7
  6
_SOLID
 10
3.340912146
 20
4.2199973995
 30
0
 11
3.3390574828
 21
4.2253569069
 31
0
  0
LINE
  5
494
100
AcDbEntity
  8
SEMA2D
100
AcDbLine
370
9
 62
7
  6
_SOLID
 10
3.3390574828
 20
4.2253569069
 30
0
 11
3.3379163155
 21
4.2281780856
 31
0
  0
LINE
  5
495
100
AcDbEntity
  8
SEMA2D
100
AcDbLine
370
9
 62
7
  6
_SOLID
 10
3.3379163155
 20
4.2281780856
 30
0
 11
3.3368205644
 21
4.2306490581
 31
0
  0
LINE
  5
496
100
AcDbEntity
  8
SEMA2D
100
AcDbLine
370
9
 62
7
  6
_SOLID
 10
3.3368205644
 20
4.2306490581
 30
0
 11
3.334204835
 21
4.2358601537
 31
0
  0
LINE
  5
497
100
AcDbEntity
  8
SEMA2D
100
AcDbLine
370
9
 62
7
  6
_SOLID
 10
3.334204835
 20
4.2358601537
 30
0
 11
3.3312137209
 21
4.2409774132
 31
0
  0
LINE
  5
498
100
AcDbEntity
  8
SEMA2D
100
AcDbLine
370
9
 62
7
  6
_SOLID
 10
3.3312137209
 20
4.2409774132
 30
0
 11
3.3278506478
 21
4.2459881021
 31
0
  0
LINE
  5
499
100
AcDbEntity
  8
SEMA2D
100
AcDbLine
370
9
 62
7
  6
_SOLID
 10
3.3278506478
 20
4.2459881021
 30
0
 11
3.3277050351
 21
4.246190857
 31
0
  0
LINE
  5
49A
100
AcDbEntity
  8
SEMA2D
100
AcDbLine
370
9
 62
7
  6
_SOLID
 10
3.3277050351
 20
4.246190857
 30
0
 11
3.3241199185
 21
4.2508796647
 31
0
  0
LINE
  5
49B
100
AcDbEntity
  8
SEMA2D
100
AcDbLine
370
9
 62
7
  6
_SOLID
 10
3.3241199185
 20
4.2508796647
 30
0
 11
3.3200298045
 21
4.2556403543
 31
0
  0
LINE
  5
49C
100
AcDbEntity
  8
SEMA2D
100
AcDbLine
370
9
 62
7
  6
_SOLID
 10
3.3200298045
 20
4.2556403543
 30
0
 11
3.3155896988
 21
4.2602586529
 31
0
  0
LINE
  5
49D
100
AcDbEntity
  8
SEMA2D
100
AcDbLine
370
9
 62
7
  6
_SOLID
 10
3.3155896988
 20
4.2602586529
 30
0
 11
3.3130999741
 21
4.2626426104
 31
0
  0
LINE
  5
49E
100
AcDbEntity
  8
SEMA2D
100
AcDbLine
370
9
 62
7
  6
_SOLID
 10
3.3130999741
 20
4.2626426104
 30
0
 11
3.3108090694
 21
4.2647230027
 31
0
  0
LINE
  5
49F
100
AcDbEntity
  8
SEMA2D
100
AcDbLine
370
9
 62
7
  6
_SOLID
 10
3.3108090694
 20
4.2647230027
 30
0
 11
3.3056993639
 21
4.2690207905
 31
0
  0
LINE
  5
4A0
100
AcDbEntity
  8
SEMA2D
100
AcDbLine
370
9
 62
7
  6
_SOLID
 10
3.3056993639
 20
4.2690207905
 30
0
 11
3.300274169
 21
4.2731382633
 31
0
  0
LINE
  5
4A1
100
AcDbEntity
  8
SEMA2D
100
AcDbLine
370
9
 62
7
  6
_SOLID
 10
3.300274169
 20
4.2731382633
 30
0
 11
3.2945471774
 21
4.2770616114
 31
0
  0
LINE
  5
4A2
100
AcDbEntity
  8
SEMA2D
100
AcDbLine
370
9
 62
7
  6
_SOLID
 10
3.3424359753
 20
4.2090707425
 30
0
 11
3.3408756973
 21
4.2136191333
 31
0
  0
LINE
  5
4A3
100
AcDbEntity
  8
SEMA2D
100
AcDbLine
370
9
 62
7
  6
_SOLID
 10
3.3408756973
 20
4.2136191333
 30
0
 11
3.3390724049
 21
4.21812858
 31
0
  0
LINE
  5
4A4
100
AcDbEntity
  8
SEMA2D
100
AcDbLine
370
9
 62
7
  6
_SOLID
 10
3.3390724049
 20
4.21812858
 30
0
 11
3.3370282421
 21
4.2225923246
 31
0
  0
LINE
  5
4A5
100
AcDbEntity
  8
SEMA2D
100
AcDbLine
370
9
 62
7
  6
_SOLID
 10
3.3370282421
 20
4.2225923246
 30
0
 11
3.3347453526
 21
4.2270036091
 31
0
  0
LINE
  5
4A6
100
AcDbEntity
  8
SEMA2D
100
AcDbLine
370
9
 62
7
  6
_SOLID
 10
3.3347453526
 20
4.2270036091
 30
0
 11
3.3346750521
 21
4.2271316978
 31
0
  0
LINE
  5
4A7
100
AcDbEntity
  8
SEMA2D
100
AcDbLine
370
9
 62
7
  6
_SOLID
 10
3.3346750521
 20
4.2271316978
 30
0
 11
3.3322259185
 21
4.2313557335
 31
0
  0
LINE
  5
4A8
100
AcDbEntity
  8
SEMA2D
100
AcDbLine
370
9
 62
7
  6
_SOLID
 10
3.3322259185
 20
4.2313557335
 30
0
 11
3.3294722878
 21
4.2356422493
 31
0
  0
LINE
  5
4A9
100
AcDbEntity
  8
SEMA2D
100
AcDbLine
370
9
 62
7
  6
_SOLID
 10
3.3294722878
 20
4.2356422493
 30
0
 11
3.3264868537
 21
4.2398567771
 31
0
  0
LINE
  5
4AA
100
AcDbEntity
  8
SEMA2D
100
AcDbLine
370
9
 62
7
  6
_SOLID
 10
3.3264868537
 20
4.2398567771
 30
0
 11
3.3232720095
 21
4.2439929376
 31
0
  0
LINE
  5
4AB
100
AcDbEntity
  8
SEMA2D
100
AcDbLine
370
9
 62
7
  6
_SOLID
 10
3.3232720095
 20
4.2439929376
 30
0
 11
3.3231469536
 21
4.2441465183
 31
0
  0
LINE
  5
4AC
100
AcDbEntity
  8
SEMA2D
100
AcDbLine
370
9
 62
7
  6
_SOLID
 10
3.3231469536
 20
4.2441465183
 30
0
 11
3.3198305262
 21
4.2480445333
 31
0
  0
LINE
  5
4AD
100
AcDbEntity
  8
SEMA2D
100
AcDbLine
370
9
 62
7
  6
_SOLID
 10
3.3198305262
 20
4.2480445333
 30
0
 11
3.3161668647
 21
4.252006182
 31
0
  0
LINE
  5
4AE
100
AcDbEntity
  8
SEMA2D
100
AcDbLine
370
9
 62
7
  6
_SOLID
 10
3.3161668647
 20
4.252006182
 30
0
 11
3.3160331808
 21
4.252144691
 31
0
  0
LINE
  5
4AF
100
AcDbEntity
  8
SEMA2D
100
AcDbLine
370
9
 62
7
  6
_SOLID
 10
3.3160331808
 20
4.252144691
 30
0
 11
3.3122856468
 21
4.2558728911
 31
0
  0
LINE
  5
4B0
100
AcDbEntity
  8
SEMA2D
100
AcDbLine
370
9
 62
7
  6
_SOLID
 10
3.3122856468
 20
4.2558728911
 30
0
 11
3.3081901079
 21
4.2596403864
 31
0
  0
LINE
  5
4B1
100
AcDbEntity
  8
SEMA2D
100
AcDbLine
370
9
 62
7
  6
_SOLID
 10
3.3081901079
 20
4.2596403864
 30
0
 11
3.3080695595
 21
4.2597468945
 31
0
  0
LINE
  5
4B2
100
AcDbEntity
  8
SEMA2D
100
AcDbLine
370
9
 62
7
  6
_SOLID
 10
3.3080695595
 20
4.2597468945
 30
0
 11
3.3038838038
 21
4.2633041106
 31
0
  0
LINE
  5
4B3
100
AcDbEntity
  8
SEMA2D
100
AcDbLine
370
9
 62
7
  6
_SOLID
 10
3.3038838038
 20
4.2633041106
 30
0
 11
3.2993733704
 21
4.2668574015
 31
0
  0
LINE
  5
4B4
100
AcDbEntity
  8
SEMA2D
100
AcDbLine
370
9
 62
7
  6
_SOLID
 10
3.2993733704
 20
4.2668574015
 30
0
 11
3.2946662823
 21
4.2702930234
 31
0
  0
LINE
  5
4B5
100
AcDbEntity
  8
SEMA2D
100
AcDbLine
370
9
 62
7
  6
_SOLID
 10
3.2946662823
 20
4.2702930234
 30
0
 11
3.2897700145
 21
4.2736037407
 31
0
  0
LINE
  5
4B6
100
AcDbEntity
  8
SEMA2D
100
AcDbLine
370
9
 62
9
  6
_SOLID
 10
3.4545712947
 20
4.2960268483
 30
0
 11
3.4545572484
 21
4.2960911982
 31
0
  0
LINE
  5
4B7
100
AcDbEntity
  8
SEMA2D
100
AcDbLine
370
9
 62
9
  6
_SOLID
 10
3.4531017155
 20
4.3045426728
 30
0
 11
3.4528094217
 21
4.3071416056
 31
0
  0
LINE
  5
4B8
100
AcDbEntity
  8
SEMA2D
100
AcDbLine
370
9
 62
9
  6
_SOLID
 10
3.4528094217
 20
4.3071416056
 30
0
 11
3.4527274232
 21
4.3080167722
 31
0
  0
LINE
  5
4B9
100
AcDbEntity
  8
SEMA2D
100
AcDbLine
370
9
 62
9
  6
_SOLID
 10
3.4527274232
 20
4.3080167722
 30
0
 11
3.4525191887
 21
4.3108424938
 31
0
  0
LINE
  5
4BA
100
AcDbEntity
  8
SEMA2D
100
AcDbLine
370
9
 62
9
  6
_SOLID
 10
3.4525191887
 20
4.3108424938
 30
0
 11
3.4524645582
 21
4.3118771165
 31
0
  0
LINE
  5
4BB
100
AcDbEntity
  8
SEMA2D
100
AcDbLine
370
9
 62
9
  6
_SOLID
 10
3.4524645582
 20
4.3118771165
 30
0
 11
3.4523902982
 21
4.3139328687
 31
0
  0
LINE
  5
4BC
100
AcDbEntity
  8
SEMA2D
100
AcDbLine
370
9
 62
9
  6
_SOLID
 10
3.4523902982
 20
4.3139328687
 30
0
 11
3.4523768771
 21
4.3145477244
 31
0
  0
LINE
  5
4BD
100
AcDbEntity
  8
SEMA2D
100
AcDbLine
370
9
 62
9
  6
_SOLID
 10
3.4523768771
 20
4.3145477244
 30
0
 11
3.4523615842
 21
4.3160386278
 31
0
  0
LINE
  5
4BE
100
AcDbEntity
  8
SEMA2D
100
AcDbLine
370
9
 62
9
  6
_SOLID
 10
3.4523615842
 20
4.3160386278
 30
0
 11
3.4523637097
 21
4.3170982386
 31
0
  0
LINE
  5
4BF
100
AcDbEntity
  8
SEMA2D
100
AcDbLine
370
9
 62
9
  6
_SOLID
 10
3.4523637097
 20
4.3170982386
 30
0
 11
3.4523672463
 21
4.3181579302
 31
0
  0
LINE
  5
4C0
100
AcDbEntity
  8
SEMA2D
100
AcDbLine
370
9
 62
9
  6
_SOLID
 10
3.4523672463
 20
4.3181579302
 30
0
 11
3.4523675601
 21
4.3182546997
 31
0
  0
LINE
  5
4C1
100
AcDbEntity
  8
SEMA2D
100
AcDbLine
370
9
 62
9
  6
_SOLID
 10
3.4523675601
 20
4.3182546997
 30
0
 11
3.4523743855
 21
4.3202773282
 31
0
  0
LINE
  5
4C2
100
AcDbEntity
  8
SEMA2D
100
AcDbLine
370
9
 62
9
  6
_SOLID
 10
3.4523743855
 20
4.3202773282
 30
0
 11
3.4523800628
 21
4.3219617795
 31
0
  0
LINE
  5
4C3
100
AcDbEntity
  8
SEMA2D
100
AcDbLine
370
9
 62
9
  6
_SOLID
 10
3.4523800628
 20
4.3219617795
 30
0
 11
3.4523815219
 21
4.3223967226
 31
0
  0
LINE
  5
4C4
100
AcDbEntity
  8
SEMA2D
100
AcDbLine
370
9
 62
9
  6
_SOLID
 10
3.4523815219
 20
4.3223967226
 30
0
 11
3.4523886585
 21
4.3245161175
 31
0
  0
LINE
  5
4C5
100
AcDbEntity
  8
SEMA2D
100
AcDbLine
370
9
 62
9
  6
_SOLID
 10
3.4523886585
 20
4.3245161175
 30
0
 11
3.4523925425
 21
4.3256688602
 31
0
  0
LINE
  5
4C6
100
AcDbEntity
  8
SEMA2D
100
AcDbLine
370
9
 62
9
  6
_SOLID
 10
3.4523925425
 20
4.3256688602
 30
0
 11
3.4530166776
 21
4.5110228898
 31
0
  0
LINE
  5
4C7
100
AcDbEntity
  8
SEMA2D
100
AcDbLine
370
9
 62
7
  6
_SOLID
 10
3.473332202
 20
4.2898287175
 30
0
 11
3.4732833093
 21
4.2887599819
 31
0
  0
LINE
  5
4C8
100
AcDbEntity
  8
SEMA2D
100
AcDbLine
370
9
 62
7
  6
_SOLID
 10
3.4732833093
 20
4.2887599819
 30
0
 11
3.4731441126
 21
4.2876933719
 31
0
  0
LINE
  5
4C9
100
AcDbEntity
  8
SEMA2D
100
AcDbLine
370
9
 62
7
  6
_SOLID
 10
3.4731441126
 20
4.2876933719
 30
0
 11
3.4729150401
 21
4.2866329316
 31
0
  0
LINE
  5
4CA
100
AcDbEntity
  8
SEMA2D
100
AcDbLine
370
9
 62
7
  6
_SOLID
 10
3.4729150401
 20
4.2866329316
 30
0
 11
3.472765285
 21
4.2861008542
 31
0
  0
LINE
  5
4CB
100
AcDbEntity
  8
SEMA2D
100
AcDbLine
370
9
 62
7
  6
_SOLID
 10
3.472765285
 20
4.2861008542
 30
0
 11
3.4725965395
 21
4.2855826889
 31
0
  0
LINE
  5
4CC
100
AcDbEntity
  8
SEMA2D
100
AcDbLine
370
9
 62
7
  6
_SOLID
 10
3.4725965395
 20
4.2855826889
 30
0
 11
3.4721895095
 21
4.2845462887
 31
0
  0
LINE
  5
4CD
100
AcDbEntity
  8
SEMA2D
100
AcDbLine
370
9
 62
7
  6
_SOLID
 10
3.4721895095
 20
4.2845462887
 30
0
 11
3.4716953056
 21
4.2835269874
 31
0
  0
LINE
  5
4CE
100
AcDbEntity
  8
SEMA2D
100
AcDbLine
370
9
 62
7
  6
_SOLID
 10
3.4716953056
 20
4.2835269874
 30
0
 11
3.471115304
 21
4.2825280243
 31
0
  0
LINE
  5
4CF
100
AcDbEntity
  8
SEMA2D
100
AcDbLine
370
9
 62
7
  6
_SOLID
 10
3.471115304
 20
4.2825280243
 30
0
 11
3.4711102646
 21
4.2825200326
 31
0
  0
LINE
  5
4D0
100
AcDbEntity
  8
SEMA2D
100
AcDbLine
370
9
 62
7
  6
_SOLID
 10
3.4711102646
 20
4.2825200326
 30
0
 11
3.4704509919
 21
4.2815526252
 31
0
  0
LINE
  5
4D1
100
AcDbEntity
  8
SEMA2D
100
AcDbLine
370
9
 62
7
  6
_SOLID
 10
3.4704509919
 20
4.2815526252
 30
0
 11
3.469704312
 21
4.2806039618
 31
0
  0
LINE
  5
4D2
100
AcDbEntity
  8
SEMA2D
100
AcDbLine
370
9
 62
7
  6
_SOLID
 10
3.469704312
 20
4.2806039618
 30
0
 11
3.4688773234
 21
4.2796851918
 31
0
  0
LINE
  5
4D3
100
AcDbEntity
  8
SEMA2D
100
AcDbLine
370
9
 62
7
  6
_SOLID
 10
3.4688773234
 20
4.2796851918
 30
0
 11
3.4684281921
 21
4.2792319739
 31
0
  0
LINE
  5
4D4
100
AcDbEntity
  8
SEMA2D
100
AcDbLine
370
9
 62
7
  6
_SOLID
 10
3.4684281921
 20
4.2792319739
 30
0
 11
3.4679721235
 21
4.2787994784
 31
0
  0
LINE
  5
4D5
100
AcDbEntity
  8
SEMA2D
100
AcDbLine
370
9
 62
7
  6
_SOLID
 10
3.4679721235
 20
4.2787994784
 30
0
 11
3.4669917093
 21
4.2779501139
 31
0
  0
LINE
  5
4D6
100
AcDbEntity
  8
SEMA2D
100
AcDbLine
370
9
 62
7
  6
_SOLID
 10
3.4669917093
 20
4.2779501139
 30
0
 11
3.4659399938
 21
4.2771405222
 31
0
  0
LINE
  5
4D7
100
AcDbEntity
  8
SEMA2D
100
AcDbLine
370
9
 62
7
  6
_SOLID
 10
3.4659399938
 20
4.2771405222
 30
0
 11
3.4648209314
 21
4.2763741328
 31
0
  0
LINE
  5
4D8
100
AcDbEntity
  8
SEMA2D
100
AcDbLine
370
9
 62
9
  6
_SOLID
 10
3.2444426391
 20
4.5105655743
 30
0
 11
3.2438184991
 21
4.3252115462
 31
0
  0
LINE
  5
4D9
100
AcDbEntity
  8
SEMA2D
100
AcDbLine
370
9
 62
9
  6
_SOLID
 10
3.2438184991
 20
4.3252115462
 30
0
 11
3.2438146201
 21
4.3240588109
 31
0
  0
LINE
  5
4DA
100
AcDbEntity
  8
SEMA2D
100
AcDbLine
370
9
 62
9
  6
_SOLID
 10
3.2438146201
 20
4.3240588109
 30
0
 11
3.2438074835
 21
4.3219394264
 31
0
  0
LINE
  5
4DB
100
AcDbEntity
  8
SEMA2D
100
AcDbLine
370
9
 62
9
  6
_SOLID
 10
3.2438074835
 20
4.3219394264
 30
0
 11
3.2438060131
 21
4.3215044653
 31
0
  0
LINE
  5
4DC
100
AcDbEntity
  8
SEMA2D
100
AcDbLine
370
9
 62
9
  6
_SOLID
 10
3.2438060131
 20
4.3215044653
 30
0
 11
3.2438003466
 21
4.3198200277
 31
0
  0
LINE
  5
4DD
100
AcDbEntity
  8
SEMA2D
100
AcDbLine
370
9
 62
9
  6
_SOLID
 10
3.2438003466
 20
4.3198200277
 30
0
 11
3.2437935567
 21
4.3177973864
 31
0
  0
LINE
  5
4DE
100
AcDbEntity
  8
SEMA2D
100
AcDbLine
370
9
 62
9
  6
_SOLID
 10
3.2437935567
 20
4.3177973864
 30
0
 11
3.243793219
 21
4.317700631
 31
0
  0
LINE
  5
4DF
100
AcDbEntity
  8
SEMA2D
100
AcDbLine
370
9
 62
9
  6
_SOLID
 10
3.243793219
 20
4.317700631
 30
0
 11
3.2437896153
 21
4.3166409307
 31
0
  0
LINE
  5
4E0
100
AcDbEntity
  8
SEMA2D
100
AcDbLine
370
9
 62
9
  6
_SOLID
 10
3.2437896153
 20
4.3166409307
 30
0
 11
3.2437845941
 21
4.3155813256
 31
0
  0
LINE
  5
4E1
100
AcDbEntity
  8
SEMA2D
100
AcDbLine
370
9
 62
9
  6
_SOLID
 10
3.2437845941
 20
4.3155813256
 30
0
 11
3.2437592643
 21
4.314090309
 31
0
  0
LINE
  5
4E2
100
AcDbEntity
  8
SEMA2D
100
AcDbLine
370
9
 62
9
  6
_SOLID
 10
3.2437592643
 20
4.314090309
 30
0
 11
3.2437417067
 21
4.3134754022
 31
0
  0
LINE
  5
4E3
100
AcDbEntity
  8
SEMA2D
100
AcDbLine
370
9
 62
7
  6
_SOLID
 10
3.2310579467
 20
4.2758615885
 30
0
 11
3.2299440291
 21
4.2766230818
 31
0
  0
LINE
  5
4E4
100
AcDbEntity
  8
SEMA2D
100
AcDbLine
370
9
 62
7
  6
_SOLID
 10
3.2299440291
 20
4.2766230818
 30
0
 11
3.2288977504
 21
4.2774280735
 31
0
  0
LINE
  5
4E5
100
AcDbEntity
  8
SEMA2D
100
AcDbLine
370
9
 62
7
  6
_SOLID
 10
3.2288977504
 20
4.2774280735
 30
0
 11
3.2279230418
 21
4.2782731512
 31
0
  0
LINE
  5
4E6
100
AcDbEntity
  8
SEMA2D
100
AcDbLine
370
9
 62
7
  6
_SOLID
 10
3.2279230418
 20
4.2782731512
 30
0
 11
3.227469879
 21
4.2787036534
 31
0
  0
LINE
  5
4E7
100
AcDbEntity
  8
SEMA2D
100
AcDbLine
370
9
 62
7
  6
_SOLID
 10
3.227469879
 20
4.2787036534
 30
0
 11
3.2270237935
 21
4.2791549082
 31
0
  0
LINE
  5
4E8
100
AcDbEntity
  8
SEMA2D
100
AcDbLine
370
9
 62
7
  6
_SOLID
 10
3.2270237935
 20
4.2791549082
 30
0
 11
3.2262029803
 21
4.2800700652
 31
0
  0
LINE
  5
4E9
100
AcDbEntity
  8
SEMA2D
100
AcDbLine
370
9
 62
7
  6
_SOLID
 10
3.2262029803
 20
4.2800700652
 30
0
 11
3.2254626782
 21
4.2810154682
 31
0
  0
LINE
  5
4EA
100
AcDbEntity
  8
SEMA2D
100
AcDbLine
370
9
 62
7
  6
_SOLID
 10
3.2254626782
 20
4.2810154682
 30
0
 11
3.2248099109
 21
4.281979999
 31
0
  0
LINE
  5
4EB
100
AcDbEntity
  8
SEMA2D
100
AcDbLine
370
9
 62
7
  6
_SOLID
 10
3.2248099109
 20
4.281979999
 30
0
 11
3.2248049252
 21
4.2819879686
 31
0
  0
LINE
  5
4EC
100
AcDbEntity
  8
SEMA2D
100
AcDbLine
370
9
 62
7
  6
_SOLID
 10
3.2248049252
 20
4.2819879686
 30
0
 11
3.2242316427
 21
4.2829844031
 31
0
  0
LINE
  5
4ED
100
AcDbEntity
  8
SEMA2D
100
AcDbLine
370
9
 62
7
  6
_SOLID
 10
3.2242316427
 20
4.2829844031
 30
0
 11
3.223744296
 21
4.2840015522
 31
0
  0
LINE
  5
4EE
100
AcDbEntity
  8
SEMA2D
100
AcDbLine
370
9
 62
7
  6
_SOLID
 10
3.223744296
 20
4.2840015522
 30
0
 11
3.2233442397
 21
4.2850361829
 31
0
  0
LINE
  5
4EF
100
AcDbEntity
  8
SEMA2D
100
AcDbLine
370
9
 62
7
  6
_SOLID
 10
3.2233442397
 20
4.2850361829
 30
0
 11
3.2231789812
 21
4.2855536163
 31
0
  0
LINE
  5
4F0
100
AcDbEntity
  8
SEMA2D
100
AcDbLine
370
9
 62
7
  6
_SOLID
 10
3.2231789812
 20
4.2855536163
 30
0
 11
3.2230328073
 21
4.2860850444
 31
0
  0
LINE
  5
4F1
100
AcDbEntity
  8
SEMA2D
100
AcDbLine
370
9
 62
7
  6
_SOLID
 10
3.2230328073
 20
4.2860850444
 30
0
 11
3.2228108731
 21
4.2871444958
 31
0
  0
LINE
  5
4F2
100
AcDbEntity
  8
SEMA2D
100
AcDbLine
370
9
 62
7
  6
_SOLID
 10
3.2228108731
 20
4.2871444958
 30
0
 11
3.2226788575
 21
4.2882105112
 31
0
  0
LINE
  5
4F3
100
AcDbEntity
  8
SEMA2D
100
AcDbLine
370
9
 62
7
  6
_SOLID
 10
3.2226788575
 20
4.2882105112
 30
0
 11
3.2226371616
 21
4.2892790483
 31
0
  0
LINE
  5
4F4
100
AcDbEntity
  8
SEMA2D
100
AcDbLine
370
9
 62
9
  6
_SOLID
 10
3.4047665259
 20
4.2933432794
 30
0
 11
3.4053923792
 21
4.2932514982
 31
0
  0
LINE
  5
4F5
100
AcDbEntity
  8
SEMA2D
100
AcDbLine
370
9
 62
9
  6
_SOLID
 10
3.4053923792
 20
4.2932514982
 30
0
 11
3.4060203958
 21
4.2931662585
 31
0
  0
LINE
  5
4F6
100
AcDbEntity
  8
SEMA2D
100
AcDbLine
370
9
 62
9
  6
_SOLID
 10
3.4060203958
 20
4.2931662585
 30
0
 11
3.4066501387
 21
4.2930866161
 31
0
  0
LINE
  5
4F7
100
AcDbEntity
  8
SEMA2D
100
AcDbLine
370
9
 62
9
  6
_SOLID
 10
3.4066501387
 20
4.2930866161
 30
0
 11
3.4070298327
 21
4.2930409827
 31
0
  0
LINE
  5
4F8
100
AcDbEntity
  8
SEMA2D
100
AcDbLine
370
9
 62
9
  6
_SOLID
 10
3.4070298327
 20
4.2930409827
 30
0
 11
3.407281174
 21
4.2930116309
 31
0
  0
LINE
  5
4F9
100
AcDbEntity
  8
SEMA2D
100
AcDbLine
370
9
 62
9
  6
_SOLID
 10
3.407281174
 20
4.2930116309
 30
0
 11
3.4079131866
 21
4.2929405242
 31
0
  0
LINE
  5
4FA
100
AcDbEntity
  8
SEMA2D
100
AcDbLine
370
9
 62
9
  6
_SOLID
 10
3.4079131866
 20
4.2929405242
 30
0
 11
3.4085460164
 21
4.292872729
 31
0
  0
LINE
  5
4FB
100
AcDbEntity
  8
SEMA2D
100
AcDbLine
370
9
 62
9
  6
_SOLID
 10
3.4085460164
 20
4.292872729
 30
0
 11
3.4091795141
 21
4.2928076922
 31
0
  0
LINE
  5
4FC
100
AcDbEntity
  8
SEMA2D
100
AcDbLine
370
9
 62
9
  6
_SOLID
 10
3.4091795141
 20
4.2928076922
 30
0
 11
3.40981353
 21
4.2927448606
 31
0
  0
LINE
  5
4FD
100
AcDbEntity
  8
SEMA2D
100
AcDbLine
370
9
 62
9
  6
_SOLID
 10
3.40981353
 20
4.2927448606
 30
0
 11
3.4098203854
 21
4.2927441915
 31
0
  0
LINE
  5
4FE
100
AcDbEntity
  8
SEMA2D
100
AcDbLine
370
9
 62
9
  6
_SOLID
 10
3.4098203854
 20
4.2927441915
 30
0
 11
3.4104479001
 21
4.2926836008
 31
0
  0
LINE
  5
4FF
100
AcDbEntity
  8
SEMA2D
100
AcDbLine
370
9
 62
9
  6
_SOLID
 10
3.4104479001
 20
4.2926836008
 30
0
 11
3.4110823997
 21
4.2926229462
 31
0
  0
LINE
  5
500
100
AcDbEntity
  8
SEMA2D
100
AcDbLine
370
9
 62
9
  6
_SOLID
 10
3.4110823997
 20
4.2926229462
 30
0
 11
3.4117167887
 21
4.2925618443
 31
0
  0
LINE
  5
501
100
AcDbEntity
  8
SEMA2D
100
AcDbLine
370
9
 62
9
  6
_SOLID
 10
3.4117167887
 20
4.2925618443
 30
0
 11
3.4123508267
 21
4.2924992425
 31
0
  0
LINE
  5
502
100
AcDbEntity
  8
SEMA2D
100
AcDbLine
370
9
 62
9
  6
_SOLID
 10
3.4123508267
 20
4.2924992425
 30
0
 11
3.4126110238
 21
4.2924728571
 31
0
  0
LINE
  5
503
100
AcDbEntity
  8
SEMA2D
100
AcDbLine
370
9
 62
9
  6
_SOLID
 10
3.4126110238
 20
4.2924728571
 30
0
 11
3.412984261
 21
4.2924340443
 31
0
  0
LINE
  5
504
100
AcDbEntity
  8
SEMA2D
100
AcDbLine
370
9
 62
9
  6
_SOLID
 10
3.412984261
 20
4.2924340443
 30
0
 11
3.4136166403
 21
4.292364465
 31
0
  0
LINE
  5
505
100
AcDbEntity
  8
SEMA2D
100
AcDbLine
370
9
 62
9
  6
_SOLID
 10
3.4136166403
 20
4.292364465
 30
0
 11
3.4138324393
 21
4.2923392617
 31
0
  0
LINE
  5
506
100
AcDbEntity
  8
SEMA2D
100
AcDbLine
370
9
 62
9
  6
_SOLID
 10
3.4138324393
 20
4.2923392617
 30
0
 11
3.4142472711
 21
4.2922880124
 31
0
  0
LINE
  5
507
100
AcDbEntity
  8
SEMA2D
100
AcDbLine
370
9
 62
9
  6
_SOLID
 10
3.4142472711
 20
4.2922880124
 30
0
 11
3.4148744304
 21
4.2922002256
 31
0
  0
LINE
  5
508
100
AcDbEntity
  8
SEMA2D
100
AcDbLine
370
9
 62
9
  6
_SOLID
 10
3.3798352839
 20
4.2908993418
 30
0
 11
3.3810195023
 21
4.2908065103
 31
0
  0
LINE
  5
509
100
AcDbEntity
  8
SEMA2D
100
AcDbLine
370
9
 62
9
  6
_SOLID
 10
3.3810195023
 20
4.2908065103
 30
0
 11
3.3822047362
 21
4.2907192901
 31
0
  0
LINE
  5
50A
100
AcDbEntity
  8
SEMA2D
100
AcDbLine
370
9
 62
9
  6
_SOLID
 10
3.3822047362
 20
4.2907192901
 30
0
 11
3.3833907568
 21
4.2906366689
 31
0
  0
LINE
  5
50B
100
AcDbEntity
  8
SEMA2D
100
AcDbLine
370
9
 62
9
  6
_SOLID
 10
3.3833907568
 20
4.2906366689
 30
0
 11
3.3836961632
 21
4.2906160214
 31
0
  0
LINE
  5
50C
100
AcDbEntity
  8
SEMA2D
100
AcDbLine
370
9
 62
9
  6
_SOLID
 10
3.3836961632
 20
4.2906160214
 30
0
 11
3.3845773443
 21
4.2905576601
 31
0
  0
LINE
  5
50D
100
AcDbEntity
  8
SEMA2D
100
AcDbLine
370
9
 62
9
  6
_SOLID
 10
3.3845773443
 20
4.2905576601
 30
0
 11
3.3857643568
 21
4.2904815097
 31
0
  0
LINE
  5
50E
100
AcDbEntity
  8
SEMA2D
100
AcDbLine
370
9
 62
9
  6
_SOLID
 10
3.3857643568
 20
4.2904815097
 30
0
 11
3.3869516936
 21
4.2904075859
 31
0
  0
LINE
  5
50F
100
AcDbEntity
  8
SEMA2D
100
AcDbLine
370
9
 62
9
  6
_SOLID
 10
3.3869516936
 20
4.2904075859
 30
0
 11
3.3881392541
 21
4.2903352577
 31
0
  0
LINE
  5
510
100
AcDbEntity
  8
SEMA2D
100
AcDbLine
370
9
 62
9
  6
_SOLID
 10
3.3881392541
 20
4.2903352577
 30
0
 11
3.3881410548
 21
4.2903351489
 31
0
  0
LINE
  5
511
100
AcDbEntity
  8
SEMA2D
100
AcDbLine
370
9
 62
9
  6
_SOLID
 10
3.3881410548
 20
4.2903351489
 30
0
 11
3.3893269353
 21
4.2902638438
 31
0
  0
LINE
  5
512
100
AcDbEntity
  8
SEMA2D
100
AcDbLine
370
9
 62
9
  6
_SOLID
 10
3.3893269353
 20
4.2902638438
 30
0
 11
3.3905146233
 21
4.2901924597
 31
0
  0
LINE
  5
513
100
AcDbEntity
  8
SEMA2D
100
AcDbLine
370
9
 62
9
  6
_SOLID
 10
3.3905146233
 20
4.2901924597
 30
0
 11
3.3917022018
 21
4.2901201701
 31
0
  0
LINE
  5
514
100
AcDbEntity
  8
SEMA2D
100
AcDbLine
370
9
 62
9
  6
_SOLID
 10
3.3917022018
 20
4.2901201701
 30
0
 11
3.3925859838
 21
4.2900652212
 31
0
  0
LINE
  5
515
100
AcDbEntity
  8
SEMA2D
100
AcDbLine
370
9
 62
9
  6
_SOLID
 10
3.3925859838
 20
4.2900652212
 30
0
 11
3.3928895534
 21
4.2900460353
 31
0
  0
LINE
  5
516
100
AcDbEntity
  8
SEMA2D
100
AcDbLine
370
9
 62
9
  6
_SOLID
 10
3.3928895534
 20
4.2900460353
 30
0
 11
3.3940764392
 21
4.2899686299
 31
0
  0
LINE
  5
517
100
AcDbEntity
  8
SEMA2D
100
AcDbLine
370
9
 62
9
  6
_SOLID
 10
3.3940764392
 20
4.2899686299
 30
0
 11
3.3952623887
 21
4.2898855998
 31
0
  0
LINE
  5
518
100
AcDbEntity
  8
SEMA2D
100
AcDbLine
370
9
 62
9
  6
_SOLID
 10
3.3952623887
 20
4.2898855998
 30
0
 11
3.3964469053
 21
4.2897944864
 31
0
  0
LINE
  5
519
100
AcDbEntity
  8
SEMA2D
100
AcDbLine
370
9
 62
9
  6
_SOLID
 10
3.3797920983
 20
4.2780742341
 30
0
 11
3.3804368593
 21
4.2779632214
 31
0
  0
LINE
  5
51A
100
AcDbEntity
  8
SEMA2D
100
AcDbLine
370
9
 62
9
  6
_SOLID
 10
3.3804368593
 20
4.2779632214
 30
0
 11
3.381084681
 21
4.2778601286
 31
0
  0
LINE
  5
51B
100
AcDbEntity
  8
SEMA2D
100
AcDbLine
370
9
 62
9
  6
_SOLID
 10
3.381084681
 20
4.2778601286
 30
0
 11
3.3817347669
 21
4.2777633122
 31
0
  0
LINE
  5
51C
100
AcDbEntity
  8
SEMA2D
100
AcDbLine
370
9
 62
9
  6
_SOLID
 10
3.3817347669
 20
4.2777633122
 30
0
 11
3.3818812631
 21
4.277742226
 31
0
  0
LINE
  5
51D
100
AcDbEntity
  8
SEMA2D
100
AcDbLine
370
9
 62
9
  6
_SOLID
 10
3.3818812631
 20
4.277742226
 30
0
 11
3.38238636
 21
4.277671186
 31
0
  0
LINE
  5
51E
100
AcDbEntity
  8
SEMA2D
100
AcDbLine
370
9
 62
9
  6
_SOLID
 10
3.38238636
 20
4.277671186
 30
0
 11
3.3830390223
 21
4.2775826238
 31
0
  0
LINE
  5
51F
100
AcDbEntity
  8
SEMA2D
100
AcDbLine
370
9
 62
9
  6
_SOLID
 10
3.3830390223
 20
4.2775826238
 30
0
 11
3.3836924687
 21
4.27749672
 31
0
  0
LINE
  5
520
100
AcDbEntity
  8
SEMA2D
100
AcDbLine
370
9
 62
9
  6
_SOLID
 10
3.3836924687
 20
4.27749672
 30
0
 11
3.3843464154
 21
4.2774125705
 31
0
  0
LINE
  5
521
100
AcDbEntity
  8
SEMA2D
100
AcDbLine
370
9
 62
9
  6
_SOLID
 10
3.3843464154
 20
4.2774125705
 30
0
 11
3.3843498388
 21
4.2774121331
 31
0
  0
LINE
  5
522
100
AcDbEntity
  8
SEMA2D
100
AcDbLine
370
9
 62
9
  6
_SOLID
 10
3.3843498388
 20
4.2774121331
 30
0
 11
3.385000576
 21
4.277329229
 31
0
  0
LINE
  5
523
100
AcDbEntity
  8
SEMA2D
100
AcDbLine
370
9
 62
9
  6
_SOLID
 10
3.385000576
 20
4.277329229
 30
0
 11
3.3856546549
 21
4.2772455773
 31
0
  0
LINE
  5
524
100
AcDbEntity
  8
SEMA2D
100
AcDbLine
370
9
 62
9
  6
_SOLID
 10
3.3856546549
 20
4.2772455773
 30
0
 11
3.3863083541
 21
4.2771604537
 31
0
  0
LINE
  5
525
100
AcDbEntity
  8
SEMA2D
100
AcDbLine
370
9
 62
9
  6
_SOLID
 10
3.3863083541
 20
4.2771604537
 30
0
 11
3.3868184491
 21
4.2770921976
 31
0
  0
LINE
  5
526
100
AcDbEntity
  8
SEMA2D
100
AcDbLine
370
9
 62
9
  6
_SOLID
 10
3.3868184491
 20
4.2770921976
 30
0
 11
3.3869613738
 21
4.277072693
 31
0
  0
LINE
  5
527
100
AcDbEntity
  8
SEMA2D
100
AcDbLine
370
9
 62
9
  6
_SOLID
 10
3.3869613738
 20
4.277072693
 30
0
 11
3.3876131096
 21
4.2769805928
 31
0
  0
LINE
  5
528
100
AcDbEntity
  8
SEMA2D
100
AcDbLine
370
9
 62
9
  6
_SOLID
 10
3.3876131096
 20
4.2769805928
 30
0
 11
3.388262313
 21
4.2768813132
 31
0
  0
LINE
  5
529
100
AcDbEntity
  8
SEMA2D
100
AcDbLine
370
9
 62
9
  6
_SOLID
 10
3.388262313
 20
4.2768813132
 30
0
 11
3.3889076532
 21
4.2767718696
 31
0
  0
LINE
  5
52A
100
AcDbEntity
  8
SEMA2D
100
AcDbLine
370
9
 62
9
  6
_SOLID
 10
3.3534537605
 20
4.2689530761
 30
0
 11
3.3546382811
 21
4.2688627674
 31
0
  0
LINE
  5
52B
100
AcDbEntity
  8
SEMA2D
100
AcDbLine
370
9
 62
9
  6
_SOLID
 10
3.3546382811
 20
4.2688627674
 30
0
 11
3.3558237481
 21
4.2687778262
 31
0
  0
LINE
  5
52C
100
AcDbEntity
  8
SEMA2D
100
AcDbLine
370
9
 62
9
  6
_SOLID
 10
3.3558237481
 20
4.2687778262
 30
0
 11
3.3570099371
 21
4.268697209
 31
0
  0
LINE
  5
52D
100
AcDbEntity
  8
SEMA2D
100
AcDbLine
370
9
 62
9
  6
_SOLID
 10
3.3570099371
 20
4.268697209
 30
0
 11
3.3573326521
 21
4.268675894
 31
0
  0
LINE
  5
52E
100
AcDbEntity
  8
SEMA2D
100
AcDbLine
370
9
 62
9
  6
_SOLID
 10
3.3573326521
 20
4.268675894
 30
0
 11
3.3581966324
 21
4.2686198976
 31
0
  0
LINE
  5
52F
100
AcDbEntity
  8
SEMA2D
100
AcDbLine
370
9
 62
9
  6
_SOLID
 10
3.3581966324
 20
4.2686198976
 30
0
 11
3.3593836943
 21
4.2685451114
 31
0
  0
LINE
  5
530
100
AcDbEntity
  8
SEMA2D
100
AcDbLine
370
9
 62
9
  6
_SOLID
 10
3.3593836943
 20
4.2685451114
 30
0
 11
3.3605710251
 21
4.2684722002
 31
0
  0
LINE
  5
531
100
AcDbEntity
  8
SEMA2D
100
AcDbLine
370
9
 62
9
  6
_SOLID
 10
3.3605710251
 20
4.2684722002
 30
0
 11
3.3617585273
 21
4.2684005147
 31
0
  0
LINE
  5
532
100
AcDbEntity
  8
SEMA2D
100
AcDbLine
370
9
 62
9
  6
_SOLID
 10
3.3617585273
 20
4.2684005147
 30
0
 11
3.3617595708
 21
4.2684004521
 31
0
  0
LINE
  5
533
100
AcDbEntity
  8
SEMA2D
100
AcDbLine
370
9
 62
9
  6
_SOLID
 10
3.3617595708
 20
4.2684004521
 30
0
 11
3.3629461017
 21
4.2683293745
 31
0
  0
LINE
  5
534
100
AcDbEntity
  8
SEMA2D
100
AcDbLine
370
9
 62
9
  6
_SOLID
 10
3.3629461017
 20
4.2683293745
 30
0
 11
3.3641336408
 21
4.2682579722
 31
0
  0
LINE
  5
535
100
AcDbEntity
  8
SEMA2D
100
AcDbLine
370
9
 62
9
  6
_SOLID
 10
3.3641336408
 20
4.2682579722
 30
0
 11
3.3653210352
 21
4.268185469
 31
0
  0
LINE
  5
536
100
AcDbEntity
  8
SEMA2D
100
AcDbLine
370
9
 62
9
  6
_SOLID
 10
3.3653210352
 20
4.268185469
 30
0
 11
3.3661865101
 21
4.2681314382
 31
0
  0
LINE
  5
537
100
AcDbEntity
  8
SEMA2D
100
AcDbLine
370
9
 62
9
  6
_SOLID
 10
3.3661865101
 20
4.2681314382
 30
0
 11
3.3665081744
 21
4.2681110225
 31
0
  0
LINE
  5
538
100
AcDbEntity
  8
SEMA2D
100
AcDbLine
370
9
 62
9
  6
_SOLID
 10
3.3665081744
 20
4.2681110225
 30
0
 11
3.3676948608
 21
4.2680334501
 31
0
  0
LINE
  5
539
100
AcDbEntity
  8
SEMA2D
100
AcDbLine
370
9
 62
9
  6
_SOLID
 10
3.3676948608
 20
4.2680334501
 30
0
 11
3.3688807367
 21
4.2679509446
 31
0
  0
LINE
  5
53A
100
AcDbEntity
  8
SEMA2D
100
AcDbLine
370
9
 62
9
  6
_SOLID
 10
3.3688807367
 20
4.2679509446
 30
0
 11
3.370065427
 21
4.2678616323
 31
0
  0
LINE
  5
53B
100
AcDbEntity
  8
SEMA2D
100
AcDbLine
370
9
 62
9
  6
_SOLID
 10
3.353407044
 20
4.2550793981
 30
0
 11
3.354222406
 21
4.2549966748
 31
0
  0
LINE
  5
53C
100
AcDbEntity
  8
SEMA2D
100
AcDbLine
370
9
 62
9
  6
_SOLID
 10
3.354222406
 20
4.2549966748
 30
0
 11
3.3550389485
 21
4.2549190461
 31
0
  0
LINE
  5
53D
100
AcDbEntity
  8
SEMA2D
100
AcDbLine
370
9
 62
9
  6
_SOLID
 10
3.3550389485
 20
4.2549190461
 30
0
 11
3.3558563858
 21
4.254845506
 31
0
  0
LINE
  5
53E
100
AcDbEntity
  8
SEMA2D
100
AcDbLine
370
9
 62
9
  6
_SOLID
 10
3.3558563858
 20
4.254845506
 30
0
 11
3.3560717168
 21
4.2548266978
 31
0
  0
LINE
  5
53F
100
AcDbEntity
  8
SEMA2D
100
AcDbLine
370
9
 62
9
  6
_SOLID
 10
3.3560717168
 20
4.2548266978
 30
0
 11
3.3566744427
 21
4.2547750739
 31
0
  0
LINE
  5
540
100
AcDbEntity
  8
SEMA2D
100
AcDbLine
370
9
 62
9
  6
_SOLID
 10
3.3566744427
 20
4.2547750739
 30
0
 11
3.3574929439
 21
4.2547069981
 31
0
  0
LINE
  5
541
100
AcDbEntity
  8
SEMA2D
100
AcDbLine
370
9
 62
9
  6
_SOLID
 10
3.3574929439
 20
4.2547069981
 30
0
 11
3.3583117671
 21
4.2546406493
 31
0
  0
LINE
  5
542
100
AcDbEntity
  8
SEMA2D
100
AcDbLine
370
9
 62
9
  6
_SOLID
 10
3.3583117671
 20
4.2546406493
 30
0
 11
3.3591307902
 21
4.2545753991
 31
0
  0
LINE
  5
543
100
AcDbEntity
  8
SEMA2D
100
AcDbLine
370
9
 62
9
  6
_SOLID
 10
3.3591307902
 20
4.2545753991
 30
0
 11
3.3591319166
 21
4.2545753098
 31
0
  0
LINE
  5
544
100
AcDbEntity
  8
SEMA2D
100
AcDbLine
370
9
 62
9
  6
_SOLID
 10
3.3591319166
 20
4.2545753098
 30
0
 11
3.3599498897
 21
4.254510594
 31
0
  0
LINE
  5
545
100
AcDbEntity
  8
SEMA2D
100
AcDbLine
370
9
 62
9
  6
_SOLID
 10
3.3599498897
 20
4.254510594
 30
0
 11
3.360768934
 21
4.2544454786
 31
0
  0
LINE
  5
546
100
AcDbEntity
  8
SEMA2D
100
AcDbLine
370
9
 62
9
  6
_SOLID
 10
3.360768934
 20
4.2544454786
 30
0
 11
3.3615877898
 21
4.2543792717
 31
0
  0
LINE
  5
547
100
AcDbEntity
  8
SEMA2D
100
AcDbLine
370
9
 62
9
  6
_SOLID
 10
3.3615877898
 20
4.2543792717
 30
0
 11
3.3621921341
 21
4.2543292349
 31
0
  0
LINE
  5
548
100
AcDbEntity
  8
SEMA2D
100
AcDbLine
370
9
 62
9
  6
_SOLID
 10
3.3621921341
 20
4.2543292349
 30
0
 11
3.3624063229
 21
4.2543111897
 31
0
  0
LINE
  5
549
100
AcDbEntity
  8
SEMA2D
100
AcDbLine
370
9
 62
9
  6
_SOLID
 10
3.3624063229
 20
4.2543111897
 30
0
 11
3.3632242964
 21
4.2542401542
 31
0
  0
LINE
  5
54A
100
AcDbEntity
  8
SEMA2D
100
AcDbLine
370
9
 62
9
  6
_SOLID
 10
3.3632242964
 20
4.2542401542
 30
0
 11
3.3640412814
 21
4.2541645326
 31
0
  0
LINE
  5
54B
100
AcDbEntity
  8
SEMA2D
100
AcDbLine
370
9
 62
9
  6
_SOLID
 10
3.3640412814
 20
4.2541645326
 30
0
 11
3.3648568275
 21
4.2540826312
 31
0
  0
LINE
  5
54C
100
AcDbEntity
  8
SEMA2D
100
AcDbLine
370
9
 62
9
  6
_SOLID
 10
3.325757522
 20
4.2677644836
 30
0
 11
3.3269428314
 21
4.2678589923
 31
0
  0
LINE
  5
54D
100
AcDbEntity
  8
SEMA2D
100
AcDbLine
370
9
 62
9
  6
_SOLID
 10
3.3269428314
 20
4.2678589923
 30
0
 11
3.3281292804
 21
4.2679466993
 31
0
  0
LINE
  5
54E
100
AcDbEntity
  8
SEMA2D
100
AcDbLine
370
9
 62
9
  6
_SOLID
 10
3.3281292804
 20
4.2679466993
 30
0
 11
3.3293165068
 21
4.2680294768
 31
0
  0
LINE
  5
54F
100
AcDbEntity
  8
SEMA2D
100
AcDbLine
370
9
 62
9
  6
_SOLID
 10
3.3293165068
 20
4.2680294768
 30
0
 11
3.3296383127
 21
4.2680513033
 31
0
  0
LINE
  5
550
100
AcDbEntity
  8
SEMA2D
100
AcDbLine
370
9
 62
9
  6
_SOLID
 10
3.3296383127
 20
4.2680513033
 30
0
 11
3.3305041648
 21
4.2681091302
 31
0
  0
LINE
  5
551
100
AcDbEntity
  8
SEMA2D
100
AcDbLine
370
9
 62
9
  6
_SOLID
 10
3.3305041648
 20
4.2681091302
 30
0
 11
3.331692065
 21
4.2681868414
 31
0
  0
LINE
  5
552
100
AcDbEntity
  8
SEMA2D
100
AcDbLine
370
9
 62
9
  6
_SOLID
 10
3.331692065
 20
4.2681868414
 30
0
 11
3.3328801025
 21
4.2682634523
 31
0
  0
LINE
  5
553
100
AcDbEntity
  8
SEMA2D
100
AcDbLine
370
9
 62
9
  6
_SOLID
 10
3.3328801025
 20
4.2682634523
 30
0
 11
3.3340671301
 21
4.2683397342
 31
0
  0
LINE
  5
554
100
AcDbEntity
  8
SEMA2D
100
AcDbLine
370
9
 62
9
  6
_SOLID
 10
3.3340671301
 20
4.2683397342
 30
0
 11
3.3340681735
 21
4.2683398014
 31
0
  0
LINE
  5
555
100
AcDbEntity
  8
SEMA2D
100
AcDbLine
370
9
 62
9
  6
_SOLID
 10
3.3340681735
 20
4.2683398014
 30
0
 11
3.3352561761
 21
4.2684166953
 31
0
  0
LINE
  5
556
100
AcDbEntity
  8
SEMA2D
100
AcDbLine
370
9
 62
9
  6
_SOLID
 10
3.3352561761
 20
4.2684166953
 30
0
 11
3.3364440154
 21
4.2684948143
 31
0
  0
LINE
  5
557
100
AcDbEntity
  8
SEMA2D
100
AcDbLine
370
9
 62
9
  6
_SOLID
 10
3.3364440154
 20
4.2684948143
 30
0
 11
3.3376315984
 21
4.2685748071
 31
0
  0
LINE
  5
558
100
AcDbEntity
  8
SEMA2D
100
AcDbLine
370
9
 62
9
  6
_SOLID
 10
3.3376315984
 20
4.2685748071
 30
0
 11
3.3384959684
 21
4.268634593
 31
0
  0
LINE
  5
559
100
AcDbEntity
  8
SEMA2D
100
AcDbLine
370
9
 62
9
  6
_SOLID
 10
3.3384959684
 20
4.268634593
 30
0
 11
3.3388188319
 21
4.2686573235
 31
0
  0
LINE
  5
55A
100
AcDbEntity
  8
SEMA2D
100
AcDbLine
370
9
 62
9
  6
_SOLID
 10
3.3388188319
 20
4.2686573235
 30
0
 11
3.3400055815
 21
4.2687431436
 31
0
  0
LINE
  5
55B
100
AcDbEntity
  8
SEMA2D
100
AcDbLine
370
9
 62
9
  6
_SOLID
 10
3.3400055815
 20
4.2687431436
 30
0
 11
3.341191638
 21
4.2688332845
 31
0
  0
LINE
  5
55C
100
AcDbEntity
  8
SEMA2D
100
AcDbLine
370
9
 62
9
  6
_SOLID
 10
3.341191638
 20
4.2688332845
 30
0
 11
3.3423767842
 21
4.2689287889
 31
0
  0
LINE
  5
55D
100
AcDbEntity
  8
SEMA2D
100
AcDbLine
370
9
 62
9
  6
_SOLID
 10
3.3308734025
 20
4.2540081198
 30
0
 11
3.3316895121
 21
4.2540935987
 31
0
  0
LINE
  5
55E
100
AcDbEntity
  8
SEMA2D
100
AcDbLine
370
9
 62
9
  6
_SOLID
 10
3.3316895121
 20
4.2540935987
 30
0
 11
3.3325070184
 21
4.254172804
 31
0
  0
LINE
  5
55F
100
AcDbEntity
  8
SEMA2D
100
AcDbLine
370
9
 62
9
  6
_SOLID
 10
3.3325070184
 20
4.254172804
 30
0
 11
3.3333254824
 21
4.2542474276
 31
0
  0
LINE
  5
560
100
AcDbEntity
  8
SEMA2D
100
AcDbLine
370
9
 62
9
  6
_SOLID
 10
3.3333254824
 20
4.2542474276
 30
0
 11
3.3335397958
 21
4.2542664123
 31
0
  0
LINE
  5
561
100
AcDbEntity
  8
SEMA2D
100
AcDbLine
370
9
 62
9
  6
_SOLID
 10
3.3335397958
 20
4.2542664123
 30
0
 11
3.334144486
 21
4.2543191
 31
0
  0
LINE
  5
562
100
AcDbEntity
  8
SEMA2D
100
AcDbLine
370
9
 62
9
  6
_SOLID
 10
3.334144486
 20
4.2543191
 30
0
 11
3.3349637998
 21
4.2543888987
 31
0
  0
LINE
  5
563
100
AcDbEntity
  8
SEMA2D
100
AcDbLine
370
9
 62
9
  6
_SOLID
 10
3.3349637998
 20
4.2543888987
 30
0
 11
3.3357832947
 21
4.2544576068
 31
0
  0
LINE
  5
564
100
AcDbEntity
  8
SEMA2D
100
AcDbLine
370
9
 62
9
  6
_SOLID
 10
3.3357832947
 20
4.2544576068
 30
0
 11
3.3366017161
 21
4.2545259106
 31
0
  0
LINE
  5
565
100
AcDbEntity
  8
SEMA2D
100
AcDbLine
370
9
 62
9
  6
_SOLID
 10
3.3366017161
 20
4.2545259106
 30
0
 11
3.3366028427
 21
4.2545260047
 31
0
  0
LINE
  5
566
100
AcDbEntity
  8
SEMA2D
100
AcDbLine
370
9
 62
9
  6
_SOLID
 10
3.3366028427
 20
4.2545260047
 30
0
 11
3.3374223174
 21
4.2545948474
 31
0
  0
LINE
  5
567
100
AcDbEntity
  8
SEMA2D
100
AcDbLine
370
9
 62
9
  6
_SOLID
 10
3.3374223174
 20
4.2545948474
 30
0
 11
3.3382415995
 21
4.254664788
 31
0
  0
LINE
  5
568
100
AcDbEntity
  8
SEMA2D
100
AcDbLine
370
9
 62
9
  6
_SOLID
 10
3.3382415995
 20
4.254664788
 30
0
 11
3.3390605712
 21
4.254736454
 31
0
  0
LINE
  5
569
100
AcDbEntity
  8
SEMA2D
100
AcDbLine
370
9
 62
9
  6
_SOLID
 10
3.3390605712
 20
4.254736454
 30
0
 11
3.3396636538
 21
4.2547907218
 31
0
  0
LINE
  5
56A
100
AcDbEntity
  8
SEMA2D
100
AcDbLine
370
9
 62
9
  6
_SOLID
 10
3.3396636538
 20
4.2547907218
 30
0
 11
3.3398791146
 21
4.2548104745
 31
0
  0
LINE
  5
56B
100
AcDbEntity
  8
SEMA2D
100
AcDbLine
370
9
 62
9
  6
_SOLID
 10
3.3398791146
 20
4.2548104745
 30
0
 11
3.3406970592
 21
4.2548876003
 31
0
  0
LINE
  5
56C
100
AcDbEntity
  8
SEMA2D
100
AcDbLine
370
9
 62
9
  6
_SOLID
 10
3.3406970592
 20
4.2548876003
 30
0
 11
3.3415141367
 21
4.2549688109
 31
0
  0
LINE
  5
56D
100
AcDbEntity
  8
SEMA2D
100
AcDbLine
370
9
 62
9
  6
_SOLID
 10
3.3415141367
 20
4.2549688109
 30
0
 11
3.3423300678
 21
4.255055111
 31
0
  0
LINE
  5
56E
100
AcDbEntity
  8
SEMA2D
100
AcDbLine
370
9
 62
9
  6
_SOLID
 10
3.2995233631
 20
4.2895819736
 30
0
 11
3.3007085107
 21
4.2896782828
 31
0
  0
LINE
  5
56F
100
AcDbEntity
  8
SEMA2D
100
AcDbLine
370
9
 62
9
  6
_SOLID
 10
3.3007085107
 20
4.2896782828
 30
0
 11
3.3018950369
 21
4.2897665147
 31
0
  0
LINE
  5
570
100
AcDbEntity
  8
SEMA2D
100
AcDbLine
370
9
 62
9
  6
_SOLID
 10
3.3018950369
 20
4.2897665147
 30
0
 11
3.3030824616
 21
4.2898491259
 31
0
  0
LINE
  5
571
100
AcDbEntity
  8
SEMA2D
100
AcDbLine
370
9
 62
9
  6
_SOLID
 10
3.3030824616
 20
4.2898491259
 30
0
 11
3.3033861648
 21
4.2898696433
 31
0
  0
LINE
  5
572
100
AcDbEntity
  8
SEMA2D
100
AcDbLine
370
9
 62
9
  6
_SOLID
 10
3.3033861648
 20
4.2898696433
 30
0
 11
3.3042703299
 21
4.2899284686
 31
0
  0
LINE
  5
573
100
AcDbEntity
  8
SEMA2D
100
AcDbLine
370
9
 62
9
  6
_SOLID
 10
3.3042703299
 20
4.2899284686
 30
0
 11
3.3054584128
 21
4.290005967
 31
0
  0
LINE
  5
574
100
AcDbEntity
  8
SEMA2D
100
AcDbLine
370
9
 62
9
  6
_SOLID
 10
3.3054584128
 20
4.290005967
 30
0
 11
3.3066465991
 21
4.2900825604
 31
0
  0
LINE
  5
575
100
AcDbEntity
  8
SEMA2D
100
AcDbLine
370
9
 62
9
  6
_SOLID
 10
3.3066465991
 20
4.2900825604
 30
0
 11
3.3078329772
 21
4.2901590669
 31
0
  0
LINE
  5
576
100
AcDbEntity
  8
SEMA2D
100
AcDbLine
370
9
 62
9
  6
_SOLID
 10
3.3078329772
 20
4.2901590669
 30
0
 11
3.3078347787
 21
4.2901591836
 31
0
  0
LINE
  5
577
100
AcDbEntity
  8
SEMA2D
100
AcDbLine
370
9
 62
9
  6
_SOLID
 10
3.3078347787
 20
4.2901591836
 30
0
 11
3.3090228438
 21
4.2902367205
 31
0
  0
LINE
  5
578
100
AcDbEntity
  8
SEMA2D
100
AcDbLine
370
9
 62
9
  6
_SOLID
 10
3.3090228438
 20
4.2902367205
 30
0
 11
3.310210696
 21
4.2903158522
 31
0
  0
LINE
  5
579
100
AcDbEntity
  8
SEMA2D
100
AcDbLine
370
9
 62
9
  6
_SOLID
 10
3.310210696
 20
4.2903158522
 30
0
 11
3.3113982389
 21
4.290397209
 31
0
  0
LINE
  5
57A
100
AcDbEntity
  8
SEMA2D
100
AcDbLine
370
9
 62
9
  6
_SOLID
 10
3.3113982389
 20
4.290397209
 30
0
 11
3.3122798263
 21
4.2904594353
 31
0
  0
LINE
  5
57B
100
AcDbEntity
  8
SEMA2D
100
AcDbLine
370
9
 62
9
  6
_SOLID
 10
3.3122798263
 20
4.2904594353
 30
0
 11
3.312585376
 21
4.2904814223
 31
0
  0
LINE
  5
57C
100
AcDbEntity
  8
SEMA2D
100
AcDbLine
370
9
 62
9
  6
_SOLID
 10
3.312585376
 20
4.2904814223
 30
0
 11
3.3137719706
 21
4.2905692457
 31
0
  0
LINE
  5
57D
100
AcDbEntity
  8
SEMA2D
100
AcDbLine
370
9
 62
9
  6
_SOLID
 10
3.3137719706
 20
4.2905692457
 30
0
 11
3.3149578093
 21
4.2906616646
 31
0
  0
LINE
  5
57E
100
AcDbEntity
  8
SEMA2D
100
AcDbLine
370
9
 62
9
  6
_SOLID
 10
3.3149578093
 20
4.2906616646
 30
0
 11
3.3161426705
 21
4.2907596906
 31
0
  0
LINE
  5
57F
100
AcDbEntity
  8
SEMA2D
100
AcDbLine
370
9
 62
9
  6
_SOLID
 10
3.3069750244
 20
4.2765922257
 30
0
 11
3.3076211112
 21
4.2767045008
 31
0
  0
LINE
  5
580
100
AcDbEntity
  8
SEMA2D
100
AcDbLine
370
9
 62
9
  6
_SOLID
 10
3.3076211112
 20
4.2767045008
 30
0
 11
3.3082709928
 21
4.2768066287
 31
0
  0
LINE
  5
581
100
AcDbEntity
  8
SEMA2D
100
AcDbLine
370
9
 62
9
  6
_SOLID
 10
3.3082709928
 20
4.2768066287
 30
0
 11
3.3089233586
 21
4.2769015883
 31
0
  0
LINE
  5
582
100
AcDbEntity
  8
SEMA2D
100
AcDbLine
370
9
 62
9
  6
_SOLID
 10
3.3089233586
 20
4.2769015883
 30
0
 11
3.3090664166
 21
4.27692172
 31
0
  0
LINE
  5
583
100
AcDbEntity
  8
SEMA2D
100
AcDbLine
370
9
 62
9
  6
_SOLID
 10
3.3090664166
 20
4.27692172
 30
0
 11
3.309576979
 21
4.2769922139
 31
0
  0
LINE
  5
584
100
AcDbEntity
  8
SEMA2D
100
AcDbLine
370
9
 62
9
  6
_SOLID
 10
3.309576979
 20
4.2769922139
 30
0
 11
3.3102312611
 21
4.2770802055
 31
0
  0
LINE
  5
585
100
AcDbEntity
  8
SEMA2D
100
AcDbLine
370
9
 62
9
  6
_SOLID
 10
3.3102312611
 20
4.2770802055
 30
0
 11
3.310885913
 21
4.2771667266
 31
0
  0
LINE
  5
586
100
AcDbEntity
  8
SEMA2D
100
AcDbLine
370
9
 62
9
  6
_SOLID
 10
3.310885913
 20
4.2771667266
 30
0
 11
3.3115372179
 21
4.2772524855
 31
0
  0
LINE
  5
587
100
AcDbEntity
  8
SEMA2D
100
AcDbLine
370
9
 62
9
  6
_SOLID
 10
3.3115372179
 20
4.2772524855
 30
0
 11
3.3115406446
 21
4.277252938
 31
0
  0
LINE
  5
588
100
AcDbEntity
  8
SEMA2D
100
AcDbLine
370
9
 62
9
  6
_SOLID
 10
3.3115406446
 20
4.277252938
 30
0
 11
3.3121951676
 21
4.2773399563
 31
0
  0
LINE
  5
589
100
AcDbEntity
  8
SEMA2D
100
AcDbLine
370
9
 62
9
  6
_SOLID
 10
3.3121951676
 20
4.2773399563
 30
0
 11
3.3128492023
 21
4.2774287269
 31
0
  0
LINE
  5
58A
100
AcDbEntity
  8
SEMA2D
100
AcDbLine
370
9
 62
9
  6
_SOLID
 10
3.3128492023
 20
4.2774287269
 30
0
 11
3.3135024706
 21
4.2775201525
 31
0
  0
LINE
  5
58B
100
AcDbEntity
  8
SEMA2D
100
AcDbLine
370
9
 62
9
  6
_SOLID
 10
3.3135024706
 20
4.2775201525
 30
0
 11
3.3140080532
 21
4.2775934084
 31
0
  0
LINE
  5
58C
100
AcDbEntity
  8
SEMA2D
100
AcDbLine
370
9
 62
9
  6
_SOLID
 10
3.3140080532
 20
4.2775934084
 30
0
 11
3.3141546937
 21
4.2776151374
 31
0
  0
LINE
  5
58D
100
AcDbEntity
  8
SEMA2D
100
AcDbLine
370
9
 62
9
  6
_SOLID
 10
3.3141546937
 20
4.2776151374
 30
0
 11
3.3148054412
 21
4.277714806
 31
0
  0
LINE
  5
58E
100
AcDbEntity
  8
SEMA2D
100
AcDbLine
370
9
 62
9
  6
_SOLID
 10
3.3148054412
 20
4.277714806
 30
0
 11
3.3154539667
 21
4.2778207412
 31
0
  0
LINE
  5
58F
100
AcDbEntity
  8
SEMA2D
100
AcDbLine
370
9
 62
9
  6
_SOLID
 10
3.3154539667
 20
4.2778207412
 30
0
 11
3.3160994848
 21
4.2779345829
 31
0
  0
LINE
  5
590
100
AcDbEntity
  8
SEMA2D
100
AcDbLine
370
9
 62
9
  6
_SOLID
 10
3.2811117675
 20
4.2919069401
 30
0
 11
3.2817395273
 21
4.2919974784
 31
0
  0
LINE
  5
591
100
AcDbEntity
  8
SEMA2D
100
AcDbLine
370
9
 62
9
  6
_SOLID
 10
3.2817395273
 20
4.2919974784
 30
0
 11
3.2821547103
 21
4.2920505476
 31
0
  0
LINE
  5
592
100
AcDbEntity
  8
SEMA2D
100
AcDbLine
370
9
 62
9
  6
_SOLID
 10
3.2821547103
 20
4.2920505476
 30
0
 11
3.2823706822
 21
4.2920766976
 31
0
  0
LINE
  5
593
100
AcDbEntity
  8
SEMA2D
100
AcDbLine
370
9
 62
9
  6
_SOLID
 10
3.2823706822
 20
4.2920766976
 30
0
 11
3.2830035395
 21
4.292149051
 31
0
  0
LINE
  5
594
100
AcDbEntity
  8
SEMA2D
100
AcDbLine
370
9
 62
9
  6
_SOLID
 10
3.2830035395
 20
4.292149051
 30
0
 11
3.2833770437
 21
4.2921895011
 31
0
  0
LINE
  5
595
100
AcDbEntity
  8
SEMA2D
100
AcDbLine
370
9
 62
9
  6
_SOLID
 10
3.2833770437
 20
4.2921895011
 30
0
 11
3.2836374222
 21
4.2922170279
 31
0
  0
LINE
  5
596
100
AcDbEntity
  8
SEMA2D
100
AcDbLine
370
9
 62
9
  6
_SOLID
 10
3.2836374222
 20
4.2922170279
 30
0
 11
3.2842718912
 21
4.292282411
 31
0
  0
LINE
  5
597
100
AcDbEntity
  8
SEMA2D
100
AcDbLine
370
9
 62
9
  6
_SOLID
 10
3.2842718912
 20
4.292282411
 30
0
 11
3.284906701
 21
4.2923462958
 31
0
  0
LINE
  5
598
100
AcDbEntity
  8
SEMA2D
100
AcDbLine
370
9
 62
9
  6
_SOLID
 10
3.284906701
 20
4.2923462958
 30
0
 11
3.2855416185
 21
4.2924097337
 31
0
  0
LINE
  5
599
100
AcDbEntity
  8
SEMA2D
100
AcDbLine
370
9
 62
9
  6
_SOLID
 10
3.2855416185
 20
4.2924097337
 30
0
 11
3.2861695506
 21
4.292473077
 31
0
  0
LINE
  5
59A
100
AcDbEntity
  8
SEMA2D
100
AcDbLine
370
9
 62
9
  6
_SOLID
 10
3.2861695506
 20
4.292473077
 30
0
 11
3.2861764105
 21
4.2924737762
 31
0
  0
LINE
  5
59B
100
AcDbEntity
  8
SEMA2D
100
AcDbLine
370
9
 62
9
  6
_SOLID
 10
3.2861764105
 20
4.2924737762
 30
0
 11
3.286810859
 21
4.292539389
 31
0
  0
LINE
  5
59C
100
AcDbEntity
  8
SEMA2D
100
AcDbLine
370
9
 62
9
  6
_SOLID
 10
3.286810859
 20
4.292539389
 30
0
 11
3.287444804
 21
4.2926072048
 31
0
  0
LINE
  5
59D
100
AcDbEntity
  8
SEMA2D
100
AcDbLine
370
9
 62
9
  6
_SOLID
 10
3.287444804
 20
4.2926072048
 30
0
 11
3.2880780998
 21
4.2926777761
 31
0
  0
LINE
  5
59E
100
AcDbEntity
  8
SEMA2D
100
AcDbLine
370
9
 62
9
  6
_SOLID
 10
3.2880780998
 20
4.2926777761
 30
0
 11
3.2887106006
 21
4.2927516553
 31
0
  0
LINE
  5
59F
100
AcDbEntity
  8
SEMA2D
100
AcDbLine
370
9
 62
9
  6
_SOLID
 10
3.2887106006
 20
4.2927516553
 30
0
 11
3.288962143
 21
4.2927821097
 31
0
  0
LINE
  5
5A0
100
AcDbEntity
  8
SEMA2D
100
AcDbLine
370
9
 62
9
  6
_SOLID
 10
3.288962143
 20
4.2927821097
 30
0
 11
3.2893421502
 21
4.2928294089
 31
0
  0
LINE
  5
5A1
100
AcDbEntity
  8
SEMA2D
100
AcDbLine
370
9
 62
9
  6
_SOLID
 10
3.2893421502
 20
4.2928294089
 30
0
 11
3.2899724388
 21
4.2929118139
 31
0
  0
LINE
  5
5A2
100
AcDbEntity
  8
SEMA2D
100
AcDbLine
370
9
 62
9
  6
_SOLID
 10
3.2899724388
 20
4.2929118139
 30
0
 11
3.2906010387
 21
4.2929998088
 31
0
  0
LINE
  5
5A3
100
AcDbEntity
  8
SEMA2D
100
AcDbLine
370
9
 62
9
  6
_SOLID
 10
3.2906010387
 20
4.2929998088
 30
0
 11
3.2912275193
 21
4.2930943359
 31
0
  0
LINE
  5
5A4
100
AcDbEntity
  8
SEMA2D
100
AcDbLine
370
9
 62
7
  6
_SOLID
 10
3.3534119934
 20
4.203041242
 30
0
 11
3.3527308683
 21
4.2026441361
 31
0
  0
LINE
  5
5A5
100
AcDbEntity
  8
SEMA2D
100
AcDbLine
370
9
 62
7
  6
_SOLID
 10
3.3527308683
 20
4.2026441361
 30
0
 11
3.3519863154
 21
4.2022979147
 31
0
  0
LINE
  5
5A6
100
AcDbEntity
  8
SEMA2D
100
AcDbLine
370
9
 62
7
  6
_SOLID
 10
3.3519863154
 20
4.2022979147
 30
0
 11
3.3511891441
 21
4.202006612
 31
0
  0
LINE
  5
5A7
100
AcDbEntity
  8
SEMA2D
100
AcDbLine
370
9
 62
7
  6
_SOLID
 10
3.3511891441
 20
4.202006612
 30
0
 11
3.3507631666
 21
4.2018797644
 31
0
  0
LINE
  5
5A8
100
AcDbEntity
  8
SEMA2D
100
AcDbLine
370
9
 62
7
  6
_SOLID
 10
3.3507631666
 20
4.2018797644
 30
0
 11
3.3503501576
 21
4.2017742379
 31
0
  0
LINE
  5
5A9
100
AcDbEntity
  8
SEMA2D
100
AcDbLine
370
9
 62
7
  6
_SOLID
 10
3.3503501576
 20
4.2017742379
 30
0
 11
3.349479998
 21
4.2016042168
 31
0
  0
LINE
  5
5AA
100
AcDbEntity
  8
SEMA2D
100
AcDbLine
370
9
 62
7
  6
_SOLID
 10
3.349479998
 20
4.2016042168
 30
0
 11
3.3485891408
 21
4.2014993665
 31
0
  0
LINE
  5
5AB
100
AcDbEntity
  8
SEMA2D
100
AcDbLine
370
9
 62
7
  6
_SOLID
 10
3.3485891408
 20
4.2014993665
 30
0
 11
3.3476880539
 21
4.201462477
 31
0
  0
LINE
  5
5AC
100
AcDbEntity
  8
SEMA2D
100
AcDbLine
370
9
 62
7
  6
_SOLID
 10
3.3476880539
 20
4.201462477
 30
0
 11
3.3467872022
 21
4.2014954157
 31
0
  0
LINE
  5
5AD
100
AcDbEntity
  8
SEMA2D
100
AcDbLine
370
9
 62
7
  6
_SOLID
 10
3.3467872022
 20
4.2014954157
 30
0
 11
3.345897038
 21
4.2015963609
 31
0
  0
LINE
  5
5AE
100
AcDbEntity
  8
SEMA2D
100
AcDbLine
370
9
 62
7
  6
_SOLID
 10
3.345897038
 20
4.2015963609
 30
0
 11
3.3450280106
 21
4.2017625687
 31
0
  0
LINE
  5
5AF
100
AcDbEntity
  8
SEMA2D
100
AcDbLine
370
9
 62
7
  6
_SOLID
 10
3.3450280106
 20
4.2017625687
 30
0
 11
3.3446157066
 21
4.2018662855
 31
0
  0
LINE
  5
5B0
100
AcDbEntity
  8
SEMA2D
100
AcDbLine
370
9
 62
7
  6
_SOLID
 10
3.3446157066
 20
4.2018662855
 30
0
 11
3.3441905766
 21
4.2019912671
 31
0
  0
LINE
  5
5B1
100
AcDbEntity
  8
SEMA2D
100
AcDbLine
370
9
 62
7
  6
_SOLID
 10
3.3441905766
 20
4.2019912671
 30
0
 11
3.3433953555
 21
4.2022790784
 31
0
  0
LINE
  5
5B2
100
AcDbEntity
  8
SEMA2D
100
AcDbLine
370
9
 62
7
  6
_SOLID
 10
3.3433953555
 20
4.2022790784
 30
0
 11
3.3426531232
 21
4.2026220398
 31
0
  0
LINE
  5
5B3
100
AcDbEntity
  8
SEMA2D
100
AcDbLine
370
9
 62
7
  6
_SOLID
 10
3.3426531232
 20
4.2026220398
 30
0
 11
3.3419746625
 21
4.2030161647
 31
0
  0
LINE
  5
5B4
100
AcDbEntity
  8
SEMA2D
100
AcDbLine
370
9
 62
7
  6
_SOLID
 10
3.4739852867
 20
4.2898301494
 30
0
 11
3.4739350672
 21
4.288734819
 31
0
  0
LINE
  5
5B5
100
AcDbEntity
  8
SEMA2D
100
AcDbLine
370
9
 62
7
  6
_SOLID
 10
3.4739350672
 20
4.288734819
 30
0
 11
3.4737924303
 21
4.2876416681
 31
0
  0
LINE
  5
5B6
100
AcDbEntity
  8
SEMA2D
100
AcDbLine
370
9
 62
7
  6
_SOLID
 10
3.4737924303
 20
4.2876416681
 30
0
 11
3.4735583458
 21
4.2865547196
 31
0
  0
LINE
  5
5B7
100
AcDbEntity
  8
SEMA2D
100
AcDbLine
370
9
 62
7
  6
_SOLID
 10
3.4735583458
 20
4.2865547196
 30
0
 11
3.4734023101
 21
4.2859982653
 31
0
  0
LINE
  5
5B8
100
AcDbEntity
  8
SEMA2D
100
AcDbLine
370
9
 62
7
  6
_SOLID
 10
3.4734023101
 20
4.2859982653
 30
0
 11
3.4732337814
 21
4.2854779842
 31
0
  0
LINE
  5
5B9
100
AcDbEntity
  8
SEMA2D
100
AcDbLine
370
9
 62
7
  6
_SOLID
 10
3.4732337814
 20
4.2854779842
 30
0
 11
3.4728196573
 21
4.2844151779
 31
0
  0
LINE
  5
5BA
100
AcDbEntity
  8
SEMA2D
100
AcDbLine
370
9
 62
7
  6
_SOLID
 10
3.4728196573
 20
4.2844151779
 30
0
 11
3.4723168434
 21
4.28336971
 31
0
  0
LINE
  5
5BB
100
AcDbEntity
  8
SEMA2D
100
AcDbLine
370
9
 62
7
  6
_SOLID
 10
3.4723168434
 20
4.28336971
 30
0
 11
3.4717262076
 21
4.2823449753
 31
0
  0
LINE
  5
5BC
100
AcDbEntity
  8
SEMA2D
100
AcDbLine
370
9
 62
7
  6
_SOLID
 10
3.4717262076
 20
4.2823449753
 30
0
 11
3.4717111483
 21
4.2823209637
 31
0
  0
LINE
  5
5BD
100
AcDbEntity
  8
SEMA2D
100
AcDbLine
370
9
 62
7
  6
_SOLID
 10
3.4717111483
 20
4.2823209637
 30
0
 11
3.4710488818
 21
4.281344312
 31
0
  0
LINE
  5
5BE
100
AcDbEntity
  8
SEMA2D
100
AcDbLine
370
9
 62
7
  6
_SOLID
 10
3.4710488818
 20
4.281344312
 30
0
 11
3.4702871326
 21
4.2803708158
 31
0
  0
LINE
  5
5BF
100
AcDbEntity
  8
SEMA2D
100
AcDbLine
370
9
 62
7
  6
_SOLID
 10
3.4702871326
 20
4.2803708158
 30
0
 11
3.4694435307
 21
4.2794275172
 31
0
  0
LINE
  5
5C0
100
AcDbEntity
  8
SEMA2D
100
AcDbLine
370
9
 62
7
  6
_SOLID
 10
3.4694435307
 20
4.2794275172
 30
0
 11
3.4689736898
 21
4.2789502634
 31
0
  0
LINE
  5
5C1
100
AcDbEntity
  8
SEMA2D
100
AcDbLine
370
9
 62
7
  6
_SOLID
 10
3.4689736898
 20
4.2789502634
 30
0
 11
3.4685206647
 21
4.2785174589
 31
0
  0
LINE
  5
5C2
100
AcDbEntity
  8
SEMA2D
100
AcDbLine
370
9
 62
7
  6
_SOLID
 10
3.4685206647
 20
4.2785174589
 30
0
 11
3.4675215623
 21
4.2776439912
 31
0
  0
LINE
  5
5C3
100
AcDbEntity
  8
SEMA2D
100
AcDbLine
370
9
 62
7
  6
_SOLID
 10
3.4675215623
 20
4.2776439912
 30
0
 11
3.4664497135
 21
4.2768107883
 31
0
  0
LINE
  5
5C4
100
AcDbEntity
  8
SEMA2D
100
AcDbLine
370
9
 62
7
  6
_SOLID
 10
3.4664497135
 20
4.2768107883
 30
0
 11
3.4653086306
 21
4.2760215396
 31
0
  0
LINE
  5
5C5
100
AcDbEntity
  8
SEMA2D
100
AcDbLine
370
9
 62
7
  6
_DOT
 10
3.5160225953
 20
4.5864648387
 30
0
 11
3.4760225953
 21
4.5864648387
 31
0
  0
LINE
  5
5C6
100
AcDbEntity
  8
SEMA2D
100
AcDbLine
370
9
 62
7
  6
_DOT
 10
3.4759568182
 20
4.6164646945
 30
0
 11
3.4759568182
 21
4.5864646945
 31
0
  0
LINE
  5
5C7
100
AcDbEntity
  8
SEMA2D
100
AcDbLine
370
9
 62
7
  6
_DOT
 10
3.2213786843
 20
4.6159065113
 30
0
 11
3.2213786843
 21
4.5851971371
 31
0
  0
LINE
  5
5C8
100
AcDbEntity
  8
SEMA2D
100
AcDbLine
370
9
 62
7
  6
_DOT
 10
3.074197
 20
4.5864648387
 30
0
 11
3.104197
 21
4.5864648387
 31
0
  0
LINE
  5
5C9
100
AcDbEntity
  8
SEMA2D
100
AcDbLine
370
9
 62
7
  6
_DOT
 10
3.074197
 20
4.5572523387
 30
0
 11
3.111613
 21
4.5572523387
 31
0
  0
LINE
  5
5CA
100
AcDbEntity
  8
SEMA2D
100
AcDbLine
370
9
 62
7
  6
_DOT
 10
3.141613
 20
4.5572523387
 30
0
 11
3.111613
 21
4.5572523387
 31
0
  0
LINE
  5
5CB
100
AcDbEntity
  8
SEMA2D
100
AcDbLine
370
9
 62
7
  6
_DOT
 10
3.141613
 20
4.2019523387
 30
0
 11
3.106978
 21
4.2019523387
 31
0
  0
LINE
  5
5CC
100
AcDbEntity
  8
SEMA2D
100
AcDbLine
370
9
 62
7
  6
_DOT
 10
3.094
 20
4.6144862989
 30
0
 11
3.094
 21
4.5852046774
 31
0
  0
LINE
  5
5CD
100
AcDbEntity
  8
SEMA2D
100
AcDbLine
370
9
 62
7
  6
_DOT
 10
3.111613
 20
4.6144862989
 30
0
 11
3.111613
 21
4.5864648387
 31
0
  0
LINE
  5
5CE
100
AcDbEntity
  8
SEMA2D
100
AcDbLine
370
9
 62
7
  6
_DOT
 10
3.126445
 20
4.6144862989
 30
0
 11
3.126445
 21
4.5792585542
 31
0
  0
LINE
  5
5CF
100
AcDbEntity
  8
SEMA2D
100
AcDbLine
370
9
 62
7
  6
_DOT
 10
3.5060225953
 20
4.2016042168
 30
0
 11
3.3503501576
 21
4.2016042168
 31
0
  0
LINE
  5
5D0
100
AcDbEntity
  8
SEMA2D
100
AcDbLine
370
9
 62
7
  6
_DOT
 10
3.5060225953
 20
4.5864648387
 30
0
 11
3.4759568182
 21
4.5864648387
 31
0
  0
ENDSEC
  0
SECTION
  2
OBJECTS
  0
DICTIONARY
  5
62E
100
AcDbDictionary
  3
ACAD_GROUP
350
62F
  3
ACAD_MATERIAL
350
630
  3
ACAD_WIPEOUT_VARS
350
631
  3
ACAD_MLINESTYLE
350
632
  3
ACAD_LAYOUT
350
633
  0
DICTIONARY
  5
62F
330
62E
100
AcDbDictionary
  0
DICTIONARY
  5
630
330
62E
100
AcDbDictionary
  0
WIPEOUTVARIABLES
  5
631
330
62E
100
AcDbWipeoutVariables
 70
1
  0
DICTIONARY
  5
632
330
62E
100
AcDbDictionary
  3
STANDARD
350
634
  0
MLINESTYLE
  5
634
100
AcDbMlineStyle
  2
STANDARD
 70
0
  3

 62
256
 51
90
 52
90
 71
2
 49
0.5
 62
256
  6
ByLayer
 49
-0.5
 62
256
  6
ByLayer
  0
DICTIONARY
  5
633
100
AcDbDictionary
281
1
  3
Model
350
5D1
  0
LAYOUT
  5
5D1
102
{ACAD_REACTORS
330
633
102
}
330
633
100
AcDbPlotSettings
  1

  2
none_device
  4

  6

 40
0
 41
0
 42
0
 43
0
 44
0
 45
0
 46
0
 47
0
 48
0
 49
0
 70
1712
 72
1
 73
0
 74
5
 75
16
 76
0
 77
0
 78
100
140
0
141
0
142
1
143
1
147
1
148
0
149
0
100
AcDbLayout
  1
Model
 70
1
 71
1
 10
3.065797
 20
4.20076829213084
 11
3.5160225953
 21
4.74604154807719
 12
0
 22
0
 32
0
 14
3.065797
 24
4.20076829213084
 34
0
 15
3.5160225953
 25
4.74604154807719
 35
0
146
0
 13
0
 23
0
 33
0
 16
1
 26
0
 36
0
 17
0
 27
1
 37
0
 76
0
330
2A
  0
DICTIONARY
  5
635
100
AcDbDictionary
280
1
  3
XINFO
360
636
  0
XRECORD
  5
636
102
{ACAD_REACTORS
330
635
102
}
330
635
100
AcDbXrecord
280
0
310
0000000002001400
311
76911F67253E851F
  0
ENDSEC
  0
EOF
