999
Created by Soft Gold Ltd. www.cadsofttools.com
999

  0
SECTION
  2
HEADER
  9
$ACADVER
  1
AC1021
  9
$DWGCODEPAGE
  3
ANSI_1252
  9
$CLAYER
  8
0
  9
$CELTYPE
  6
BYLAYER
  9
$CELTSCALE
 40
1
  9
$CELWEIGHT
370
-1
  9
$DIMALT
 70
0
  9
$DIMALTF
 40
1
  9
$DIMPOST
  1

  9
$DIMAPOST
  1

  9
$DIMSCALE
 40
1
  9
$DIMASZ
 40
0.18
  9
$DIMCLRD
 70
0
  9
$DIMCLRE
 70
0
  9
$DIMCLRT
 70
0
  9
$DIMEXE
 40
0.18
  9
$DIMEXO
 40
0.0625
  9
$DIMGAP
 40
0.0625
  9
$DIMLFAC
 40
1
  9
$DIMDEC
 70
4
  9
$DIMTAD
 70
0
  9
$DIMCEN
 40
0.09
  9
$DIMTIH
 70
1
  9
$DIMTIX
 70
0
  9
$DIMTOH
 70
1
  9
$DIMSE1
 70
0
  9
$DIMSE2
 70
0
  9
$DIMSD1
 70
0
  9
$DIMSD2
 70
0
  9
$DIMLWD
 70
-1
  9
$DIMLWE
 70
-1
  9
$DIMSAH
 70
0
  9
$DIMBLK
  1

  9
$DIMBLK1
  1

  9
$DIMBLK2
  1

  9
$DIMLDRBLK
  1

  9
$DIMSTYLE
  2
STANDARD
  9
$DIMTP
 40
0
  9
$DIMTM
 40
0
  9
$DIMTXT
 40
0.18
  9
$DIMLUNIT
 70
2
  9
$DIMDSEP
 70
46
  9
$DIMTXSTY
  7
STANDARD
  9
$TEXTSIZE
 40
0.18
  9
$TEXTSTYLE
  7
STANDARD
  9
$HANDSEED
  5
000000000000030F
  9
$FILLETRAD
 40
0.5
  9
$INSUNITS
 70
4
  9
$LIMMIN
 10
3.71615734530811
 20
4.39853943990837
  9
$LIMMAX
 10
4.29023618122702
 20
5.06988716482463
  9
$FILLMODE
 70
1
  9
$LTSCALE
 40
1
  9
$MEASUREMENT
 70
0
  9
$ATTMODE
 70
1
  9
$PDMODE
 70
0
  9
$PDSIZE
 40
0
  9
$TILEMODE
 70
1
  9
$UCSORG
 10
0
 20
0
 30
0
  9
$UCSXDIR
 10
1
 20
0
 30
0
  9
$UCSYDIR
 10
0
 20
1
 30
0
  9
$INSBASE
 10
0
 20
0
 30
0
  9
$XCLIPFRAME
290
1
  9
$DIMASSOC
280
2
  9
$TDCREATE
 40
2459018.59899503
  9
$TDINDWG
 40
1.49305555555556E-6
  9
$TDUPDATE
 40
2459018.59899653
  0
ENDSEC
  0
SECTION
  2
CLASSES
  0
CLASS
  1
IMAGE
  2
AcDbRasterImage
  3
ISM
 90
2175
 91
1
280
0
281
1
  0
CLASS
  1
IMAGEDEF
  2
AcDbRasterImageDef
  3
ISM
 90
0
 91
1
280
0
281
0
  0
CLASS
  1
WIPEOUT
  2
AcDbWipeout
  3
"WipeOut"
 90
2175
 91
1
280
0
281
1
  0
CLASS
  1
WIPEOUTVARIABLES
  2
AcDbWipeoutVariables
  3
"WipeOut"
 90
0
 91
1
280
0
281
0
  0
CLASS
  1
MPOLYGON
  2
AcDbMPolygon
  3
"AcMPolygonObj15"
 90
3071
 91
1
280
0
281
1
  0
ENDSEC
  0
SECTION
  2
TABLES
  0
TABLE
  2
APPID
  5
2F7
100
AcDbSymbolTable
  0
APPID
  5
2F8
100
AcDbSymbolTableRecord
100
AcDbRegAppTableRecord
  2
ACAD
 70
0
  0
APPID
  5
12
100
AcDbSymbolTableRecord
100
AcDbRegAppTableRecord
  2
CSTINVENTORY
 70
0
  0
APPID
  5
2F9
100
AcDbSymbolTableRecord
100
AcDbRegAppTableRecord
  2
PE_URL
 70
0
  0
ENDTAB
  0
TABLE
  2
BLOCK_RECORD
  5
2FA
100
AcDbSymbolTable
  0
BLOCK_RECORD
  5
2A
100
AcDbSymbolTableRecord
100
AcDbBlockTableRecord
  2
*MODEL_SPACE
  0
BLOCK_RECORD
  5
2FB
100
AcDbSymbolTableRecord
100
AcDbBlockTableRecord
  2
*PAPER_SPACE
  0
BLOCK_RECORD
  5
10
100
AcDbSymbolTableRecord
100
AcDbBlockTableRecord
  2
_CLOSEDFILLED
  0
ENDTAB
  0
TABLE
  2
STYLE
  5
3
100
AcDbSymbolTable
  0
STYLE
  5
A
100
AcDbSymbolTableRecord
100
AcDbTextStyleTableRecord
  2
STANDARD
 70
0
 40
0
 41
1
 50
0
 71
0
 42
2.5
  3
txt
  4

1001
ACAD
1000
txt
1071
0
  0
ENDTAB
  0
TABLE
  2
LTYPE
  5
1
100
AcDbSymbolTable
  0
LTYPE
  5
9
100
AcDbSymbolTableRecord
100
AcDbLinetypeTableRecord
  2
CONTINUOUS
 70
0
  3

 72
65
 73
0
 40
0
  0
LTYPE
  5
7
100
AcDbSymbolTableRecord
100
AcDbLinetypeTableRecord
  2
BYLAYER
 70
0
  3

 72
65
 73
0
 40
0
  0
LTYPE
  5
8
100
AcDbSymbolTableRecord
100
AcDbLinetypeTableRecord
  2
BYBLOCK
 70
0
  3

 72
65
 73
0
 40
0
  0
LTYPE
  5
13
100
AcDbSymbolTableRecord
100
AcDbLinetypeTableRecord
  2
_SOLID
 70
0
  3
_.
 72
65
 73
2
 40
5
 49
5
 74
0
 49
0
 74
0
  0
LTYPE
  5
14
100
AcDbSymbolTableRecord
100
AcDbLinetypeTableRecord
  2
_DASH
 70
0
  3
_ 
 72
65
 73
2
 40
7
 49
5
 74
0
 49
-2
 74
0
  0
LTYPE
  5
15
100
AcDbSymbolTableRecord
100
AcDbLinetypeTableRecord
  2
_DOT
 70
0
  3
_ 
 72
65
 73
2
 40
4
 49
2
 74
0
 49
-2
 74
0
  0
LTYPE
  5
16
100
AcDbSymbolTableRecord
100
AcDbLinetypeTableRecord
  2
_DASHDOT
 70
0
  3
_ _ 
 72
65
 73
4
 40
11
 49
5
 74
0
 49
-2
 74
0
 49
2
 74
0
 49
-2
 74
0
  0
LTYPE
  5
17
100
AcDbSymbolTableRecord
100
AcDbLinetypeTableRecord
  2
_DASHDOTDOT
 70
0
  3
_ _ _ 
 72
65
 73
6
 40
15
 49
5
 74
0
 49
-2
 74
0
 49
2
 74
0
 49
-2
 74
0
 49
2
 74
0
 49
-2
 74
0
  0
LTYPE
  5
18
100
AcDbSymbolTableRecord
100
AcDbLinetypeTableRecord
  2
ISO128-20-02
 70
0
  3
_ 
 72
65
 73
2
 40
5
 49
4
 74
0
 49
-1
 74
0
  0
LTYPE
  5
19
100
AcDbSymbolTableRecord
100
AcDbLinetypeTableRecord
  2
ISO128-20-03
 70
0
  3
_ 
 72
65
 73
2
 40
10
 49
4
 74
0
 49
-6
 74
0
  0
LTYPE
  5
1A
100
AcDbSymbolTableRecord
100
AcDbLinetypeTableRecord
  2
ISO128-20-04
 70
0
  3
_ . 
 72
65
 73
4
 40
10
 49
8
 74
0
 49
-1
 74
0
 49
0
 74
0
 49
-1
 74
0
  0
LTYPE
  5
1B
100
AcDbSymbolTableRecord
100
AcDbLinetypeTableRecord
  2
ISO128-20-05
 70
0
  3
_ . . 
 72
65
 73
6
 40
11
 49
8
 74
0
 49
-1
 74
0
 49
0
 74
0
 49
-1
 74
0
 49
0
 74
0
 49
-1
 74
0
  0
LTYPE
  5
1C
100
AcDbSymbolTableRecord
100
AcDbLinetypeTableRecord
  2
ISO128-20-06
 70
0
  3
_ . . . 
 72
65
 73
8
 40
12
 49
8
 74
0
 49
-1
 74
0
 49
0
 74
0
 49
-1
 74
0
 49
0
 74
0
 49
-1
 74
0
 49
0
 74
0
 49
-1
 74
0
  0
LTYPE
  5
1D
100
AcDbSymbolTableRecord
100
AcDbLinetypeTableRecord
  2
ISO128-20-07
 70
0
  3
. 
 72
65
 73
2
 40
1
 49
0
 74
0
 49
-1
 74
0
  0
LTYPE
  5
1E
100
AcDbSymbolTableRecord
100
AcDbLinetypeTableRecord
  2
ISO128-20-08
 70
0
  3
_ _ 
 72
65
 73
4
 40
12
 49
8
 74
0
 49
-1
 74
0
 49
2
 74
0
 49
-1
 74
0
  0
LTYPE
  5
1F
100
AcDbSymbolTableRecord
100
AcDbLinetypeTableRecord
  2
ISO128-20-09
 70
0
  3
_ _ _ 
 72
65
 73
6
 40
15
 49
8
 74
0
 49
-1
 74
0
 49
2
 74
0
 49
-1
 74
0
 49
2
 74
0
 49
-1
 74
0
  0
LTYPE
  5
20
100
AcDbSymbolTableRecord
100
AcDbLinetypeTableRecord
  2
ISO128-20-10
 70
0
  3
_ . 
 72
65
 73
4
 40
10
 49
8
 74
0
 49
-1
 74
0
 49
0
 74
0
 49
-1
 74
0
  0
LTYPE
  5
21
100
AcDbSymbolTableRecord
100
AcDbLinetypeTableRecord
  2
ISO128-20-11
 70
0
  3
_ _ . 
 72
65
 73
6
 40
11
 49
4
 74
0
 49
-1
 74
0
 49
4
 74
0
 49
-1
 74
0
 49
0
 74
0
 49
-1
 74
0
  0
LTYPE
  5
22
100
AcDbSymbolTableRecord
100
AcDbLinetypeTableRecord
  2
ISO128-20-12
 70
0
  3
_ . . 
 72
65
 73
6
 40
7
 49
4
 74
0
 49
-1
 74
0
 49
0
 74
0
 49
-1
 74
0
 49
0
 74
0
 49
-1
 74
0
  0
LTYPE
  5
23
100
AcDbSymbolTableRecord
100
AcDbLinetypeTableRecord
  2
ISO128-20-13
 70
0
  3
_ _ . . 
 72
65
 73
8
 40
12
 49
4
 74
0
 49
-1
 74
0
 49
4
 74
0
 49
-1
 74
0
 49
0
 74
0
 49
-1
 74
0
 49
0
 74
0
 49
-1
 74
0
  0
LTYPE
  5
24
100
AcDbSymbolTableRecord
100
AcDbLinetypeTableRecord
  2
ISO128-20-14
 70
0
  3
_ . . . 
 72
65
 73
8
 40
8
 49
4
 74
0
 49
-1
 74
0
 49
0
 74
0
 49
-1
 74
0
 49
0
 74
0
 49
-1
 74
0
 49
0
 74
0
 49
-1
 74
0
  0
LTYPE
  5
25
100
AcDbSymbolTableRecord
100
AcDbLinetypeTableRecord
  2
ISO128-20-15
 70
0
  3
_ _ . . . 
 72
65
 73
10
 40
13
 49
4
 74
0
 49
-1
 74
0
 49
4
 74
0
 49
-1
 74
0
 49
0
 74
0
 49
-1
 74
0
 49
0
 74
0
 49
-1
 74
0
 49
0
 74
0
 49
-1
 74
0
  0
LTYPE
  5
26
100
AcDbSymbolTableRecord
100
AcDbLinetypeTableRecord
  2
kurzgestrichelt
 70
0
  3
_ 
 72
65
 73
2
 40
3
 49
2
 74
0
 49
-1
 74
0
  0
ENDTAB
  0
TABLE
  2
LAYER
  5
2
100
AcDbSymbolTable
  0
LAYER
  5
E
100
AcDbSymbolTableRecord
100
AcDbLayerTableRecord
  2
0
 70
0
 62
7
  6
CONTINUOUS
290
1
370
-3
390
0
  0
LAYER
  5
27
100
AcDbSymbolTableRecord
100
AcDbLayerTableRecord
  2
SEMA2D
 70
0
 62
7
290
1
370
-3
390
0
  0
LAYER
  5
2B
100
AcDbSymbolTableRecord
100
AcDbLayerTableRecord
  2
SEMATEXT
 70
0
 62
7
290
1
370
-3
390
0
  0
ENDTAB
  0
TABLE
  2
VPORT
  5
2FC
100
AcDbSymbolTable
  0
VPORT
  5
2FE
100
AcDbSymbolTableRecord
100
AcDbViewportTableRecord
  2
*ACTIVE
 70
0
 10
0
 20
0
 11
1
 21
1
 12
4.00319676326756
 22
4.7342133023665
 32
0
 13
0
 23
0
 14
1
 24
1
 15
1
 25
1
 16
0
 26
0
 36
1
 17
0
 27
0
 37
0
 40
0.537078179933001
 41
0.855113996238722
 42
50
 43
0
 44
0
 50
0
 51
0
 71
0
 72
100
 73
1
 74
1
 75
0
 76
0
 77
0
 78
0
  0
ENDTAB
  0
TABLE
  2
VIEW
  5
2FF
100
AcDbSymbolTable
  0
ENDTAB
  0
TABLE
  2
UCS
  5
300
100
AcDbSymbolTable
  0
ENDTAB
  0
TABLE
  2
DIMSTYLE
  5
4
100
AcDbSymbolTable
 70
1
100
AcDbDimStyleTable
 71
0
  0
DIMSTYLE
105
B
100
AcDbSymbolTableRecord
100
AcDbDimStyleTableRecord
  2
STANDARD
 70
0
  3

 40
1
 41
0.18
 42
0.0625
 44
0.18
 47
0
 48
0
 73
1
 74
1
 75
0
 76
0
 77
0
140
0.18
141
0.09
144
1
147
0.0625
173
0
174
0
176
0
177
0
178
0
277
2
278
46
281
0
282
0
271
4
340
A
371
-1
372
-1
  0
ENDTAB
  0
ENDSEC
  0
SECTION
  2
BLOCKS
  0
BLOCK
  5
301
100
AcDbEntity
  8
0
100
AcDbBlockBegin
  2
*MODEL_SPACE
 70
0
 10
0
 20
0
  0
ENDBLK
  5
302
100
AcDbEntity
  8
0
100
AcDbBlockEnd
  0
BLOCK
  5
303
100
AcDbEntity
  8
0
100
AcDbBlockBegin
  2
*PAPER_SPACE
 70
0
 10
0
 20
0
  0
ENDBLK
  5
304
100
AcDbEntity
  8
0
100
AcDbBlockEnd
  0
BLOCK
  5
F
100
AcDbEntity
  8
0
100
AcDbBlockBegin
  2
_CLOSEDFILLED
 70
0
 10
0
 20
0
 30
0
  3
_CLOSEDFILLED
  1

  0
SOLID
  5
C
100
AcDbEntity
  8
0
100
AcDbTrace
370
-2
 62
0
 10
-1
 20
0.166666666666667
 30
0
 11
0
 21
0
 31
0
 12
-1
 22
0.166666666666667
 32
0
 13
-1
 23
-0.166666666666667
 33
0
  0
LINE
  5
D
100
AcDbEntity
  8
0
100
AcDbLine
370
-2
 62
0
 10
-1
 20
0
 30
0
 11
-2
 21
0
 31
0
  0
ENDBLK
  5
305
100
AcDbEntity
  8
0
100
AcDbBlockEnd
  0
ENDSEC
  0
SECTION
  2
ENTITIES
  0
LINE
  5
28
100
AcDbEntity
  8
SEMA2D
100
AcDbLine
370
9
 62
7
  6
_SOLID
 10
4.2202570529
 20
4.8471424532
 30
0
 11
4.2202570529
 21
4.4671424532
 31
0
  0
MTEXT
  5
2C
100
AcDbEntity
  8
SEMATEXT
100
AcDbMText
370
9
 62
7
 10
4.22218140041219
 20
4.64916561848746
 30
0
 40
0.010476
  1
{\fHelveticaNeueLT Com 55 Roman;38}
 50
90
 41
0
  7
STANDARD
 71
0
 73
1
 44
1
  0
LINE
  5
31
100
AcDbEntity
  8
SEMA2D
100
AcDbLine
370
9
 62
7
  6
_SOLID
 10
4.2202570529
 20
4.8471424532
 30
0
 11
4.2286570529
 21
4.8471424532
 31
0
  0
LINE
  5
32
100
AcDbEntity
  8
SEMA2D
100
AcDbLine
370
9
 62
7
  6
_SOLID
 10
4.2202570529
 20
4.8471424532
 30
0
 11
4.2118570529
 21
4.8471424532
 31
0
  0
LINE
  5
33
100
AcDbEntity
  8
SEMA2D
100
AcDbLine
370
9
 62
7
  6
_SOLID
 10
4.2202570529
 20
4.4671424532
 30
0
 11
4.2286570529
 21
4.4671424532
 31
0
  0
LINE
  5
34
100
AcDbEntity
  8
SEMA2D
100
AcDbLine
370
9
 62
7
  6
_SOLID
 10
4.2202570529
 20
4.4671424532
 30
0
 11
4.2118570529
 21
4.4671424532
 31
0
  0
LINE
  5
35
100
AcDbEntity
  8
SEMA2D
100
AcDbLine
370
9
 62
7
  6
_SOLID
 10
3.84942035
 20
4.8224620608
 30
0
 11
3.84942035
 21
4.4671424532
 31
0
  0
MTEXT
  5
36
100
AcDbEntity
  8
SEMATEXT
100
AcDbMText
370
9
 62
7
 10
3.8513446975122
 20
4.63370737503136
 30
0
 40
0.010476
  1
{\fHelveticaNeueLT Com 55 Roman;355}
 50
90
 41
0
  7
STANDARD
 71
0
 73
1
 44
1
  0
LINE
  5
3B
100
AcDbEntity
  8
SEMA2D
100
AcDbLine
370
9
 62
7
  6
_SOLID
 10
3.84942035
 20
4.8224620608
 30
0
 11
3.85782035
 21
4.8224620608
 31
0
  0
LINE
  5
3C
100
AcDbEntity
  8
SEMA2D
100
AcDbLine
370
9
 62
7
  6
_SOLID
 10
3.84942035
 20
4.8224620608
 30
0
 11
3.84102035
 21
4.8224620608
 31
0
  0
LINE
  5
3D
100
AcDbEntity
  8
SEMA2D
100
AcDbLine
370
9
 62
7
  6
_SOLID
 10
3.84942035
 20
4.4671424532
 30
0
 11
3.85782035
 21
4.4671424532
 31
0
  0
LINE
  5
3E
100
AcDbEntity
  8
SEMA2D
100
AcDbLine
370
9
 62
7
  6
_SOLID
 10
3.84942035
 20
4.4671424532
 30
0
 11
3.84102035
 21
4.4671424532
 31
0
  0
LINE
  5
3F
100
AcDbEntity
  8
SEMA2D
100
AcDbLine
370
9
 62
7
  6
_SOLID
 10
3.9339897779
 20
4.8770992124
 30
0
 11
4.1902570529
 21
4.8770992124
 31
0
  0
MTEXT
  5
40
100
AcDbEntity
  8
SEMATEXT
100
AcDbMText
370
9
 62
7
 10
4.0509636414453
 20
4.89505978918049
 30
0
 40
0.010476
  1
{\fHelveticaNeueLT Com 55 Roman;256}
 50
0
 41
0
  7
STANDARD
 71
0
 73
1
 44
1
  0
LINE
  5
45
100
AcDbEntity
  8
SEMA2D
100
AcDbLine
370
9
 62
7
  6
_SOLID
 10
3.9339897779
 20
4.8770992124
 30
0
 11
3.9339897779
 21
4.8854992124
 31
0
  0
LINE
  5
46
100
AcDbEntity
  8
SEMA2D
100
AcDbLine
370
9
 62
7
  6
_SOLID
 10
3.9339897779
 20
4.8770992124
 30
0
 11
3.9339897779
 21
4.8686992124
 31
0
  0
LINE
  5
47
100
AcDbEntity
  8
SEMA2D
100
AcDbLine
370
9
 62
7
  6
_SOLID
 10
4.1902570529
 20
4.8770992124
 30
0
 11
4.1902570529
 21
4.8854992124
 31
0
  0
LINE
  5
48
100
AcDbEntity
  8
SEMA2D
100
AcDbLine
370
9
 62
7
  6
_SOLID
 10
4.1902570529
 20
4.8770992124
 30
0
 11
4.1902570529
 21
4.8686992124
 31
0
  0
LINE
  5
49
100
AcDbEntity
  8
SEMA2D
100
AcDbLine
370
9
 62
7
  6
_SOLID
 10
3.8012485974
 20
4.8770992124
 30
0
 11
3.8194160101
 21
4.8770992124
 31
0
  0
MTEXT
  5
4A
100
AcDbEntity
  8
SEMATEXT
100
AcDbMText
370
9
 62
7
 10
3.80315850736498
 20
4.89505978918049
 30
0
 40
0.010476
  1
{\fHelveticaNeueLT Com 55 Roman;18}
 50
0
 41
0
  7
STANDARD
 71
0
 73
1
 44
1
  0
LINE
  5
4F
100
AcDbEntity
  8
SEMA2D
100
AcDbLine
370
9
 62
7
  6
_SOLID
 10
3.8012485974
 20
4.8770992124
 30
0
 11
3.8012485974
 21
4.8854992124
 31
0
  0
LINE
  5
50
100
AcDbEntity
  8
SEMA2D
100
AcDbLine
370
9
 62
7
  6
_SOLID
 10
3.8012485974
 20
4.8770992124
 30
0
 11
3.8012485974
 21
4.8686992124
 31
0
  0
LINE
  5
51
100
AcDbEntity
  8
SEMA2D
100
AcDbLine
370
9
 62
7
  6
_SOLID
 10
3.8194160101
 20
4.8770992124
 30
0
 11
3.8194160101
 21
4.8854992124
 31
0
  0
LINE
  5
52
100
AcDbEntity
  8
SEMA2D
100
AcDbLine
370
9
 62
7
  6
_SOLID
 10
3.8194160101
 20
4.8770992124
 30
0
 11
3.8194160101
 21
4.8686992124
 31
0
  0
LINE
  5
53
100
AcDbEntity
  8
SEMA2D
100
AcDbLine
370
9
 62
7
  6
_SOLID
 10
3.8194160101
 20
4.8770992124
 30
0
 11
3.8354160101
 21
4.8770992124
 31
0
  0
MTEXT
  5
54
100
AcDbEntity
  8
SEMATEXT
100
AcDbMText
370
9
 62
7
 10
3.82021787922021
 20
4.89505978918049
 30
0
 40
0.010476
  1
{\fHelveticaNeueLT Com 55 Roman;16}
 50
0
 41
0
  7
STANDARD
 71
0
 73
1
 44
1
  0
LINE
  5
59
100
AcDbEntity
  8
SEMA2D
100
AcDbLine
370
9
 62
7
  6
_SOLID
 10
3.8194160101
 20
4.8770992124
 30
0
 11
3.8194160101
 21
4.8854992124
 31
0
  0
LINE
  5
5A
100
AcDbEntity
  8
SEMA2D
100
AcDbLine
370
9
 62
7
  6
_SOLID
 10
3.8194160101
 20
4.8770992124
 30
0
 11
3.8194160101
 21
4.8686992124
 31
0
  0
LINE
  5
5B
100
AcDbEntity
  8
SEMA2D
100
AcDbLine
370
9
 62
7
  6
_SOLID
 10
3.8354160101
 20
4.8770992124
 30
0
 11
3.8354160101
 21
4.8854992124
 31
0
  0
LINE
  5
5C
100
AcDbEntity
  8
SEMA2D
100
AcDbLine
370
9
 62
7
  6
_SOLID
 10
3.8354160101
 20
4.8770992124
 30
0
 11
3.8354160101
 21
4.8686992124
 31
0
  0
LINE
  5
5D
100
AcDbEntity
  8
SEMA2D
100
AcDbLine
370
9
 62
7
  6
_SOLID
 10
3.7819652289
 20
4.8470992124
 30
0
 11
3.7819652289
 21
4.8228005387
 31
0
  0
MTEXT
  5
5E
100
AcDbEntity
  8
SEMATEXT
100
AcDbMText
370
9
 62
7
 10
3.7838895764122
 20
4.82777607916498
 30
0
 40
0.010476
  1
{\fHelveticaNeueLT Com 55 Roman;24}
 50
90
 41
0
  7
STANDARD
 71
0
 73
1
 44
1
  0
LINE
  5
63
100
AcDbEntity
  8
SEMA2D
100
AcDbLine
370
9
 62
7
  6
_SOLID
 10
3.7819652289
 20
4.8470992124
 30
0
 11
3.7903652289
 21
4.8470992124
 31
0
  0
LINE
  5
64
100
AcDbEntity
  8
SEMA2D
100
AcDbLine
370
9
 62
7
  6
_SOLID
 10
3.7819652289
 20
4.8470992124
 30
0
 11
3.7735652289
 21
4.8470992124
 31
0
  0
LINE
  5
65
100
AcDbEntity
  8
SEMA2D
100
AcDbLine
370
9
 62
7
  6
_SOLID
 10
3.7819652289
 20
4.8228005387
 30
0
 11
3.7903652289
 21
4.8228005387
 31
0
  0
LINE
  5
66
100
AcDbEntity
  8
SEMA2D
100
AcDbLine
370
9
 62
7
  6
_SOLID
 10
3.7819652289
 20
4.8228005387
 30
0
 11
3.7735652289
 21
4.8228005387
 31
0
  0
LINE
  5
67
100
AcDbEntity
  8
SEMA2D
100
AcDbLine
370
9
 62
7
  6
_SOLID
 10
3.9339897779
 20
4.9848772645
 30
0
 11
4.1902570529
 21
4.9848772645
 31
0
  0
MTEXT
  5
68
100
AcDbEntity
  8
SEMATEXT
100
AcDbMText
370
9
 62
7
 10
4.0509636414453
 20
5.00283784128049
 30
0
 40
0.010476
  1
{\fHelveticaNeueLT Com 55 Roman;256}
 50
0
 41
0
  7
STANDARD
 71
0
 73
1
 44
1
  0
LINE
  5
6D
100
AcDbEntity
  8
SEMA2D
100
AcDbLine
370
9
 62
7
  6
_SOLID
 10
3.9339897779
 20
4.9848772645
 30
0
 11
3.9339897779
 21
4.9932772645
 31
0
  0
LINE
  5
6E
100
AcDbEntity
  8
SEMA2D
100
AcDbLine
370
9
 62
7
  6
_SOLID
 10
3.9339897779
 20
4.9848772645
 30
0
 11
3.9339897779
 21
4.9764772645
 31
0
  0
LINE
  5
6F
100
AcDbEntity
  8
SEMA2D
100
AcDbLine
370
9
 62
7
  6
_SOLID
 10
4.1902570529
 20
4.9848772645
 30
0
 11
4.1902570529
 21
4.9932772645
 31
0
  0
LINE
  5
70
100
AcDbEntity
  8
SEMA2D
100
AcDbLine
370
9
 62
7
  6
_SOLID
 10
4.1902570529
 20
4.9848772645
 30
0
 11
4.1902570529
 21
4.9764772645
 31
0
  0
LINE
  5
71
100
AcDbEntity
  8
SEMA2D
100
AcDbLine
370
9
 62
9
  6
_SOLID
 10
3.9653253853
 20
4.8112182439
 30
0
 11
3.9643197763
 21
4.8099990264
 31
0
  0
LINE
  5
72
100
AcDbEntity
  8
SEMA2D
100
AcDbLine
370
9
 62
9
  6
_SOLID
 10
3.9555733906
 20
4.7896198822
 30
0
 11
3.952979449
 21
4.7869755127
 31
0
  0
LINE
  5
73
100
AcDbEntity
  8
SEMA2D
100
AcDbLine
370
9
 62
7
  6
_SOLID
 10
4.0587426414
 20
4.4663164301
 30
0
 11
3.9406090039
 21
4.5087535101
 31
0
  0
ARC
  5
74
100
AcDbEntity
  8
SEMA2D
100
AcDbCircle
370
9
 62
7
  6
_SOLID
 10
4.0621234154
 20
4.4757276132
 30
0
 40
0.0100000000000002
100
AcDbArc
 50
250.240217930605
 51
289.759782069395
  0
ARC
  5
75
100
AcDbEntity
  8
SEMA2D
100
AcDbCircle
370
9
 62
7
  6
_SOLID
 10
3.9439897779
 20
4.5181646932
 30
0
 40
0.0100000000000005
100
AcDbArc
 50
180
 51
250.240217930602
  0
LINE
  5
76
100
AcDbEntity
  8
SEMA2D
100
AcDbLine
370
9
 62
7
  6
_SOLID
 10
4.0590263299
 20
4.4669699625
 30
0
 11
3.9409104132
 21
4.5094006766
 31
0
  0
LINE
  5
77
100
AcDbEntity
  8
SEMA2D
100
AcDbLine
370
9
 62
9
  6
_SOLID
 10
4.1895581421
 20
4.5183606674
 30
0
 11
4.1892279164
 21
4.5183606674
 31
0
  0
LINE
  5
78
100
AcDbEntity
  8
SEMA2D
100
AcDbLine
370
9
 62
9
  6
_SOLID
 10
3.9346886886
 20
4.5183606674
 30
0
 11
3.9350189143
 21
4.5183606674
 31
0
  0
LINE
  5
79
100
AcDbEntity
  8
SEMA2D
100
AcDbLine
370
9
 62
7
  6
_SOLID
 10
3.9339897779
 20
4.5181646932
 30
0
 11
3.9339897779
 21
4.8471424532
 31
0
  0
LINE
  5
7A
100
AcDbEntity
  8
SEMA2D
100
AcDbLine
370
9
 62
7
  6
_SOLID
 10
3.9346886886
 20
4.5183606674
 30
0
 11
3.9346886886
 21
4.8464299532
 31
0
  0
LINE
  5
7B
100
AcDbEntity
  8
SEMA2D
100
AcDbLine
370
9
 62
9
  6
_SOLID
 10
3.9350189143
 20
4.8441959107
 30
0
 11
3.9350189143
 21
4.5183606674
 31
0
  0
LINE
  5
7C
100
AcDbEntity
  8
SEMA2D
100
AcDbLine
370
9
 62
9
  6
_SOLID
 10
3.9396719337
 20
4.7771827219
 30
0
 11
3.9396719337
 21
4.8459517617
 31
0
  0
LINE
  5
7D
100
AcDbEntity
  8
SEMA2D
100
AcDbLine
370
9
 62
9
  6
_SOLID
 10
3.9415547599
 20
4.7692843904
 30
0
 11
3.9415547111
 21
4.5148860309
 31
0
  0
LINE
  5
7E
100
AcDbEntity
  8
SEMA2D
100
AcDbLine
370
9
 62
9
  6
_SOLID
 10
3.9731983495
 20
4.7507794148
 30
0
 11
3.972788838
 21
4.7499093434
 31
0
  0
LINE
  5
7F
100
AcDbEntity
  8
SEMA2D
100
AcDbLine
370
9
 62
9
  6
_SOLID
 10
3.9930280025
 20
4.7656242498
 30
0
 11
3.991886686
 21
4.7644607422
 31
0
  0
LINE
  5
80
100
AcDbEntity
  8
SEMA2D
100
AcDbLine
370
9
 62
9
  6
_SOLID
 10
3.9474165869
 20
4.8006665739
 30
0
 11
3.9474165869
 21
4.8230195705
 31
0
  0
LINE
  5
81
100
AcDbEntity
  8
SEMA2D
100
AcDbLine
370
9
 62
9
  6
_SOLID
 10
3.9490469788
 20
4.80066658
 30
0
 11
3.9490469788
 21
4.8230195623
 31
0
  0
LINE
  5
82
100
AcDbEntity
  8
SEMA2D
100
AcDbLine
370
9
 62
9
  6
_SOLID
 10
3.9510849691
 20
4.80066658
 30
0
 11
3.9510849691
 21
4.8230195623
 31
0
  0
LINE
  5
83
100
AcDbEntity
  8
SEMA2D
100
AcDbLine
370
9
 62
9
  6
_SOLID
 10
3.9875578992
 20
4.7517247372
 30
0
 11
3.9887107606
 21
4.7529000142
 31
0
  0
LINE
  5
84
100
AcDbEntity
  8
SEMA2D
100
AcDbLine
370
9
 62
9
  6
_SOLID
 10
3.999393342
 20
4.759135146
 30
0
 11
3.9982521137
 21
4.7579716491
 31
0
  0
LINE
  5
85
100
AcDbEntity
  8
SEMA2D
100
AcDbLine
370
9
 62
9
  6
_SOLID
 10
4.121541948
 20
4.7915597349
 30
0
 11
4.1213699401
 21
4.7915061481
 31
0
  0
LINE
  5
86
100
AcDbEntity
  8
SEMA2D
100
AcDbLine
370
9
 62
9
  6
_SOLID
 10
3.9576525729
 20
4.8334545802
 30
0
 11
3.9576525818
 21
4.8297148722
 31
0
  0
LINE
  5
87
100
AcDbEntity
  8
SEMA2D
100
AcDbLine
370
9
 62
9
  6
_SOLID
 10
3.96320465
 20
4.7861965312
 30
0
 11
3.9632046484
 21
4.7937643824
 31
0
  0
LINE
  5
88
100
AcDbEntity
  8
SEMA2D
100
AcDbLine
370
9
 62
9
  6
_SOLID
 10
3.9632046496
 20
4.8124499354
 30
0
 11
3.9632046484
 21
4.8146643825
 31
0
  0
LINE
  5
89
100
AcDbEntity
  8
SEMA2D
100
AcDbLine
370
9
 62
9
  6
_SOLID
 10
3.9647780026
 20
4.7861965362
 30
0
 11
3.9647779998
 21
4.793764382
 31
0
  0
LINE
  5
8A
100
AcDbEntity
  8
SEMA2D
100
AcDbLine
370
9
 62
9
  6
_SOLID
 10
3.9647780018
 20
4.8124499302
 30
0
 11
3.9647779998
 21
4.8146643821
 31
0
  0
LINE
  5
8B
100
AcDbEntity
  8
SEMA2D
100
AcDbLine
370
9
 62
9
  6
_SOLID
 10
3.9659308444
 20
4.806514162
 30
0
 11
3.9659308444
 21
4.8068440936
 31
0
  0
LINE
  5
8C
100
AcDbEntity
  8
SEMA2D
100
AcDbLine
370
9
 62
9
  6
_SOLID
 10
3.9671380204
 20
4.7828257811
 30
0
 11
3.9671380269
 21
4.793764382
 31
0
  0
LINE
  5
8D
100
AcDbEntity
  8
SEMA2D
100
AcDbLine
370
9
 62
9
  6
_SOLID
 10
3.9671380241
 20
4.8091618861
 30
0
 11
3.9671380269
 21
4.8146643821
 31
0
  0
LINE
  5
8E
100
AcDbEntity
  8
SEMA2D
100
AcDbLine
370
9
 62
9
  6
_SOLID
 10
3.9714345741
 20
4.5023347958
 30
0
 11
3.9714345694
 21
4.7482037893
 31
0
  0
LINE
  5
8F
100
AcDbEntity
  8
SEMA2D
100
AcDbLine
370
9
 62
9
  6
_SOLID
 10
4.1589142836
 20
4.8266782552
 30
0
 11
4.1593567977
 21
4.8269541577
 31
0
  0
LINE
  5
90
100
AcDbEntity
  8
SEMA2D
100
AcDbLine
370
9
 62
9
  6
_SOLID
 10
3.9659308571
 20
4.806514162
 30
0
 11
3.9671216794
 21
4.7945892111
 31
0
  0
LINE
  5
91
100
AcDbEntity
  8
SEMA2D
100
AcDbLine
370
9
 62
9
  6
_SOLID
 10
3.965996238
 20
4.826759314
 30
0
 11
3.9671216794
 21
4.8154892109
 31
0
  0
LINE
  5
92
100
AcDbEntity
  8
SEMA2D
100
AcDbLine
370
9
 62
9
  6
_SOLID
 10
3.9763922768
 20
4.7945892164
 30
0
 11
3.9763922769
 21
4.7937643582
 31
0
  0
LINE
  5
93
100
AcDbEntity
  8
SEMA2D
100
AcDbLine
370
9
 62
9
  6
_SOLID
 10
3.9777937925
 20
4.8284090473
 30
0
 11
3.9777937925
 21
4.8297148722
 31
0
  0
LINE
  5
94
100
AcDbEntity
  8
SEMA2D
100
AcDbLine
370
9
 62
9
  6
_SOLID
 10
3.9781640371
 20
4.7455901499
 30
0
 11
3.9781640974
 21
4.50088433
 31
0
  0
LINE
  5
95
100
AcDbEntity
  8
SEMA2D
100
AcDbLine
370
9
 62
9
  6
_SOLID
 10
3.9794078578
 20
4.8284090074
 30
0
 11
3.9794078578
 21
4.8297148722
 31
0
  0
LINE
  5
96
100
AcDbEntity
  8
SEMA2D
100
AcDbLine
370
9
 62
9
  6
_SOLID
 10
3.9795798655
 20
4.8301636842
 30
0
 11
3.9795798656
 21
4.8260216172
 31
0
  0
LINE
  5
97
100
AcDbEntity
  8
SEMA2D
100
AcDbLine
370
9
 62
9
  6
_SOLID
 10
3.9811939308
 20
4.8334545808
 30
0
 11
3.9811939308
 21
4.8213981031
 31
0
  0
LINE
  5
98
100
AcDbEntity
  8
SEMA2D
100
AcDbLine
370
9
 62
9
  6
_SOLID
 10
3.9994001469
 20
4.8270892813
 30
0
 11
3.9992935291
 21
4.8260216172
 31
0
  0
LINE
  5
99
100
AcDbEntity
  8
SEMA2D
100
AcDbLine
370
9
 62
9
  6
_SOLID
 10
4.001014208
 20
4.8267593083
 30
0
 11
4.0009075943
 21
4.8256916856
 31
0
  0
LINE
  5
9A
100
AcDbEntity
  8
SEMA2D
100
AcDbLine
370
9
 62
9
  6
_SOLID
 10
3.9779658004
 20
4.8256916856
 30
0
 11
3.9778591867
 21
4.8267593083
 31
0
  0
LINE
  5
9B
100
AcDbEntity
  8
SEMA2D
100
AcDbLine
370
9
 62
9
  6
_SOLID
 10
3.9795798656
 20
4.8260216172
 30
0
 11
3.9794732478
 21
4.8270892813
 31
0
  0
LINE
  5
9C
100
AcDbEntity
  8
SEMA2D
100
AcDbLine
370
9
 62
9
  6
_SOLID
 10
3.9951951155
 20
4.7862742425
 30
0
 11
3.9951951196
 21
4.7828257812
 31
0
  0
LINE
  5
9D
100
AcDbEntity
  8
SEMA2D
100
AcDbLine
370
9
 62
9
  6
_SOLID
 10
3.9987535938
 20
4.7945892141
 30
0
 11
3.9987535937
 21
4.7937643833
 31
0
  0
LINE
  5
9E
100
AcDbEntity
  8
SEMA2D
100
AcDbLine
370
9
 62
9
  6
_SOLID
 10
3.9992935291
 20
4.8260216172
 30
0
 11
3.999293529
 21
4.8301636844
 31
0
  0
LINE
  5
9F
100
AcDbEntity
  8
SEMA2D
100
AcDbLine
370
9
 62
9
  6
_SOLID
 10
3.999465537
 20
4.8297148722
 30
0
 11
3.999465537
 21
4.8284090074
 31
0
  0
LINE
  5
A0
100
AcDbEntity
  8
SEMA2D
100
AcDbLine
370
9
 62
9
  6
_SOLID
 10
4.0010796022
 20
4.8297148722
 30
0
 11
4.0010796022
 21
4.8284090473
 31
0
  0
LINE
  5
A1
100
AcDbEntity
  8
SEMA2D
100
AcDbLine
370
9
 62
9
  6
_SOLID
 10
4.0010908175
 20
4.7937643693
 30
0
 11
4.0010908175
 21
4.7915596423
 31
0
  0
LINE
  5
A2
100
AcDbEntity
  8
SEMA2D
100
AcDbLine
370
9
 62
9
  6
_SOLID
 10
4.0023061738
 20
4.806514162
 30
0
 11
4.0023061738
 21
4.8068441019
 31
0
  0
LINE
  5
A3
100
AcDbEntity
  8
SEMA2D
100
AcDbLine
370
9
 62
9
  6
_SOLID
 10
4.0027048828
 20
4.7937643693
 30
0
 11
4.0027048828
 21
4.791559735
 31
0
  0
LINE
  5
A4
100
AcDbEntity
  8
SEMA2D
100
AcDbLine
370
9
 62
9
  6
_SOLID
 10
4.0028768906
 20
4.7957362012
 30
0
 11
4.0028768906
 21
4.7915061481
 31
0
  0
LINE
  5
A5
100
AcDbEntity
  8
SEMA2D
100
AcDbLine
370
9
 62
9
  6
_SOLID
 10
3.9976794639
 20
4.8334545808
 30
0
 11
3.9976794639
 21
4.8213981031
 31
0
  0
LINE
  5
A6
100
AcDbEntity
  8
SEMA2D
100
AcDbLine
370
9
 62
9
  6
_SOLID
 10
4.0023061897
 20
4.806514162
 30
0
 11
4.0011153403
 21
4.7945892256
 31
0
  0
LINE
  5
A7
100
AcDbEntity
  8
SEMA2D
100
AcDbLine
370
9
 62
9
  6
_SOLID
 10
4.0028768906
 20
4.7957362012
 30
0
 11
4.0027294055
 21
4.794259294
 31
0
  0
LINE
  5
A8
100
AcDbEntity
  8
SEMA2D
100
AcDbLine
370
9
 62
9
  6
_SOLID
 10
3.9409104132
 20
4.5094006766
 30
0
 11
3.9410184722
 21
4.5097132025
 31
0
  0
LINE
  5
A9
100
AcDbEntity
  8
SEMA2D
100
AcDbLine
370
9
 62
9
  6
_SOLID
 10
4.1116512877
 20
4.7832569055
 30
0
 11
4.1144076041
 21
4.7857246648
 31
0
  0
LINE
  5
AA
100
AcDbEntity
  8
SEMA2D
100
AcDbLine
370
9
 62
9
  6
_SOLID
 10
4.0044909558
 20
4.7957362012
 30
0
 11
4.0044909558
 21
4.7915060885
 31
0
  0
LINE
  5
AB
100
AcDbEntity
  8
SEMA2D
100
AcDbLine
370
9
 62
9
  6
_SOLID
 10
4.0063642058
 20
4.4897870439
 30
0
 11
4.006364387
 21
4.7587361032
 31
0
  0
LINE
  5
AC
100
AcDbEntity
  8
SEMA2D
100
AcDbLine
370
9
 62
9
  6
_SOLID
 10
4.0130937288
 20
4.4883365753
 30
0
 11
4.0130938577
 21
4.7668815825
 31
0
  0
LINE
  5
AD
100
AcDbEntity
  8
SEMA2D
100
AcDbLine
370
9
 62
9
  6
_SOLID
 10
4.0180637782
 20
4.7857803252
 30
0
 11
4.0180637681
 21
4.7895200343
 31
0
  0
LINE
  5
AE
100
AcDbEntity
  8
SEMA2D
100
AcDbLine
370
9
 62
9
  6
_SOLID
 10
4.1103448549
 20
4.7715091817
 30
0
 11
4.1092947231
 21
4.7704287588
 31
0
  0
LINE
  5
AF
100
AcDbEntity
  8
SEMA2D
100
AcDbLine
370
9
 62
9
  6
_SOLID
 10
4.0652205008
 20
4.4669699625
 30
0
 11
4.0651596845
 21
4.4671460686
 31
0
  0
LINE
  5
B0
100
AcDbEntity
  8
SEMA2D
100
AcDbLine
370
9
 62
9
  6
_SOLID
 10
4.0263987005
 20
4.7767519188
 30
0
 11
4.0263987005
 21
4.7751064705
 31
0
  0
LINE
  5
B1
100
AcDbEntity
  8
SEMA2D
100
AcDbLine
370
9
 62
9
  6
_SOLID
 10
4.0412938371
 20
4.4772392922
 30
0
 11
4.0412938985
 21
4.7730442162
 31
0
  0
LINE
  5
B2
100
AcDbEntity
  8
SEMA2D
100
AcDbLine
370
9
 62
9
  6
_SOLID
 10
4.047321666
 20
4.7857803265
 30
0
 11
4.0473216539
 21
4.7895200343
 31
0
  0
LINE
  5
B3
100
AcDbEntity
  8
SEMA2D
100
AcDbLine
370
9
 62
9
  6
_SOLID
 10
4.0480233612
 20
4.4757888231
 30
0
 11
4.0480233068
 21
4.7730442022
 31
0
  0
LINE
  5
B4
100
AcDbEntity
  8
SEMA2D
100
AcDbLine
370
9
 62
9
  6
_SOLID
 10
4.1245632116
 20
4.785861244
 30
0
 11
4.1236399592
 21
4.7844165603
 31
0
  0
LINE
  5
B5
100
AcDbEntity
  8
SEMA2D
100
AcDbLine
370
9
 62
9
  6
_SOLID
 10
4.1248534888
 20
4.759135146
 30
0
 11
4.1312188282
 21
4.7656242498
 31
0
  0
LINE
  5
B6
100
AcDbEntity
  8
SEMA2D
100
AcDbLine
370
9
 62
9
  6
_SOLID
 10
4.1259948052
 20
4.7579716384
 30
0
 11
4.1323601446
 21
4.7644607421
 31
0
  0
LINE
  5
B7
100
AcDbEntity
  8
SEMA2D
100
AcDbLine
370
9
 62
9
  6
_SOLID
 10
4.1324180168
 20
4.764465796
 30
0
 11
4.125999037
 21
4.757921893
 31
0
  0
LINE
  5
B8
100
AcDbEntity
  8
SEMA2D
100
AcDbLine
370
9
 62
9
  6
_SOLID
 10
4.1370180584
 20
4.7662463852
 30
0
 11
4.1270441455
 21
4.7560785526
 31
0
  0
LINE
  5
B9
100
AcDbEntity
  8
SEMA2D
100
AcDbLine
370
9
 62
9
  6
_SOLID
 10
4.1686734401
 20
4.7896198822
 30
0
 11
4.1324372963
 21
4.7526792169
 31
0
  0
LINE
  5
BA
100
AcDbEntity
  8
SEMA2D
100
AcDbLine
370
9
 62
9
  6
_SOLID
 10
4.1701145168
 20
4.7881507859
 30
0
 11
4.1355360701
 21
4.7529000142
 31
0
  0
LINE
  5
BB
100
AcDbEntity
  8
SEMA2D
100
AcDbLine
370
9
 62
9
  6
_SOLID
 10
4.1712673822
 20
4.7869755134
 30
0
 11
4.1366889315
 21
4.7517247372
 31
0
  0
LINE
  5
BC
100
AcDbEntity
  8
SEMA2D
100
AcDbLine
370
9
 62
9
  6
_SOLID
 10
3.9924532808
 20
4.7515484775
 30
0
 11
3.991809513
 21
4.7526792039
 31
0
  0
LINE
  5
BD
100
AcDbEntity
  8
SEMA2D
100
AcDbLine
370
9
 62
9
  6
_SOLID
 10
3.988316139
 20
4.7502721614
 30
0
 11
3.9875578992
 21
4.7517247372
 31
0
  0
LINE
  5
BE
100
AcDbEntity
  8
SEMA2D
100
AcDbLine
370
9
 62
9
  6
_SOLID
 10
3.9861213787
 20
4.7509589175
 30
0
 11
3.9868590191
 21
4.7494953526
 31
0
  0
LINE
  5
BF
100
AcDbEntity
  8
SEMA2D
100
AcDbLine
370
9
 62
9
  6
_SOLID
 10
4.0503865399
 20
4.7951299532
 30
0
 11
4.0503865399
 21
4.7926445123
 31
0
  0
LINE
  5
C0
100
AcDbEntity
  8
SEMA2D
100
AcDbLine
370
9
 62
9
  6
_SOLID
 10
4.0524245302
 20
4.7951299532
 30
0
 11
4.0524245301
 21
4.7926445122
 31
0
  0
LINE
  5
C1
100
AcDbEntity
  8
SEMA2D
100
AcDbLine
370
9
 62
9
  6
_SOLID
 10
4.0540549224
 20
4.7951299532
 30
0
 11
4.0540549219
 21
4.7926445003
 31
0
  0
LINE
  5
C2
100
AcDbEntity
  8
SEMA2D
100
AcDbLine
370
9
 62
9
  6
_SOLID
 10
4.1264770552
 20
4.7551992612
 30
0
 11
4.1270441502
 21
4.7560785496
 31
0
  0
LINE
  5
C3
100
AcDbEntity
  8
SEMA2D
100
AcDbLine
370
9
 62
9
  6
_SOLID
 10
4.1312188282
 20
4.7656242498
 30
0
 11
4.1321361741
 21
4.7669982899
 31
0
  0
LINE
  5
C4
100
AcDbEntity
  8
SEMA2D
100
AcDbLine
370
9
 62
9
  6
_SOLID
 10
4.1239796678
 20
4.757867435
 30
0
 11
4.1248534888
 21
4.759135146
 31
0
  0
LINE
  5
C5
100
AcDbEntity
  8
SEMA2D
100
AcDbLine
370
9
 62
9
  6
_SOLID
 10
3.9977698047
 20
4.7551992155
 30
0
 11
3.9972026805
 21
4.7560785496
 31
0
  0
LINE
  5
C6
100
AcDbEntity
  8
SEMA2D
100
AcDbLine
370
9
 62
9
  6
_SOLID
 10
4.0701919091
 20
4.7926445
 30
0
 11
4.0701919083
 21
4.7951299532
 31
0
  0
LINE
  5
C7
100
AcDbEntity
  8
SEMA2D
100
AcDbLine
370
9
 62
9
  6
_SOLID
 10
4.0718223007
 20
4.7926445123
 30
0
 11
4.0718223005
 21
4.7951299532
 31
0
  0
LINE
  5
C8
100
AcDbEntity
  8
SEMA2D
100
AcDbLine
370
9
 62
9
  6
_SOLID
 10
4.0738602908
 20
4.7926445123
 30
0
 11
4.0738602908
 21
4.7951299532
 31
0
  0
LINE
  5
C9
100
AcDbEntity
  8
SEMA2D
100
AcDbLine
370
9
 62
9
  6
_SOLID
 10
4.0762234701
 20
4.4757888263
 30
0
 11
4.0762235299
 21
4.7730442162
 31
0
  0
LINE
  5
CA
100
AcDbEntity
  8
SEMA2D
100
AcDbLine
370
9
 62
9
  6
_SOLID
 10
4.0769251768
 20
4.7895200343
 30
0
 11
4.076925165
 21
4.7857803262
 31
0
  0
LINE
  5
CB
100
AcDbEntity
  8
SEMA2D
100
AcDbLine
370
9
 62
9
  6
_SOLID
 10
4.1317934097
 20
4.7515482307
 30
0
 11
4.1324373177
 21
4.7526792039
 31
0
  0
LINE
  5
CC
100
AcDbEntity
  8
SEMA2D
100
AcDbLine
370
9
 62
9
  6
_SOLID
 10
3.9875578992
 20
4.7517247372
 30
0
 11
3.952979449
 21
4.7869755127
 31
0
  0
LINE
  5
CD
100
AcDbEntity
  8
SEMA2D
100
AcDbLine
370
9
 62
9
  6
_SOLID
 10
3.9887107606
 20
4.7529000142
 30
0
 11
3.9541323139
 21
4.7881507859
 31
0
  0
LINE
  5
CE
100
AcDbEntity
  8
SEMA2D
100
AcDbLine
370
9
 62
9
  6
_SOLID
 10
3.9918095345
 20
4.752679217
 30
0
 11
3.9555733906
 21
4.7896198822
 31
0
  0
LINE
  5
CF
100
AcDbEntity
  8
SEMA2D
100
AcDbLine
370
9
 62
9
  6
_SOLID
 10
3.999393342
 20
4.759135146
 30
0
 11
4.0002671629
 21
4.757867435
 31
0
  0
LINE
  5
D0
100
AcDbEntity
  8
SEMA2D
100
AcDbLine
370
9
 62
9
  6
_SOLID
 10
3.9930280028
 20
4.7656242501
 30
0
 11
3.9921106895
 21
4.7669982289
 31
0
  0
LINE
  5
D1
100
AcDbEntity
  8
SEMA2D
100
AcDbLine
370
9
 62
9
  6
_SOLID
 10
3.9996836202
 20
4.7858612435
 30
0
 11
4.0006068715
 21
4.7844165603
 31
0
  0
LINE
  5
D2
100
AcDbEntity
  8
SEMA2D
100
AcDbLine
370
9
 62
9
  6
_SOLID
 10
4.0829529945
 20
4.4772392955
 30
0
 11
4.0829529381
 21
4.7730442022
 31
0
  0
LINE
  5
D3
100
AcDbEntity
  8
SEMA2D
100
AcDbLine
370
9
 62
9
  6
_SOLID
 10
4.138125452
 20
4.7509589175
 30
0
 11
4.1373878116
 21
4.7494953527
 31
0
  0
LINE
  5
D4
100
AcDbEntity
  8
SEMA2D
100
AcDbLine
370
9
 62
9
  6
_SOLID
 10
4.1366889315
 20
4.7517247372
 30
0
 11
4.1359306917
 21
4.7502721614
 31
0
  0
LINE
  5
D5
100
AcDbEntity
  8
SEMA2D
100
AcDbLine
370
9
 62
9
  6
_SOLID
 10
3.9972026851
 20
4.7560785526
 30
0
 11
3.9872287723
 21
4.7662463852
 31
0
  0
LINE
  5
D6
100
AcDbEntity
  8
SEMA2D
100
AcDbLine
370
9
 62
9
  6
_SOLID
 10
3.9982477937
 20
4.757921893
 30
0
 11
3.9918288137
 21
4.764465796
 31
0
  0
LINE
  5
D7
100
AcDbEntity
  8
SEMA2D
100
AcDbLine
370
9
 62
9
  6
_SOLID
 10
3.9918866861
 20
4.7644607421
 30
0
 11
3.9982520255
 21
4.7579716384
 31
0
  0
LINE
  5
D8
100
AcDbEntity
  8
SEMA2D
100
AcDbLine
370
9
 62
9
  6
_SOLID
 10
3.9930280025
 20
4.7656242498
 30
0
 11
3.999393342
 21
4.759135146
 31
0
  0
LINE
  5
D9
100
AcDbEntity
  8
SEMA2D
100
AcDbLine
370
9
 62
9
  6
_SOLID
 10
4.0978481302
 20
4.7767519188
 30
0
 11
4.0978481302
 21
4.7751064697
 31
0
  0
LINE
  5
DA
100
AcDbEntity
  8
SEMA2D
100
AcDbLine
370
9
 62
9
  6
_SOLID
 10
4.1061830626
 20
4.7895200343
 30
0
 11
4.1061830521
 21
4.785780325
 31
0
  0
LINE
  5
DB
100
AcDbEntity
  8
SEMA2D
100
AcDbLine
370
9
 62
9
  6
_SOLID
 10
4.0139019759
 20
4.7715091817
 30
0
 11
4.014952079
 21
4.7704287882
 31
0
  0
LINE
  5
DC
100
AcDbEntity
  8
SEMA2D
100
AcDbLine
370
9
 62
9
  6
_SOLID
 10
4.1111531026
 20
4.4883365784
 30
0
 11
4.1111529467
 21
4.7668816104
 31
0
  0
LINE
  5
DD
100
AcDbEntity
  8
SEMA2D
100
AcDbLine
370
9
 62
9
  6
_SOLID
 10
4.1178826258
 20
4.4897870473
 30
0
 11
4.1178824697
 21
4.7587359473
 31
0
  0
LINE
  5
DE
100
AcDbEntity
  8
SEMA2D
100
AcDbLine
370
9
 62
9
  6
_SOLID
 10
4.1197558749
 20
4.7915060885
 30
0
 11
4.1197558749
 21
4.7957362012
 31
0
  0
LINE
  5
DF
100
AcDbEntity
  8
SEMA2D
100
AcDbLine
370
9
 62
9
  6
_SOLID
 10
4.1213699401
 20
4.7915061481
 30
0
 11
4.1213699401
 21
4.7957362012
 31
0
  0
LINE
  5
E0
100
AcDbEntity
  8
SEMA2D
100
AcDbLine
370
9
 62
9
  6
_SOLID
 10
4.121541948
 20
4.7915597349
 30
0
 11
4.121541948
 21
4.7937643656
 31
0
  0
LINE
  5
E1
100
AcDbEntity
  8
SEMA2D
100
AcDbLine
370
9
 62
9
  6
_SOLID
 10
4.1219406569
 20
4.806514162
 30
0
 11
4.1219406569
 21
4.8068440936
 31
0
  0
LINE
  5
E2
100
AcDbEntity
  8
SEMA2D
100
AcDbLine
370
9
 62
9
  6
_SOLID
 10
4.1231560132
 20
4.7915596423
 30
0
 11
4.1231560132
 21
4.7937643656
 31
0
  0
LINE
  5
E3
100
AcDbEntity
  8
SEMA2D
100
AcDbLine
370
9
 62
9
  6
_SOLID
 10
4.1231672285
 20
4.8284090473
 30
0
 11
4.1231672285
 21
4.8297148722
 31
0
  0
LINE
  5
E4
100
AcDbEntity
  8
SEMA2D
100
AcDbLine
370
9
 62
9
  6
_SOLID
 10
4.1247812938
 20
4.8284090074
 30
0
 11
4.1247812938
 21
4.8297148722
 31
0
  0
LINE
  5
E5
100
AcDbEntity
  8
SEMA2D
100
AcDbLine
370
9
 62
9
  6
_SOLID
 10
4.1249533015
 20
4.8301636842
 30
0
 11
4.1249533016
 21
4.8260216172
 31
0
  0
LINE
  5
E6
100
AcDbEntity
  8
SEMA2D
100
AcDbLine
370
9
 62
9
  6
_SOLID
 10
4.0590263299
 20
4.4669699625
 30
0
 11
4.0590871523
 21
4.4671460664
 31
0
  0
LINE
  5
E7
100
AcDbEntity
  8
SEMA2D
100
AcDbLine
370
9
 62
9
  6
_SOLID
 10
4.0098392266
 20
4.7857246648
 30
0
 11
4.0125955426
 21
4.7832569047
 31
0
  0
LINE
  5
E8
100
AcDbEntity
  8
SEMA2D
100
AcDbLine
370
9
 62
9
  6
_SOLID
 10
4.1215174249
 20
4.7942592974
 30
0
 11
4.1213699401
 21
4.7957362012
 31
0
  0
LINE
  5
E9
100
AcDbEntity
  8
SEMA2D
100
AcDbLine
370
9
 62
9
  6
_SOLID
 10
4.1231314901
 20
4.7945892289
 30
0
 11
4.1219406403
 21
4.806514162
 31
0
  0
LINE
  5
EA
100
AcDbEntity
  8
SEMA2D
100
AcDbLine
370
9
 62
9
  6
_SOLID
 10
4.1233392364
 20
4.8256916856
 30
0
 11
4.1232326227
 21
4.8267593083
 31
0
  0
LINE
  5
EB
100
AcDbEntity
  8
SEMA2D
100
AcDbLine
370
9
 62
9
  6
_SOLID
 10
4.1254932369
 20
4.7937643832
 30
0
 11
4.1254932368
 21
4.7945892142
 31
0
  0
LINE
  5
EC
100
AcDbEntity
  8
SEMA2D
100
AcDbLine
370
9
 62
9
  6
_SOLID
 10
4.1265673668
 20
4.8334545808
 30
0
 11
4.1265673668
 21
4.8213981031
 31
0
  0
LINE
  5
ED
100
AcDbEntity
  8
SEMA2D
100
AcDbLine
370
9
 62
9
  6
_SOLID
 10
4.1290517111
 20
4.7828257812
 30
0
 11
4.1290517152
 21
4.7862742425
 31
0
  0
LINE
  5
EE
100
AcDbEntity
  8
SEMA2D
100
AcDbLine
370
9
 62
9
  6
_SOLID
 10
4.1447735829
 20
4.8270892813
 30
0
 11
4.1446669651
 21
4.8260216172
 31
0
  0
LINE
  5
EF
100
AcDbEntity
  8
SEMA2D
100
AcDbLine
370
9
 62
9
  6
_SOLID
 10
4.146387644
 20
4.8267593083
 30
0
 11
4.1462810303
 21
4.8256916856
 31
0
  0
LINE
  5
F0
100
AcDbEntity
  8
SEMA2D
100
AcDbLine
370
9
 62
9
  6
_SOLID
 10
4.1833364175
 20
4.5094006766
 30
0
 11
4.1832283622
 21
4.5097132039
 31
0
  0
LINE
  5
F1
100
AcDbEntity
  8
SEMA2D
100
AcDbLine
370
9
 62
9
  6
_SOLID
 10
4.1249533016
 20
4.8260216172
 30
0
 11
4.1248466838
 21
4.8270892813
 31
0
  0
LINE
  5
F2
100
AcDbEntity
  8
SEMA2D
100
AcDbLine
370
9
 62
9
  6
_SOLID
 10
4.1446669651
 20
4.8260216172
 30
0
 11
4.144666965
 21
4.8301636844
 31
0
  0
LINE
  5
F3
100
AcDbEntity
  8
SEMA2D
100
AcDbLine
370
9
 62
9
  6
_SOLID
 10
4.144838973
 20
4.8297148722
 30
0
 11
4.144838973
 21
4.8284090074
 31
0
  0
LINE
  5
F4
100
AcDbEntity
  8
SEMA2D
100
AcDbLine
370
9
 62
9
  6
_SOLID
 10
4.1460827967
 20
4.7455901374
 30
0
 11
4.146082734
 21
4.5008843274
 31
0
  0
LINE
  5
F5
100
AcDbEntity
  8
SEMA2D
100
AcDbLine
370
9
 62
9
  6
_SOLID
 10
4.1464530382
 20
4.8297148722
 30
0
 11
4.1464530382
 21
4.8284090473
 31
0
  0
LINE
  5
F6
100
AcDbEntity
  8
SEMA2D
100
AcDbLine
370
9
 62
9
  6
_SOLID
 10
4.1478545537
 20
4.7937643583
 30
0
 11
4.1478545538
 21
4.7945892161
 31
0
  0
LINE
  5
F7
100
AcDbEntity
  8
SEMA2D
100
AcDbLine
370
9
 62
9
  6
_SOLID
 10
4.1528122574
 20
4.5023347991
 30
0
 11
4.1528122588
 21
4.7482037901
 31
0
  0
LINE
  5
F8
100
AcDbEntity
  8
SEMA2D
100
AcDbLine
370
9
 62
9
  6
_SOLID
 10
4.1430528999
 20
4.8334545808
 30
0
 11
4.1430528999
 21
4.8213981031
 31
0
  0
LINE
  5
F9
100
AcDbEntity
  8
SEMA2D
100
AcDbLine
370
9
 62
9
  6
_SOLID
 10
4.1571251513
 20
4.7945892111
 30
0
 11
4.1583159612
 21
4.806514162
 31
0
  0
LINE
  5
FA
100
AcDbEntity
  8
SEMA2D
100
AcDbLine
370
9
 62
9
  6
_SOLID
 10
4.1571251513
 20
4.8154892109
 30
0
 11
4.1582505927
 21
4.8267593139
 31
0
  0
LINE
  5
FB
100
AcDbEntity
  8
SEMA2D
100
AcDbLine
370
9
 62
9
  6
_SOLID
 10
3.96533255
 20
4.8266782583
 30
0
 11
3.9648900944
 21
4.8269541194
 31
0
  0
LINE
  5
FC
100
AcDbEntity
  8
SEMA2D
100
AcDbLine
370
9
 62
9
  6
_SOLID
 10
4.1571088038
 20
4.8146643821
 30
0
 11
4.1571088066
 21
4.8091618861
 31
0
  0
LINE
  5
FD
100
AcDbEntity
  8
SEMA2D
100
AcDbLine
370
9
 62
9
  6
_SOLID
 10
4.1571088038
 20
4.7937643819
 30
0
 11
4.1571088103
 21
4.7828257811
 31
0
  0
LINE
  5
FE
100
AcDbEntity
  8
SEMA2D
100
AcDbLine
370
9
 62
9
  6
_SOLID
 10
4.1583159863
 20
4.806514162
 30
0
 11
4.1583159863
 21
4.8068441149
 31
0
  0
LINE
  5
FF
100
AcDbEntity
  8
SEMA2D
100
AcDbLine
370
9
 62
9
  6
_SOLID
 10
4.1594688309
 20
4.8146643821
 30
0
 11
4.159468829
 21
4.8124499302
 31
0
  0
LINE
  5
100
100
AcDbEntity
  8
SEMA2D
100
AcDbLine
370
9
 62
9
  6
_SOLID
 10
4.1594688309
 20
4.7937643819
 30
0
 11
4.1594688282
 21
4.7861965362
 31
0
  0
LINE
  5
101
100
AcDbEntity
  8
SEMA2D
100
AcDbLine
370
9
 62
9
  6
_SOLID
 10
4.1610421823
 20
4.8146643825
 30
0
 11
4.1610421811
 21
4.8124499354
 31
0
  0
LINE
  5
102
100
AcDbEntity
  8
SEMA2D
100
AcDbLine
370
9
 62
9
  6
_SOLID
 10
4.1610421823
 20
4.7937643823
 30
0
 11
4.1610421807
 21
4.7861965312
 31
0
  0
LINE
  5
103
100
AcDbEntity
  8
SEMA2D
100
AcDbLine
370
9
 62
9
  6
_SOLID
 10
4.1665942489
 20
4.8297148722
 30
0
 11
4.166594257
 21
4.8334545804
 31
0
  0
LINE
  5
104
100
AcDbEntity
  8
SEMA2D
100
AcDbLine
370
9
 62
9
  6
_SOLID
 10
4.1731618616
 20
4.8230195623
 30
0
 11
4.1731618616
 21
4.80066658
 31
0
  0
LINE
  5
105
100
AcDbEntity
  8
SEMA2D
100
AcDbLine
370
9
 62
9
  6
_SOLID
 10
4.1751998518
 20
4.8230195623
 30
0
 11
4.1751998519
 21
4.80066658
 31
0
  0
LINE
  5
106
100
AcDbEntity
  8
SEMA2D
100
AcDbLine
370
9
 62
9
  6
_SOLID
 10
4.1768302436
 20
4.8230195714
 30
0
 11
4.1768302439
 21
4.8006665748
 31
0
  0
LINE
  5
107
100
AcDbEntity
  8
SEMA2D
100
AcDbLine
370
9
 62
9
  6
_SOLID
 10
4.1826921069
 20
4.5148860276
 30
0
 11
4.1826920621
 21
4.7692843546
 31
0
  0
LINE
  5
108
100
AcDbEntity
  8
SEMA2D
100
AcDbLine
370
9
 62
9
  6
_SOLID
 10
4.184574897
 20
4.7771827224
 30
0
 11
4.184574897
 21
4.8459517617
 31
0
  0
LINE
  5
109
100
AcDbEntity
  8
SEMA2D
100
AcDbLine
370
9
 62
9
  6
_SOLID
 10
4.0263987706
 20
4.7751064705
 30
0
 11
4.0352539154
 21
4.7751064705
 31
0
  0
LINE
  5
10A
100
AcDbEntity
  8
SEMA2D
100
AcDbLine
370
9
 62
9
  6
_SOLID
 10
4.054063284
 20
4.7751064705
 30
0
 11
4.0701835467
 21
4.7751064705
 31
0
  0
LINE
  5
10B
100
AcDbEntity
  8
SEMA2D
100
AcDbLine
370
9
 62
9
  6
_SOLID
 10
4.0889929153
 20
4.7751064705
 30
0
 11
4.0978480528
 21
4.7751064705
 31
0
  0
LINE
  5
10C
100
AcDbEntity
  8
SEMA2D
100
AcDbLine
370
9
 62
9
  6
_SOLID
 10
4.0263987005
 20
4.7767519188
 30
0
 11
4.0978481302
 21
4.7767519188
 31
0
  0
LINE
  5
10D
100
AcDbEntity
  8
SEMA2D
100
AcDbLine
370
9
 62
9
  6
_SOLID
 10
4.0028768906
 20
4.7915061481
 30
0
 11
4.0027048828
 21
4.791559735
 31
0
  0
LINE
  5
10E
100
AcDbEntity
  8
SEMA2D
100
AcDbLine
370
9
 62
9
  6
_SOLID
 10
4.1248534888
 20
4.759135146
 30
0
 11
4.1259948052
 21
4.7579716384
 31
0
  0
LINE
  5
10F
100
AcDbEntity
  8
SEMA2D
100
AcDbLine
370
9
 62
9
  6
_SOLID
 10
4.1366889318
 20
4.7517247377
 30
0
 11
4.1355361105
 21
4.7528999704
 31
0
  0
LINE
  5
110
100
AcDbEntity
  8
SEMA2D
100
AcDbLine
370
9
 62
9
  6
_SOLID
 10
4.1510482759
 20
4.750779321
 30
0
 11
4.1514577711
 21
4.74990927
 31
0
  0
LINE
  5
111
100
AcDbEntity
  8
SEMA2D
100
AcDbLine
370
9
 62
9
  6
_SOLID
 10
4.1892279164
 20
4.8441959107
 30
0
 11
4.1892279164
 21
4.5183606674
 31
0
  0
LINE
  5
112
100
AcDbEntity
  8
SEMA2D
100
AcDbLine
370
9
 62
7
  6
_SOLID
 10
4.1895581421
 20
4.8464299532
 30
0
 11
4.1895581421
 21
4.5183606674
 31
0
  0
LINE
  5
113
100
AcDbEntity
  8
SEMA2D
100
AcDbLine
370
9
 62
7
  6
_SOLID
 10
4.1902570529
 20
4.8471424532
 30
0
 11
4.1902570529
 21
4.5181646932
 31
0
  0
ARC
  5
114
100
AcDbEntity
  8
SEMA2D
100
AcDbCircle
370
9
 62
7
  6
_SOLID
 10
4.1802570529
 20
4.5181646932
 30
0
 40
0.0100000000000002
100
AcDbArc
 50
289.759782069395
 51
0
  0
LINE
  5
115
100
AcDbEntity
  8
SEMA2D
100
AcDbLine
370
9
 62
9
  6
_SOLID
 10
4.1594741361
 20
4.7941229728
 30
0
 11
4.1610401259
 21
4.794142078
 31
0
  0
LINE
  5
116
100
AcDbEntity
  8
SEMA2D
100
AcDbLine
370
9
 62
9
  6
_SOLID
 10
4.1571088103
 20
4.7828257811
 30
0
 11
4.1290517111
 21
4.7828257812
 31
0
  0
LINE
  5
117
100
AcDbEntity
  8
SEMA2D
100
AcDbLine
370
9
 62
9
  6
_SOLID
 10
3.9951951196
 20
4.7828257812
 30
0
 11
3.9671380204
 21
4.7828257811
 31
0
  0
LINE
  5
118
100
AcDbEntity
  8
SEMA2D
100
AcDbLine
370
9
 62
9
  6
_SOLID
 10
4.1571088038
 20
4.7845500118
 30
0
 11
4.1290517152
 21
4.7845500118
 31
0
  0
LINE
  5
119
100
AcDbEntity
  8
SEMA2D
100
AcDbLine
370
9
 62
9
  6
_SOLID
 10
3.9951951155
 20
4.7845500118
 30
0
 11
3.9671380269
 21
4.7845500118
 31
0
  0
LINE
  5
11A
100
AcDbEntity
  8
SEMA2D
100
AcDbLine
370
9
 62
9
  6
_SOLID
 10
4.1061830521
 20
4.785780325
 30
0
 11
4.076925165
 21
4.7857803262
 31
0
  0
LINE
  5
11B
100
AcDbEntity
  8
SEMA2D
100
AcDbLine
370
9
 62
9
  6
_SOLID
 10
4.047321666
 20
4.7857803265
 30
0
 11
4.0180637782
 21
4.7857803252
 31
0
  0
LINE
  5
11C
100
AcDbEntity
  8
SEMA2D
100
AcDbLine
370
9
 62
9
  6
_SOLID
 10
3.9647780026
 20
4.7861965317
 30
0
 11
3.96320465
 21
4.7861965312
 31
0
  0
LINE
  5
11D
100
AcDbEntity
  8
SEMA2D
100
AcDbLine
370
9
 62
9
  6
_SOLID
 10
4.1594688282
 20
4.7861965317
 30
0
 11
4.1610421807
 21
4.7861965312
 31
0
  0
LINE
  5
11E
100
AcDbEntity
  8
SEMA2D
100
AcDbLine
370
9
 62
9
  6
_SOLID
 10
4.1571088038
 20
4.7862742425
 30
0
 11
4.1290517152
 21
4.7862742425
 31
0
  0
LINE
  5
11F
100
AcDbEntity
  8
SEMA2D
100
AcDbLine
370
9
 62
9
  6
_SOLID
 10
3.9951951155
 20
4.7862742425
 30
0
 11
3.9671380269
 21
4.7862742425
 31
0
  0
LINE
  5
120
100
AcDbEntity
  8
SEMA2D
100
AcDbLine
370
9
 62
9
  6
_SOLID
 10
4.1061830626
 20
4.7874424183
 30
0
 11
4.0769251767
 21
4.7874424185
 31
0
  0
LINE
  5
121
100
AcDbEntity
  8
SEMA2D
100
AcDbLine
370
9
 62
9
  6
_SOLID
 10
4.0473216539
 20
4.7874424186
 30
0
 11
4.0180637681
 21
4.7874424183
 31
0
  0
LINE
  5
122
100
AcDbEntity
  8
SEMA2D
100
AcDbLine
370
9
 62
9
  6
_SOLID
 10
4.1061830626
 20
4.7895200343
 30
0
 11
4.0769251768
 21
4.7895200343
 31
0
  0
LINE
  5
123
100
AcDbEntity
  8
SEMA2D
100
AcDbLine
370
9
 62
9
  6
_SOLID
 10
4.0473216539
 20
4.7895200343
 30
0
 11
4.0180637681
 21
4.7895200343
 31
0
  0
LINE
  5
124
100
AcDbEntity
  8
SEMA2D
100
AcDbLine
370
9
 62
9
  6
_SOLID
 10
4.1213699401
 20
4.7915060885
 30
0
 11
4.1197558749
 21
4.7915060885
 31
0
  0
LINE
  5
125
100
AcDbEntity
  8
SEMA2D
100
AcDbLine
370
9
 62
9
  6
_SOLID
 10
4.0028768906
 20
4.7915060885
 30
0
 11
4.0044909558
 21
4.7915060885
 31
0
  0
LINE
  5
126
100
AcDbEntity
  8
SEMA2D
100
AcDbLine
370
9
 62
9
  6
_SOLID
 10
4.0027048828
 20
4.7915596423
 30
0
 11
4.0010908175
 21
4.7915596423
 31
0
  0
LINE
  5
127
100
AcDbEntity
  8
SEMA2D
100
AcDbLine
370
9
 62
9
  6
_SOLID
 10
4.121541948
 20
4.7915596423
 30
0
 11
4.1231560132
 21
4.7915596423
 31
0
  0
LINE
  5
128
100
AcDbEntity
  8
SEMA2D
100
AcDbLine
370
9
 62
9
  6
_SOLID
 10
4.0738602908
 20
4.7926445123
 30
0
 11
4.0701919091
 21
4.7926445
 31
0
  0
LINE
  5
129
100
AcDbEntity
  8
SEMA2D
100
AcDbLine
370
9
 62
9
  6
_SOLID
 10
4.0503865399
 20
4.7926445123
 30
0
 11
4.0540549219
 21
4.7926445003
 31
0
  0
LINE
  5
12A
100
AcDbEntity
  8
SEMA2D
100
AcDbLine
370
9
 62
9
  6
_SOLID
 10
4.121541948
 20
4.7937643656
 30
0
 11
4.1231560132
 21
4.7937643656
 31
0
  0
LINE
  5
12B
100
AcDbEntity
  8
SEMA2D
100
AcDbLine
370
9
 62
9
  6
_SOLID
 10
4.0027048828
 20
4.7937643693
 30
0
 11
4.0010908175
 21
4.7937643693
 31
0
  0
LINE
  5
12C
100
AcDbEntity
  8
SEMA2D
100
AcDbLine
370
9
 62
9
  6
_SOLID
 10
3.9671380269
 20
4.793764382
 30
0
 11
3.9632046484
 21
4.7937643824
 31
0
  0
LINE
  5
12D
100
AcDbEntity
  8
SEMA2D
100
AcDbLine
370
9
 62
9
  6
_SOLID
 10
4.1571088038
 20
4.7937643819
 30
0
 11
4.1610421823
 21
4.7937643823
 31
0
  0
LINE
  5
12E
100
AcDbEntity
  8
SEMA2D
100
AcDbLine
370
9
 62
9
  6
_SOLID
 10
4.0503865399
 20
4.7951299532
 30
0
 11
4.0540549224
 21
4.7951299532
 31
0
  0
LINE
  5
12F
100
AcDbEntity
  8
SEMA2D
100
AcDbLine
370
9
 62
9
  6
_SOLID
 10
4.0701919083
 20
4.7951299532
 30
0
 11
4.0738602908
 21
4.7951299532
 31
0
  0
LINE
  5
130
100
AcDbEntity
  8
SEMA2D
100
AcDbLine
370
9
 62
9
  6
_SOLID
 10
4.1213699401
 20
4.7957362012
 30
0
 11
4.1197558749
 21
4.7957362012
 31
0
  0
LINE
  5
131
100
AcDbEntity
  8
SEMA2D
100
AcDbLine
370
9
 62
9
  6
_SOLID
 10
4.0028768906
 20
4.7957362012
 30
0
 11
4.0044909558
 21
4.7957362012
 31
0
  0
LINE
  5
132
100
AcDbEntity
  8
SEMA2D
100
AcDbLine
370
9
 62
9
  6
_SOLID
 10
3.9647726947
 20
4.7941229723
 30
0
 11
3.963206705
 21
4.7941420779
 31
0
  0
LINE
  5
133
100
AcDbEntity
  8
SEMA2D
100
AcDbLine
370
9
 62
9
  6
_SOLID
 10
4.1323601447
 20
4.7644607422
 30
0
 11
4.1312188282
 21
4.7656242498
 31
0
  0
LINE
  5
134
100
AcDbEntity
  8
SEMA2D
100
AcDbLine
370
9
 62
9
  6
_SOLID
 10
3.9474165869
 20
4.8006665739
 30
0
 11
3.9510849691
 21
4.80066658
 31
0
  0
LINE
  5
135
100
AcDbEntity
  8
SEMA2D
100
AcDbLine
370
9
 62
9
  6
_SOLID
 10
4.1768302439
 20
4.8006665748
 30
0
 11
4.1731618616
 21
4.80066658
 31
0
  0
LINE
  5
136
100
AcDbEntity
  8
SEMA2D
100
AcDbLine
370
9
 62
9
  6
_SOLID
 10
3.9659308571
 20
4.806514162
 30
0
 11
4.0023061897
 21
4.806514162
 31
0
  0
LINE
  5
137
100
AcDbEntity
  8
SEMA2D
100
AcDbLine
370
9
 62
9
  6
_SOLID
 10
4.1219406403
 20
4.806514162
 30
0
 11
4.1583159612
 21
4.806514162
 31
0
  0
LINE
  5
138
100
AcDbEntity
  8
SEMA2D
100
AcDbLine
370
9
 62
9
  6
_SOLID
 10
3.9659308444
 20
4.8068440936
 30
0
 11
4.0023061738
 21
4.8068440936
 31
0
  0
LINE
  5
139
100
AcDbEntity
  8
SEMA2D
100
AcDbLine
370
9
 62
9
  6
_SOLID
 10
4.1219406569
 20
4.8068440936
 30
0
 11
4.1583159863
 21
4.8068440936
 31
0
  0
LINE
  5
13A
100
AcDbEntity
  8
SEMA2D
100
AcDbLine
370
9
 62
9
  6
_SOLID
 10
4.1571088066
 20
4.8091618861
 30
0
 11
3.9671380241
 21
4.8091618861
 31
0
  0
LINE
  5
13B
100
AcDbEntity
  8
SEMA2D
100
AcDbLine
370
9
 62
9
  6
_SOLID
 10
4.1571088038
 20
4.8108861168
 30
0
 11
3.9671380269
 21
4.8108861168
 31
0
  0
LINE
  5
13C
100
AcDbEntity
  8
SEMA2D
100
AcDbLine
370
9
 62
9
  6
_SOLID
 10
4.1594741361
 20
4.8150229726
 30
0
 11
4.1610401259
 21
4.8150420778
 31
0
  0
LINE
  5
13D
100
AcDbEntity
  8
SEMA2D
100
AcDbLine
370
9
 62
9
  6
_SOLID
 10
3.9647780018
 20
4.812449936
 30
0
 11
3.9632046496
 21
4.8124499354
 31
0
  0
LINE
  5
13E
100
AcDbEntity
  8
SEMA2D
100
AcDbLine
370
9
 62
9
  6
_SOLID
 10
4.159468829
 20
4.812449936
 30
0
 11
4.1610421811
 21
4.8124499354
 31
0
  0
LINE
  5
13F
100
AcDbEntity
  8
SEMA2D
100
AcDbLine
370
9
 62
9
  6
_SOLID
 10
4.1571088038
 20
4.8126103476
 30
0
 11
3.9671380269
 21
4.8126103476
 31
0
  0
LINE
  5
140
100
AcDbEntity
  8
SEMA2D
100
AcDbLine
370
9
 62
9
  6
_SOLID
 10
3.9632046484
 20
4.8146643825
 30
0
 11
4.1610421823
 21
4.8146643825
 31
0
  0
LINE
  5
141
100
AcDbEntity
  8
SEMA2D
100
AcDbLine
370
9
 62
9
  6
_SOLID
 10
4.1571251513
 20
4.8154892109
 30
0
 11
3.9671216794
 21
4.8154892109
 31
0
  0
LINE
  5
142
100
AcDbEntity
  8
SEMA2D
100
AcDbLine
370
9
 62
9
  6
_SOLID
 10
4.1430528999
 20
4.8213981031
 30
0
 11
4.1265673668
 21
4.8213981031
 31
0
  0
LINE
  5
143
100
AcDbEntity
  8
SEMA2D
100
AcDbLine
370
9
 62
9
  6
_SOLID
 10
3.9976794639
 20
4.8213981031
 30
0
 11
3.9811939308
 21
4.8213981031
 31
0
  0
LINE
  5
144
100
AcDbEntity
  8
SEMA2D
100
AcDbLine
370
9
 62
9
  6
_SOLID
 10
3.9510849691
 20
4.8230195623
 30
0
 11
3.9474165869
 21
4.8230195705
 31
0
  0
LINE
  5
145
100
AcDbEntity
  8
SEMA2D
100
AcDbLine
370
9
 62
9
  6
_SOLID
 10
4.1731618616
 20
4.8230195623
 30
0
 11
4.1768302436
 21
4.8230195714
 31
0
  0
LINE
  5
146
100
AcDbEntity
  8
SEMA2D
100
AcDbLine
370
9
 62
9
  6
_SOLID
 10
4.1430528999
 20
4.8230863384
 30
0
 11
4.1265673668
 21
4.8230863384
 31
0
  0
LINE
  5
147
100
AcDbEntity
  8
SEMA2D
100
AcDbLine
370
9
 62
9
  6
_SOLID
 10
3.9976794639
 20
4.8230863384
 30
0
 11
3.9811939308
 21
4.8230863384
 31
0
  0
LINE
  5
148
100
AcDbEntity
  8
SEMA2D
100
AcDbLine
370
9
 62
9
  6
_SOLID
 10
3.9992066925
 20
4.8244446414
 30
0
 11
3.9796667022
 21
4.8244446414
 31
0
  0
LINE
  5
149
100
AcDbEntity
  8
SEMA2D
100
AcDbLine
370
9
 62
9
  6
_SOLID
 10
4.1250401382
 20
4.8244446414
 30
0
 11
4.1445801285
 21
4.8244446414
 31
0
  0
LINE
  5
14A
100
AcDbEntity
  8
SEMA2D
100
AcDbLine
370
9
 62
9
  6
_SOLID
 10
4.1582505927
 20
4.8267593139
 30
0
 11
4.146387644
 21
4.8267593083
 31
0
  0
LINE
  5
14B
100
AcDbEntity
  8
SEMA2D
100
AcDbLine
370
9
 62
9
  6
_SOLID
 10
3.9778591867
 20
4.8267593083
 30
0
 11
3.965996238
 21
4.826759314
 31
0
  0
LINE
  5
14C
100
AcDbEntity
  8
SEMA2D
100
AcDbLine
370
9
 62
9
  6
_SOLID
 10
4.1232326227
 20
4.8267593083
 30
0
 11
4.001014208
 21
4.8267593083
 31
0
  0
LINE
  5
14D
100
AcDbEntity
  8
SEMA2D
100
AcDbLine
370
9
 62
9
  6
_SOLID
 10
3.9647726946
 20
4.8150229721
 30
0
 11
3.963206705
 21
4.8150420778
 31
0
  0
LINE
  5
14E
100
AcDbEntity
  8
SEMA2D
100
AcDbLine
370
9
 62
9
  6
_SOLID
 10
4.1712673822
 20
4.7869755134
 30
0
 11
4.1686734401
 21
4.7896198822
 31
0
  0
LINE
  5
14F
100
AcDbEntity
  8
SEMA2D
100
AcDbLine
370
9
 62
7
  6
_SOLID
 10
4.1833364175
 20
4.5094006766
 30
0
 11
4.0652205008
 21
4.4669699625
 31
0
  0
LINE
  5
150
100
AcDbEntity
  8
SEMA2D
100
AcDbLine
370
9
 62
7
  6
_SOLID
 10
4.1836378268
 20
4.5087535101
 30
0
 11
4.0655041893
 21
4.4663164301
 31
0
  0
LINE
  5
151
100
AcDbEntity
  8
SEMA2D
100
AcDbLine
370
9
 62
9
  6
_SOLID
 10
3.9648183019
 20
4.8120382422
 30
0
 11
3.963305617
 21
4.81163903
 31
0
  0
LINE
  5
152
100
AcDbEntity
  8
SEMA2D
100
AcDbLine
370
9
 62
9
  6
_SOLID
 10
3.9794078578
 20
4.8284090074
 30
0
 11
3.9658900156
 21
4.8284090875
 31
0
  0
LINE
  5
153
100
AcDbEntity
  8
SEMA2D
100
AcDbLine
370
9
 62
9
  6
_SOLID
 10
4.144838973
 20
4.8284090074
 30
0
 11
4.1583568151
 21
4.8284090874
 31
0
  0
LINE
  5
154
100
AcDbEntity
  8
SEMA2D
100
AcDbLine
370
9
 62
9
  6
_SOLID
 10
4.1247812938
 20
4.8284090074
 30
0
 11
3.999465537
 21
4.8284090074
 31
0
  0
LINE
  5
155
100
AcDbEntity
  8
SEMA2D
100
AcDbLine
370
9
 62
9
  6
_SOLID
 10
3.9576525818
 20
4.8297148722
 30
0
 11
3.9794078578
 21
4.8297148722
 31
0
  0
LINE
  5
156
100
AcDbEntity
  8
SEMA2D
100
AcDbLine
370
9
 62
9
  6
_SOLID
 10
3.999465537
 20
4.8297148722
 30
0
 11
4.1247812938
 21
4.8297148722
 31
0
  0
LINE
  5
157
100
AcDbEntity
  8
SEMA2D
100
AcDbLine
370
9
 62
9
  6
_SOLID
 10
4.144838973
 20
4.8297148722
 30
0
 11
4.1665942489
 21
4.8297148722
 31
0
  0
LINE
  5
158
100
AcDbEntity
  8
SEMA2D
100
AcDbLine
370
9
 62
9
  6
_SOLID
 10
3.9576525818
 20
4.831792488
 30
0
 11
3.9779324649
 21
4.8317924881
 31
0
  0
LINE
  5
159
100
AcDbEntity
  8
SEMA2D
100
AcDbLine
370
9
 62
9
  6
_SOLID
 10
4.0009409298
 20
4.8317924881
 30
0
 11
4.1233059009
 21
4.8317924881
 31
0
  0
LINE
  5
15A
100
AcDbEntity
  8
SEMA2D
100
AcDbLine
370
9
 62
9
  6
_SOLID
 10
4.1463143658
 20
4.8317924881
 30
0
 11
4.1665942489
 21
4.831792488
 31
0
  0
LINE
  5
15B
100
AcDbEntity
  8
SEMA2D
100
AcDbLine
370
9
 62
9
  6
_SOLID
 10
3.9576525729
 20
4.8334545802
 30
0
 11
3.9811939308
 21
4.8334545808
 31
0
  0
LINE
  5
15C
100
AcDbEntity
  8
SEMA2D
100
AcDbLine
370
9
 62
9
  6
_SOLID
 10
3.9976794639
 20
4.8334545808
 30
0
 11
4.1265673668
 21
4.8334545808
 31
0
  0
LINE
  5
15D
100
AcDbEntity
  8
SEMA2D
100
AcDbLine
370
9
 62
9
  6
_SOLID
 10
4.1430528999
 20
4.8334545808
 30
0
 11
4.166594257
 21
4.8334545804
 31
0
  0
LINE
  5
15E
100
AcDbEntity
  8
SEMA2D
100
AcDbLine
370
9
 62
9
  6
_SOLID
 10
4.1594285253
 20
4.8120382462
 30
0
 11
4.1609412138
 21
4.811639031
 31
0
  0
LINE
  5
15F
100
AcDbEntity
  8
SEMA2D
100
AcDbLine
370
9
 62
9
  6
_SOLID
 10
4.1589214475
 20
4.8112182412
 30
0
 11
4.1599270495
 21
4.8099990295
 31
0
  0
LINE
  5
160
100
AcDbEntity
  8
SEMA2D
100
AcDbLine
370
9
 62
9
  6
_SOLID
 10
4.184574897
 20
4.8440543656
 30
0
 11
3.9396719337
 21
4.8440543656
 31
0
  0
LINE
  5
161
100
AcDbEntity
  8
SEMA2D
100
AcDbLine
370
9
 62
9
  6
_SOLID
 10
4.184574897
 20
4.8459517617
 30
0
 11
3.9396719337
 21
4.8459517617
 31
0
  0
LINE
  5
162
100
AcDbEntity
  8
SEMA2D
100
AcDbLine
370
9
 62
7
  6
_SOLID
 10
3.9346886886
 20
4.8464299532
 30
0
 11
4.1895581421
 21
4.8464299532
 31
0
  0
LINE
  5
163
100
AcDbEntity
  8
SEMA2D
100
AcDbLine
370
9
 62
7
  6
_SOLID
 10
3.9339897779
 20
4.8471424532
 30
0
 11
4.1902570529
 21
4.8471424532
 31
0
  0
ARC
  5
164
100
AcDbEntity
  8
SEMA2D
100
AcDbCircle
370
9
 62
9
  6
_SOLID
 10
3.9948696105
 20
4.8334793694
 30
0
 40
0.1499828841
100
AcDbArc
 50
356.54650356299
 51
357.149848090983
  0
ARC
  5
165
100
AcDbEntity
  8
SEMA2D
100
AcDbCircle
370
9
 62
9
  6
_SOLID
 10
3.8494961745
 20
4.8334793694
 30
0
 40
0.1499828841
100
AcDbArc
 50
356.54650356299
 51
357.149848090983
  0
ARC
  5
166
100
AcDbEntity
  8
SEMA2D
100
AcDbCircle
370
9
 62
9
  6
_SOLID
 10
4.0422058902
 20
4.8451216396
 30
0
 40
0.1229996308
100
AcDbArc
 50
213.528422984627
 51
217.295462393857
  0
ARC
  5
167
100
AcDbEntity
  8
SEMA2D
100
AcDbCircle
370
9
 62
9
  6
_SOLID
 10
4.0047419705
 20
4.365261469
 30
0
 40
0.1144302787
100
AcDbArc
 50
69.1660645825643
 51
71.3143712365741
  0
ARC
  5
168
100
AcDbEntity
  8
SEMA2D
100
AcDbCircle
370
9
 62
9
  6
_SOLID
 10
3.9348827079
 20
4.3903569725
 30
0
 40
0.1144302787
100
AcDbArc
 50
69.1660645825643
 51
71.3143712365739
  0
ARC
  5
169
100
AcDbEntity
  8
SEMA2D
100
AcDbCircle
370
9
 62
9
  6
_SOLID
 10
3.9698123393
 20
4.3778092209
 30
0
 40
0.1144302785
100
AcDbArc
 50
69.1660645825642
 51
71.3143712365737
  0
ARC
  5
16A
100
AcDbEntity
  8
SEMA2D
100
AcDbCircle
370
9
 62
9
  6
_SOLID
 10
4.01781011
 20
4.8417976823
 30
0
 40
0.1030045628
100
AcDbArc
 50
229.806573353347
 51
240.421031147595
  0
ARC
  5
16B
100
AcDbEntity
  8
SEMA2D
100
AcDbCircle
370
9
 62
9
  6
_SOLID
 10
4.0179600696
 20
4.8421042466
 30
0
 40
0.101704653400001
100
AcDbArc
 50
219.667691910819
 51
243.888893497262
  0
ARC
  5
16C
100
AcDbEntity
  8
SEMA2D
100
AcDbCircle
370
9
 62
9
  6
_SOLID
 10
3.9290489776
 20
4.8328074648
 30
0
 40
0.0722100762
100
AcDbArc
 50
353.08588188128
 51
354.344738569051
  0
ARC
  5
16D
100
AcDbEntity
  8
SEMA2D
100
AcDbCircle
370
9
 62
9
  6
_SOLID
 10
4.0498243224
 20
4.8328074543
 30
0
 40
0.0722099809000003
100
AcDbArc
 50
185.655260602001
 51
186.914118950195
  0
ARC
  5
16E
100
AcDbEntity
  8
SEMA2D
100
AcDbCircle
370
9
 62
9
  6
_SOLID
 10
4.0272385333
 20
4.843136832
 30
0
 40
0.0718702071999999
100
AcDbArc
 50
269.45750443019
 51
277.086079848744
  0
ARC
  5
16F
100
AcDbEntity
  8
SEMA2D
100
AcDbCircle
370
9
 62
9
  6
_SOLID
 10
4.0272310115
 20
4.8334636905
 30
0
 40
0.0589061290999999
100
AcDbArc
 50
269.40449364981
 51
277.827906606385
  0
ARC
  5
170
100
AcDbEntity
  8
SEMA2D
100
AcDbCircle
370
9
 62
9
  6
_SOLID
 10
3.9688001046
 20
4.7933371645
 30
0
 40
0.0509627073000003
100
AcDbArc
 50
291.995262353714
 51
295.480339079678
  0
ARC
  5
171
100
AcDbEntity
  8
SEMA2D
100
AcDbCircle
370
9
 62
9
  6
_SOLID
 10
3.9694819363
 20
4.7879932519
 30
0
 40
0.0426676775999999
100
AcDbArc
 50
293.998932902329
 51
297.726397793612
  0
ARC
  5
172
100
AcDbEntity
  8
SEMA2D
100
AcDbCircle
370
9
 62
9
  6
_SOLID
 10
3.9994812968
 20
4.7937557132
 30
0
 40
0.0362766493999997
100
AcDbArc
 50
179.389759436436
 51
179.98630787274
  0
ARC
  5
173
100
AcDbEntity
  8
SEMA2D
100
AcDbCircle
370
9
 62
9
  6
_SOLID
 10
3.9994812197
 20
4.8146557138
 30
0
 40
0.0362765723
100
AcDbArc
 50
179.389759281685
 51
179.986308611856
  0
ARC
  5
174
100
AcDbEntity
  8
SEMA2D
100
AcDbCircle
370
9
 62
9
  6
_SOLID
 10
3.9802774986
 20
4.8284074482
 30
0
 40
0.0208021041999999
100
AcDbArc
 50
355.455722300725
 51
0.00440434376463141
  0
ARC
  5
175
100
AcDbEntity
  8
SEMA2D
100
AcDbCircle
370
9
 62
9
  6
_SOLID
 10
3.9984560679
 20
4.8284019057
 30
0
 40
0.0206622770999996
100
AcDbArc
 50
179.980196400967
 51
184.55967695185
  0
ARC
  5
176
100
AcDbEntity
  8
SEMA2D
100
AcDbCircle
370
9
 62
9
  6
_SOLID
 10
3.9467017882
 20
4.7937719267
 30
0
 40
0.0204362401999998
100
AcDbArc
 50
-0.0211526167895118
 51
2.29197913992559
  0
ARC
  5
177
100
AcDbEntity
  8
SEMA2D
100
AcDbCircle
370
9
 62
9
  6
_SOLID
 10
3.9467109576
 20
4.8146721086
 30
0
 40
0.0204270708000003
100
AcDbArc
 50
-0.0216720087966888
 51
2.29249756018074
  0
ARC
  5
178
100
AcDbEntity
  8
SEMA2D
100
AcDbCircle
370
9
 62
9
  6
_SOLID
 10
3.984608024
 20
4.821425313
 30
0
 40
0.0199784216999996
100
AcDbArc
 50
159.539621405826
 51
164.755961935078
  0
ARC
  5
179
100
AcDbEntity
  8
SEMA2D
100
AcDbCircle
370
9
 62
9
  6
_SOLID
 10
4.0276272775
 20
4.7565426815
 30
0
 40
0.0188011865999997
100
AcDbArc
 50
125.091169954281
 51
132.389739660935
  0
ARC
  5
17A
100
AcDbEntity
  8
SEMA2D
100
AcDbCircle
370
9
 62
9
  6
_SOLID
 10
3.9675466865
 20
4.8113098477
 30
0
 40
0.0155270825
100
AcDbArc
 50
95.7308023756863
 51
98.1982133490865
  0
ARC
  5
17B
100
AcDbEntity
  8
SEMA2D
100
AcDbCircle
370
9
 62
9
  6
_SOLID
 10
4.0148449161
 20
4.7937682566
 30
0
 40
0.0137540991000002
100
AcDbArc
 50
176.578035889422
 51
180.016193219899
  0
ARC
  5
17C
100
AcDbEntity
  8
SEMA2D
100
AcDbCircle
370
9
 62
9
  6
_SOLID
 10
3.9861366297
 20
4.8284079492
 30
0
 40
0.0133289071
100
AcDbArc
 50
354.322273100509
 51
0.00454902133947409
  0
ARC
  5
17D
100
AcDbEntity
  8
SEMA2D
100
AcDbCircle
370
9
 62
9
  6
_SOLID
 10
3.9926677105
 20
4.8284045276
 30
0
 40
0.0132598533000001
100
AcDbArc
 50
179.980642855436
 51
185.692535058754
  0
ARC
  5
17E
100
AcDbEntity
  8
SEMA2D
100
AcDbCircle
370
9
 62
9
  6
_SOLID
 10
3.9787346498
 20
4.8284081159
 30
0
 40
0.0128446739000001
100
AcDbArc
 50
179.995666089937
 51
187.375100349878
  0
ARC
  5
17F
100
AcDbEntity
  8
SEMA2D
100
AcDbCircle
370
9
 62
9
  6
_SOLID
 10
3.9520864713
 20
4.8146559538
 30
0
 40
0.0126915311000002
100
AcDbArc
 50
0.0380494195053798
 51
1.65713199335684
  0
ARC
  5
180
100
AcDbEntity
  8
SEMA2D
100
AcDbCircle
370
9
 62
9
  6
_SOLID
 10
3.9520865615
 20
4.7937559548
 30
0
 40
0.0126914409000001
100
AcDbArc
 50
0.0380448644915848
 51
1.65714000102529
  0
ARC
  5
181
100
AcDbEntity
  8
SEMA2D
100
AcDbCircle
370
9
 62
9
  6
_SOLID
 10
3.9997042859
 20
4.759138427
 30
0
 40
0.00506367539999975
100
AcDbArc
 50
301.282310044013
 51
311.261098244947
  0
ARC
  5
182
100
AcDbEntity
  8
SEMA2D
100
AcDbCircle
370
9
 62
9
  6
_SOLID
 10
4.0076891908
 20
4.7937654758
 30
0
 40
0.00498430790000004
100
AcDbArc
 50
174.314117371335
 51
180.012718843821
  0
ARC
  5
183
100
AcDbEntity
  8
SEMA2D
100
AcDbCircle
370
9
 62
9
  6
_SOLID
 10
3.9665083055
 20
4.8124495424
 30
0
 40
0.00330365599999993
100
AcDbArc
 50
179.993184420637
 51
194.201808541121
  0
ARC
  5
184
100
AcDbEntity
  8
SEMA2D
100
AcDbCircle
370
9
 62
9
  6
_SOLID
 10
3.9991891625
 20
4.7589774151
 30
0
 40
0.00154729890000027
100
AcDbArc
 50
303.938728659924
 51
314.162622163014
  0
ARC
  5
185
100
AcDbEntity
  8
SEMA2D
100
AcDbCircle
370
9
 62
9
  6
_SOLID
 10
3.872050611
 20
5.3285815987
 30
0
 40
0.8760005942
100
AcDbArc
 50
288.685893120551
 51
290.807265537817
  0
ARC
  5
186
100
AcDbEntity
  8
SEMA2D
100
AcDbCircle
370
9
 62
9
  6
_SOLID
 10
3.8023549462
 20
5.3030144945
 30
0
 40
0.8755014385
100
AcDbArc
 50
288.685638991429
 51
290.833925149824
  0
ARC
  5
187
100
AcDbEntity
  8
SEMA2D
100
AcDbCircle
370
9
 62
9
  6
_SOLID
 10
3.8372845776
 20
5.3155622462
 30
0
 40
0.8755014385
100
AcDbArc
 50
288.685638991429
 51
290.833925149825
  0
ARC
  5
188
100
AcDbEntity
  8
SEMA2D
100
AcDbCircle
370
9
 62
9
  6
_SOLID
 10
3.7708508067
 20
5.2812429305
 30
0
 40
0.8656624147
100
AcDbArc
 50
289.875723838734
 51
290.839155789135
  0
ARC
  5
189
100
AcDbEntity
  8
SEMA2D
100
AcDbCircle
370
9
 62
9
  6
_SOLID
 10
3.8904503883
 20
5.2104341833
 30
0
 40
0.7551413698
100
AcDbArc
 50
290.330453859747
 51
292.602436743563
  0
ARC
  5
18A
100
AcDbEntity
  8
SEMA2D
100
AcDbCircle
370
9
 62
9
  6
_SOLID
 10
3.8207320352
 20
5.1849674126
 30
0
 40
0.754744274199999
100
AcDbArc
 50
290.330215416606
 51
292.630952054309
  0
ARC
  5
18B
100
AcDbEntity
  8
SEMA2D
100
AcDbCircle
370
9
 62
9
  6
_SOLID
 10
3.8556616665
 20
5.1975151643
 30
0
 40
0.7547442741
100
AcDbArc
 50
290.330215416606
 51
292.630952059597
  0
ARC
  5
18C
100
AcDbEntity
  8
SEMA2D
100
AcDbCircle
370
9
 62
9
  6
_SOLID
 10
3.7885384856
 20
5.1656981206
 30
0
 40
0.7474874505
100
AcDbArc
 50
291.604844666874
 51
292.635627536371
  0
ARC
  5
18D
100
AcDbEntity
  8
SEMA2D
100
AcDbCircle
370
9
 62
9
  6
_SOLID
 10
3.9550380989
 20
4.9915726975
 30
0
 40
0.2276141287
100
AcDbArc
 50
278.130401439956
 51
279.361437458484
  0
ARC
  5
18E
100
AcDbEntity
  8
SEMA2D
100
AcDbCircle
370
9
 62
9
  6
_SOLID
 10
3.9340272047
 20
4.8503305158
 30
0
 40
0.1134661792
100
AcDbArc
 50
300.613696658821
 51
303.833271339124
  0
ARC
  5
18F
100
AcDbEntity
  8
SEMA2D
100
AcDbCircle
370
9
 62
9
  6
_SOLID
 10
3.934241949
 20
4.8499492104
 30
0
 40
0.1133998836
100
AcDbArc
 50
297.645231396437
 51
298.479555831807
  0
ARC
  5
190
100
AcDbEntity
  8
SEMA2D
100
AcDbCircle
370
9
 62
9
  6
_SOLID
 10
3.9335522278
 20
4.8510270123
 30
0
 40
0.1130449795
100
AcDbArc
 50
305.621841760198
 51
315.298152583992
  0
ARC
  5
191
100
AcDbEntity
  8
SEMA2D
100
AcDbCircle
370
9
 62
9
  6
_SOLID
 10
3.934248265
 20
4.8499924512
 30
0
 40
0.1117965148
100
AcDbArc
 50
297.645251511859
 51
298.479560590172
  0
ARC
  5
192
100
AcDbEntity
  8
SEMA2D
100
AcDbCircle
370
9
 62
9
  6
_SOLID
 10
3.9334237882
 20
4.8514427139
 30
0
 40
0.1044867021
100
AcDbArc
 50
304.781460980652
 51
319.263683256769
  0
ARC
  5
193
100
AcDbEntity
  8
SEMA2D
100
AcDbCircle
370
9
 62
9
  6
_SOLID
 10
3.9333921062
 20
4.851527761
 30
0
 40
0.1029222429
100
AcDbArc
 50
304.785826951486
 51
319.256928155954
  0
ARC
  5
194
100
AcDbEntity
  8
SEMA2D
100
AcDbCircle
370
9
 62
9
  6
_SOLID
 10
3.9335257476
 20
4.8514473285
 30
0
 40
0.1007135324
100
AcDbArc
 50
302.22364970795
 51
319.264324264682
  0
ARC
  5
195
100
AcDbEntity
  8
SEMA2D
100
AcDbCircle
370
9
 62
9
  6
_SOLID
 10
4.2747504625
 20
4.8334793585
 30
0
 40
0.14998269
100
AcDbArc
 50
182.850151426903
 51
183.453496741162
  0
ARC
  5
196
100
AcDbEntity
  8
SEMA2D
100
AcDbCircle
370
9
 62
9
  6
_SOLID
 10
4.1293770265
 20
4.8334793585
 30
0
 40
0.14998269
100
AcDbArc
 50
182.850151426903
 51
183.453496741162
  0
ARC
  5
197
100
AcDbEntity
  8
SEMA2D
100
AcDbCircle
370
9
 62
9
  6
_SOLID
 10
4.0806233349
 20
4.8461295184
 30
0
 40
0.1247380803
100
AcDbArc
 50
322.730799157581
 51
326.445319724398
  0
ARC
  5
198
100
AcDbEntity
  8
SEMA2D
100
AcDbCircle
370
9
 62
9
  6
_SOLID
 10
4.1195048602
 20
4.3652614686
 30
0
 40
0.1144302791
100
AcDbArc
 50
108.685628701808
 51
110.833935345025
  0
ARC
  5
199
100
AcDbEntity
  8
SEMA2D
100
AcDbCircle
370
9
 62
9
  6
_SOLID
 10
4.1893641228
 20
4.3903569721
 30
0
 40
0.1144302791
100
AcDbArc
 50
108.685628701808
 51
110.833935345025
  0
ARC
  5
19A
100
AcDbEntity
  8
SEMA2D
100
AcDbCircle
370
9
 62
9
  6
_SOLID
 10
4.1544344914
 20
4.3778092205
 30
0
 40
0.1144302789
100
AcDbArc
 50
108.685628701808
 51
110.83393535038
  0
ARC
  5
19B
100
AcDbEntity
  8
SEMA2D
100
AcDbCircle
370
9
 62
9
  6
_SOLID
 10
4.1064367234
 20
4.8417976786
 30
0
 40
0.1030045583
100
AcDbArc
 50
299.57896858804
 51
310.193426841795
  0
ARC
  5
19C
100
AcDbEntity
  8
SEMA2D
100
AcDbCircle
370
9
 62
9
  6
_SOLID
 10
4.1062867623
 20
4.8421042453
 30
0
 40
0.1017046517
100
AcDbArc
 50
296.111070395572
 51
320.332308463312
  0
ARC
  5
19D
100
AcDbEntity
  8
SEMA2D
100
AcDbCircle
370
9
 62
9
  6
_SOLID
 10
4.0621234154
 20
4.8439231135
 30
0
 40
0.0726560222999995
100
AcDbArc
 50
262.955390927673
 51
277.044609072327
  0
ARC
  5
19E
100
AcDbEntity
  8
SEMA2D
100
AcDbCircle
370
9
 62
9
  6
_SOLID
 10
4.0970470778
 20
4.8438152182
 30
0
 40
0.0725482097999999
100
AcDbArc
 50
262.949618765374
 51
270.506796957093
  0
ARC
  5
19F
100
AcDbEntity
  8
SEMA2D
100
AcDbCircle
370
9
 62
9
  6
_SOLID
 10
4.0744224136
 20
4.8328074648
 30
0
 40
0.0722100761999998
100
AcDbArc
 50
353.08588188128
 51
354.344738569051
  0
ARC
  5
1A0
100
AcDbEntity
  8
SEMA2D
100
AcDbCircle
370
9
 62
9
  6
_SOLID
 10
4.1951977584
 20
4.8328074543
 30
0
 40
0.0722099809000003
100
AcDbArc
 50
185.655260602001
 51
186.914118950195
  0
ARC
  5
1A1
100
AcDbEntity
  8
SEMA2D
100
AcDbCircle
370
9
 62
9
  6
_SOLID
 10
4.0621234154
 20
4.8340552553
 30
0
 40
0.0594972675000003
100
AcDbArc
 50
262.214166311243
 51
277.78583370011
  0
ARC
  5
1A2
100
AcDbEntity
  8
SEMA2D
100
AcDbCircle
370
9
 62
9
  6
_SOLID
 10
4.0970480901
 20
4.8339743165
 30
0
 40
0.0594164040000003
100
AcDbArc
 50
262.208328334982
 51
270.559272257378
  0
ARC
  5
1A3
100
AcDbEntity
  8
SEMA2D
100
AcDbCircle
370
9
 62
9
  6
_SOLID
 10
4.1557447165
 20
4.7940147907
 30
0
 40
0.0517026235999998
100
AcDbArc
 50
244.54460593711
 51
247.979792671914
  0
ARC
  5
1A4
100
AcDbEntity
  8
SEMA2D
100
AcDbCircle
370
9
 62
9
  6
_SOLID
 10
4.154556782
 20
4.787563948
 30
0
 40
0.0421908451999999
100
AcDbArc
 50
242.252530689045
 51
246.022142880973
  0
ARC
  5
1A5
100
AcDbEntity
  8
SEMA2D
100
AcDbCircle
370
9
 62
9
  6
_SOLID
 10
4.1247655868
 20
4.7937557137
 30
0
 40
0.0362765964999996
100
AcDbArc
 50
0.0136912964715438
 51
0.610240884464216
  0
ARC
  5
1A6
100
AcDbEntity
  8
SEMA2D
100
AcDbCircle
370
9
 62
9
  6
_SOLID
 10
4.1247656189
 20
4.8146557139
 30
0
 40
0.0362765643999996
100
AcDbArc
 50
0.0136913251185778
 51
0.610240798525309
  0
ARC
  5
1A7
100
AcDbEntity
  8
SEMA2D
100
AcDbCircle
370
9
 62
9
  6
_SOLID
 10
4.1256509341
 20
4.8284074483
 30
0
 40
0.0208021047
100
AcDbArc
 50
355.455722324025
 51
0.00440434949327262
  0
ARC
  5
1A8
100
AcDbEntity
  8
SEMA2D
100
AcDbCircle
370
9
 62
9
  6
_SOLID
 10
4.1438295036
 20
4.8284019056
 30
0
 40
0.0206622768
100
AcDbArc
 50
179.980196423884
 51
184.55967695185
  0
ARC
  5
1A9
100
AcDbEntity
  8
SEMA2D
100
AcDbCircle
370
9
 62
9
  6
_SOLID
 10
4.1396386527
 20
4.8214252634
 30
0
 40
0.0199785832999999
100
AcDbArc
 50
15.2440592766785
 51
20.4603576306317
  0
ARC
  5
1AA
100
AcDbEntity
  8
SEMA2D
100
AcDbCircle
370
9
 62
9
  6
_SOLID
 10
4.0966196556
 20
4.7565428053
 30
0
 40
0.0188010261999998
100
AcDbArc
 50
47.6102365729076
 51
54.9088619850933
  0
ARC
  5
1AB
100
AcDbEntity
  8
SEMA2D
100
AcDbCircle
370
9
 62
9
  6
_SOLID
 10
4.1566737889
 20
4.8110940962
 30
0
 40
0.0157443880999999
100
AcDbArc
 50
81.8188169473819
 51
84.252167319524
  0
ARC
  5
1AC
100
AcDbEntity
  8
SEMA2D
100
AcDbCircle
370
9
 62
9
  6
_SOLID
 10
4.1092889641
 20
4.7937648963
 30
0
 40
0.0138670490999999
100
AcDbArc
 50
-0.00219302461096215
 51
3.40798104914957
  0
ARC
  5
1AD
100
AcDbEntity
  8
SEMA2D
100
AcDbCircle
370
9
 62
9
  6
_SOLID
 10
4.131510066
 20
4.8284079491
 30
0
 40
0.0133289068
100
AcDbArc
 50
354.322273025821
 51
0.0045491072804513
  0
ARC
  5
1AE
100
AcDbEntity
  8
SEMA2D
100
AcDbCircle
370
9
 62
9
  6
_SOLID
 10
4.1380411466
 20
4.8284045276
 30
0
 40
0.0132598535000001
100
AcDbArc
 50
179.980642895541
 51
185.69253502455
  0
ARC
  5
1AF
100
AcDbEntity
  8
SEMA2D
100
AcDbCircle
370
9
 62
9
  6
_SOLID
 10
4.1455567877
 20
4.8284052427
 30
0
 40
0.0128000675999997
100
AcDbArc
 50
352.612023516449
 51
0.0172096642601948
  0
ARC
  5
1B0
100
AcDbEntity
  8
SEMA2D
100
AcDbCircle
370
9
 62
9
  6
_SOLID
 10
4.1721603742
 20
4.7937559536
 30
0
 40
0.0126915458999997
100
AcDbArc
 50
178.342867937749
 51
179.961950471636
  0
ARC
  5
1B1
100
AcDbEntity
  8
SEMA2D
100
AcDbCircle
370
9
 62
9
  6
_SOLID
 10
4.1721603608
 20
4.8146559538
 30
0
 40
0.0126915326000003
100
AcDbArc
 50
178.342868063913
 51
179.961950488824
  0
ARC
  5
1B2
100
AcDbEntity
  8
SEMA2D
100
AcDbCircle
370
9
 62
9
  6
_SOLID
 10
4.1245425443
 20
4.7591384263
 30
0
 40
0.00506367459999968
100
AcDbArc
 50
228.738900878115
 51
238.717690832475
  0
ARC
  5
1B3
100
AcDbEntity
  8
SEMA2D
100
AcDbCircle
370
9
 62
9
  6
_SOLID
 10
4.1165575688
 20
4.79376547
 30
0
 40
0.00498437899999971
100
AcDbArc
 50
-0.0126957822718908
 51
5.68590620175349
  0
ARC
  5
1B4
100
AcDbEntity
  8
SEMA2D
100
AcDbCircle
370
9
 62
9
  6
_SOLID
 10
4.1577385254
 20
4.8124495424
 30
0
 40
0.00330365579999992
100
AcDbArc
 50
345.798206872694
 51
0.00681602627075613
  0
ARC
  5
1B5
100
AcDbEntity
  8
SEMA2D
100
AcDbCircle
370
9
 62
9
  6
_SOLID
 10
4.1572695874
 20
4.8128064624
 30
0
 40
0.00229139899999975
100
AcDbArc
 50
316.124523863716
 51
340.412775748906
  0
ARC
  5
1B6
100
AcDbEntity
  8
SEMA2D
100
AcDbCircle
370
9
 62
9
  6
_SOLID
 10
4.1250576669
 20
4.7589774137
 30
0
 40
0.00154729700000011
100
AcDbArc
 50
225.837376852424
 51
236.061278189128
  0
ARC
  5
1B7
100
AcDbEntity
  8
SEMA2D
100
AcDbCircle
370
9
 62
9
  6
_SOLID
 10
4.2521962144
 20
5.3285815834
 30
0
 40
0.876000578
100
AcDbArc
 50
249.192734690881
 51
251.31410689214
  0
ARC
  5
1B8
100
AcDbEntity
  8
SEMA2D
100
AcDbCircle
370
9
 62
9
  6
_SOLID
 10
4.3218918845
 20
5.3030144946
 30
0
 40
0.8755014385
100
AcDbArc
 50
249.166074850175
 51
251.314361008571
  0
ARC
  5
1B9
100
AcDbEntity
  8
SEMA2D
100
AcDbCircle
370
9
 62
9
  6
_SOLID
 10
4.2869622532
 20
5.3155622463
 30
0
 40
0.8755014385
100
AcDbArc
 50
249.166074850175
 51
251.314361008571
  0
ARC
  5
1BA
100
AcDbEntity
  8
SEMA2D
100
AcDbCircle
370
9
 62
9
  6
_SOLID
 10
4.3441551428
 20
5.2563383398
 30
0
 40
0.8390996387
100
AcDbArc
 50
249.145594442999
 51
250.139526268111
  0
ARC
  5
1BB
100
AcDbEntity
  8
SEMA2D
100
AcDbCircle
370
9
 62
9
  6
_SOLID
 10
4.2337964483
 20
5.2104341987
 30
0
 40
0.7551413863
100
AcDbArc
 50
247.397563294781
 51
249.669546199952
  0
ARC
  5
1BC
100
AcDbEntity
  8
SEMA2D
100
AcDbCircle
370
9
 62
9
  6
_SOLID
 10
4.3035147951
 20
5.1849674115
 30
0
 40
0.7547442731
100
AcDbArc
 50
247.369047996817
 51
249.669784657819
  0
ARC
  5
1BD
100
AcDbEntity
  8
SEMA2D
100
AcDbCircle
370
9
 62
9
  6
_SOLID
 10
4.2685851638
 20
5.1975151632
 30
0
 40
0.754744273
100
AcDbArc
 50
247.369047994613
 51
249.669784657819
  0
ARC
  5
1BE
100
AcDbEntity
  8
SEMA2D
100
AcDbCircle
370
9
 62
9
  6
_SOLID
 10
4.3272059938
 20
5.1447805519
 30
0
 40
0.724908874
100
AcDbArc
 50
247.348319302924
 51
248.411208591775
  0
ARC
  5
1BF
100
AcDbEntity
  8
SEMA2D
100
AcDbCircle
370
9
 62
9
  6
_SOLID
 10
4.1687810566
 20
4.9887927308
 30
0
 40
0.2248016216
100
AcDbArc
 50
260.630861476436
 51
261.877299669383
  0
ARC
  5
1C0
100
AcDbEntity
  8
SEMA2D
100
AcDbCircle
370
9
 62
9
  6
_SOLID
 10
4.190219626
 20
4.8503305158
 30
0
 40
0.1134661792
100
AcDbArc
 50
236.1667286148
 51
239.386303395215
  0
ARC
  5
1C1
100
AcDbEntity
  8
SEMA2D
100
AcDbCircle
370
9
 62
9
  6
_SOLID
 10
4.1900048819
 20
4.8499492107
 30
0
 40
0.113399884
100
AcDbArc
 50
241.520444173229
 51
242.354760382074
  0
ARC
  5
1C2
100
AcDbEntity
  8
SEMA2D
100
AcDbCircle
370
9
 62
9
  6
_SOLID
 10
4.1908119854
 20
4.851164644
 30
0
 40
0.1132252259
100
AcDbArc
 50
224.709567723969
 51
234.37043793897
  0
ARC
  5
1C3
100
AcDbEntity
  8
SEMA2D
100
AcDbCircle
370
9
 62
9
  6
_SOLID
 10
4.1899985657
 20
4.8499924511
 30
0
 40
0.1117965148
100
AcDbArc
 50
241.520439409828
 51
242.354748488141
  0
ARC
  5
1C4
100
AcDbEntity
  8
SEMA2D
100
AcDbCircle
370
9
 62
9
  6
_SOLID
 10
4.1908230426
 20
4.8514427141
 30
0
 40
0.1044867023
100
AcDbArc
 50
220.736316283976
 51
235.218539003399
  0
ARC
  5
1C5
100
AcDbEntity
  8
SEMA2D
100
AcDbCircle
370
9
 62
9
  6
_SOLID
 10
4.1908547245
 20
4.851527761
 30
0
 40
0.1029222429
100
AcDbArc
 50
220.743071839705
 51
235.214173048513
  0
ARC
  5
1C6
100
AcDbEntity
  8
SEMA2D
100
AcDbCircle
370
9
 62
9
  6
_SOLID
 10
4.1907210831
 20
4.8514473285
 30
0
 40
0.1007135324
100
AcDbArc
 50
220.735675735318
 51
237.77635029205
  0
LINE
  5
1C7
100
AcDbEntity
  8
SEMA2D
100
AcDbLine
370
9
 62
9
  6
_SOLID
 10
3.9868590188
 20
4.7494953463
 30
0
 11
3.9868356141
 21
4.7490140281
 31
0
  0
LINE
  5
1C8
100
AcDbEntity
  8
SEMA2D
100
AcDbLine
370
9
 62
9
  6
_SOLID
 10
4.1373878118
 20
4.7494953489
 30
0
 11
4.1374112166
 21
4.7490140276
 31
0
  0
LINE
  5
1C9
100
AcDbEntity
  8
SEMA2D
100
AcDbLine
370
9
 62
9
  6
_SOLID
 10
4.026618779
 20
4.7745607431
 30
0
 11
4.0263987706
 21
4.7751064705
 31
0
  0
LINE
  5
1CA
100
AcDbEntity
  8
SEMA2D
100
AcDbLine
370
9
 62
9
  6
_SOLID
 10
4.0976280529
 20
4.7745607431
 30
0
 11
4.0978480528
 21
4.7751064705
 31
0
  0
LINE
  5
1CB
100
AcDbEntity
  8
SEMA2D
100
AcDbLine
370
9
 62
9
  6
_SOLID
 10
4.1249532976
 20
4.8301636911
 30
0
 11
4.1265673575
 21
4.8334545854
 31
0
  0
LINE
  5
1CC
100
AcDbEntity
  8
SEMA2D
100
AcDbLine
370
9
 62
9
  6
_SOLID
 10
4.1430529092
 20
4.8334545854
 30
0
 11
4.1446669689
 21
4.8301636915
 31
0
  0
LINE
  5
1CD
100
AcDbEntity
  8
SEMA2D
100
AcDbLine
370
9
 62
9
  6
_SOLID
 10
3.9795798616
 20
4.8301636911
 30
0
 11
3.9811939215
 21
4.8334545854
 31
0
  0
LINE
  5
1CE
100
AcDbEntity
  8
SEMA2D
100
AcDbLine
370
9
 62
9
  6
_SOLID
 10
3.9976794732
 20
4.8334545854
 30
0
 11
3.9992935329
 21
4.8301636915
 31
0
  0
LINE
  5
1CF
100
AcDbEntity
  8
SEMA2D
100
AcDbLine
370
9
 62
7
  6
_SOLID
 10
3.9353875994
 20
4.9517586174
 30
0
 11
3.9355392247
 21
4.9488654327
 31
0
  0
LINE
  5
1D0
100
AcDbEntity
  8
SEMA2D
100
AcDbLine
370
9
 62
9
  6
_SOLID
 10
3.941193087
 20
4.9488654327
 30
0
 11
3.9411426946
 21
4.9517586174
 31
0
  0
LINE
  5
1D1
100
AcDbEntity
  8
SEMA2D
100
AcDbLine
370
9
 62
7
  6
_SOLID
 10
3.9339897779
 20
4.9517586174
 30
0
 11
3.9339897779
 21
4.9545542604
 31
0
  0
LINE
  5
1D2
100
AcDbEntity
  8
SEMA2D
100
AcDbLine
370
9
 62
9
  6
_SOLID
 10
3.9406781318
 20
4.9517586174
 30
0
 11
3.9406781318
 21
4.9545542604
 31
0
  0
LINE
  5
1D3
100
AcDbEntity
  8
SEMA2D
100
AcDbLine
370
9
 62
9
  6
_SOLID
 10
3.9409104132
 20
4.9545542604
 30
0
 11
3.9410184722
 21
4.9607566256
 31
0
  0
LINE
  5
1D4
100
AcDbEntity
  8
SEMA2D
100
AcDbLine
370
9
 62
7
  6
_SOLID
 10
3.9350189143
 20
4.9608553414
 30
0
 11
3.9346886886
 21
4.9545542604
 31
0
  0
LINE
  5
1D5
100
AcDbEntity
  8
SEMA2D
100
AcDbLine
370
9
 62
9
  6
_SOLID
 10
3.9778829068
 20
4.9470992124
 30
0
 11
3.9778829068
 21
4.9461868495
 31
0
  0
LINE
  5
1D6
100
AcDbEntity
  8
SEMA2D
100
AcDbLine
370
9
 62
9
  6
_SOLID
 10
3.9824693971
 20
4.9275297114
 30
0
 11
3.9824693971
 21
4.9290698348
 31
0
  0
LINE
  5
1D7
100
AcDbEntity
  8
SEMA2D
100
AcDbLine
370
9
 62
7
  6
_SOLID
 10
3.975353611
 20
4.945310233
 30
0
 11
3.9797477464
 21
4.9289110963
 31
0
  0
LINE
  5
1D8
100
AcDbEntity
  8
SEMA2D
100
AcDbLine
370
9
 62
9
  6
_SOLID
 10
3.9778829304
 20
4.9461868492
 30
0
 11
3.9824693971
 21
4.9290698346
 31
0
  0
LINE
  5
1D9
100
AcDbEntity
  8
SEMA2D
100
AcDbLine
370
9
 62
9
  6
_SOLID
 10
3.9878915187
 20
4.9275297114
 30
0
 11
3.9878915187
 21
4.9290698346
 31
0
  0
LINE
  5
1DA
100
AcDbEntity
  8
SEMA2D
100
AcDbLine
370
9
 62
9
  6
_SOLID
 10
3.992478009
 20
4.9470992124
 30
0
 11
3.992478009
 21
4.9461868492
 31
0
  0
LINE
  5
1DB
100
AcDbEntity
  8
SEMA2D
100
AcDbLine
370
9
 62
9
  6
_SOLID
 10
3.9878914921
 20
4.9290698346
 30
0
 11
3.9924779811
 21
4.9461868492
 31
0
  0
LINE
  5
1DC
100
AcDbEntity
  8
SEMA2D
100
AcDbLine
370
9
 62
9
  6
_SOLID
 10
3.9930250191
 20
4.9289766599
 30
0
 11
3.9976739259
 21
4.9463266113
 31
0
  0
LINE
  5
1DD
100
AcDbEntity
  8
SEMA2D
100
AcDbLine
370
9
 62
9
  6
_SOLID
 10
4.0016469388
 20
4.9463266113
 30
0
 11
3.9969980437
 21
4.9289766599
 31
0
  0
LINE
  5
1DE
100
AcDbEntity
  8
SEMA2D
100
AcDbLine
370
9
 62
7
  6
_SOLID
 10
4.0034450187
 20
4.9450312061
 30
0
 11
3.9991256483
 21
4.9289110963
 31
0
  0
LINE
  5
1DF
100
AcDbEntity
  8
SEMA2D
100
AcDbLine
370
9
 62
7
  6
_SOLID
 10
4.1426988285
 20
4.9275297114
 30
0
 11
4.1269214382
 21
4.9275297114
 31
0
  0
LINE
  5
1E0
100
AcDbEntity
  8
SEMA2D
100
AcDbLine
370
9
 62
7
  6
_SOLID
 10
3.9973253925
 20
4.9275297114
 30
0
 11
3.9815480022
 21
4.9275297114
 31
0
  0
LINE
  5
1E1
100
AcDbEntity
  8
SEMA2D
100
AcDbLine
370
9
 62
9
  6
_SOLID
 10
4.1312218117
 20
4.9289766599
 30
0
 11
4.127248787
 21
4.9289766599
 31
0
  0
LINE
  5
1E2
100
AcDbEntity
  8
SEMA2D
100
AcDbLine
370
9
 62
9
  6
_SOLID
 10
3.9969980437
 20
4.9289766599
 30
0
 11
3.9930250191
 21
4.9289766599
 31
0
  0
LINE
  5
1E3
100
AcDbEntity
  8
SEMA2D
100
AcDbLine
370
9
 62
9
  6
_SOLID
 10
4.1417774337
 20
4.9290698346
 30
0
 11
4.1363553386
 21
4.9290698346
 31
0
  0
LINE
  5
1E4
100
AcDbEntity
  8
SEMA2D
100
AcDbLine
370
9
 62
9
  6
_SOLID
 10
3.9878914921
 20
4.9290698346
 30
0
 11
3.9824693971
 21
4.9290698346
 31
0
  0
LINE
  5
1E5
100
AcDbEntity
  8
SEMA2D
100
AcDbLine
370
9
 62
9
  6
_SOLID
 10
4.0593090037
 20
4.9488654327
 30
0
 11
4.0592586114
 21
4.9517586174
 31
0
  0
LINE
  5
1E6
100
AcDbEntity
  8
SEMA2D
100
AcDbLine
370
9
 62
9
  6
_SOLID
 10
4.0587940485
 20
4.9517586174
 30
0
 11
4.0587940485
 21
4.9545542604
 31
0
  0
LINE
  5
1E7
100
AcDbEntity
  8
SEMA2D
100
AcDbLine
370
9
 62
9
  6
_SOLID
 10
4.0590263299
 20
4.9545542604
 30
0
 11
4.0590871523
 21
4.9580487786
 31
0
  0
LINE
  5
1E8
100
AcDbEntity
  8
SEMA2D
100
AcDbLine
370
9
 62
9
  6
_SOLID
 10
4.1463639003
 20
4.9461868492
 30
0
 11
4.1317688496
 21
4.9461868492
 31
0
  0
LINE
  5
1E9
100
AcDbEntity
  8
SEMA2D
100
AcDbLine
370
9
 62
9
  6
_SOLID
 10
3.9924779811
 20
4.9461868492
 30
0
 11
3.9778829304
 21
4.9461868492
 31
0
  0
LINE
  5
1EA
100
AcDbEntity
  8
SEMA2D
100
AcDbLine
370
9
 62
9
  6
_SOLID
 10
4.1265729048
 20
4.9463266113
 30
0
 11
4.1225998919
 21
4.9463266113
 31
0
  0
LINE
  5
1EB
100
AcDbEntity
  8
SEMA2D
100
AcDbLine
370
9
 62
9
  6
_SOLID
 10
4.0016469388
 20
4.9463266113
 30
0
 11
3.9976739259
 21
4.9463266113
 31
0
  0
LINE
  5
1EC
100
AcDbEntity
  8
SEMA2D
100
AcDbLine
370
9
 62
7
  6
_SOLID
 10
4.1868463982
 20
4.9470992124
 30
0
 11
3.9374004325
 21
4.9470992124
 31
0
  0
LINE
  5
1ED
100
AcDbEntity
  8
SEMA2D
100
AcDbLine
370
9
 62
7
  6
_SOLID
 10
3.9670787048
 20
4.9470992124
 30
0
 11
3.9856964745
 21
4.9470992124
 31
0
  0
LINE
  5
1EE
100
AcDbEntity
  8
SEMA2D
100
AcDbLine
370
9
 62
7
  6
_SOLID
 10
3.9973217377
 20
4.9470992124
 30
0
 11
4.005780563
 21
4.9470992124
 31
0
  0
LINE
  5
1EF
100
AcDbEntity
  8
SEMA2D
100
AcDbLine
370
9
 62
7
  6
_SOLID
 10
4.0114558431
 20
4.9470992124
 30
0
 11
4.0316014168
 21
4.9470992124
 31
0
  0
LINE
  5
1F0
100
AcDbEntity
  8
SEMA2D
100
AcDbLine
370
9
 62
7
  6
_SOLID
 10
4.092645318
 20
4.9470992124
 30
0
 11
4.1127909865
 21
4.9470992124
 31
0
  0
LINE
  5
1F1
100
AcDbEntity
  8
SEMA2D
100
AcDbLine
370
9
 62
7
  6
_SOLID
 10
4.1184662677
 20
4.9470992124
 30
0
 11
4.126925093
 21
4.9470992124
 31
0
  0
LINE
  5
1F2
100
AcDbEntity
  8
SEMA2D
100
AcDbLine
370
9
 62
7
  6
_SOLID
 10
4.1385503216
 20
4.9470992124
 30
0
 11
4.1571681259
 21
4.9470992124
 31
0
  0
LINE
  5
1F3
100
AcDbEntity
  8
SEMA2D
100
AcDbLine
370
9
 62
9
  6
_SOLID
 10
4.0652205008
 20
4.9545542604
 30
0
 11
4.0651596845
 21
4.958048779
 31
0
  0
LINE
  5
1F4
100
AcDbEntity
  8
SEMA2D
100
AcDbLine
370
9
 62
9
  6
_SOLID
 10
4.0654527822
 20
4.9517586174
 30
0
 11
4.0654527822
 21
4.9545542604
 31
0
  0
LINE
  5
1F5
100
AcDbEntity
  8
SEMA2D
100
AcDbLine
370
9
 62
9
  6
_SOLID
 10
4.064937827
 20
4.9488654327
 30
0
 11
4.0649882194
 21
4.9517586174
 31
0
  0
LINE
  5
1F6
100
AcDbEntity
  8
SEMA2D
100
AcDbLine
370
9
 62
9
  6
_SOLID
 10
4.188707606
 20
4.9488654327
 30
0
 11
3.9355392247
 21
4.9488654327
 31
0
  0
LINE
  5
1F7
100
AcDbEntity
  8
SEMA2D
100
AcDbLine
370
9
 62
7
  6
_SOLID
 10
4.1902570529
 20
4.9517586174
 30
0
 11
3.9339897779
 21
4.9517586174
 31
0
  0
LINE
  5
1F8
100
AcDbEntity
  8
SEMA2D
100
AcDbLine
370
9
 62
7
  6
_SOLID
 10
4.1902570529
 20
4.9545542604
 30
0
 11
3.9339897779
 21
4.9545542604
 31
0
  0
LINE
  5
1F9
100
AcDbEntity
  8
SEMA2D
100
AcDbLine
370
9
 62
7
  6
_SOLID
 10
4.1366738747
 20
4.9652708919
 30
0
 11
4.1303355748
 21
4.9652708919
 31
0
  0
LINE
  5
1FA
100
AcDbEntity
  8
SEMA2D
100
AcDbLine
370
9
 62
7
  6
_SOLID
 10
4.1302176344
 20
4.9652708919
 30
0
 11
4.1291268091
 21
4.9652708919
 31
0
  0
LINE
  5
1FB
100
AcDbEntity
  8
SEMA2D
100
AcDbLine
370
9
 62
7
  6
_SOLID
 10
4.1289846005
 20
4.9652708919
 30
0
 11
4.1254932369
 21
4.9652708919
 31
0
  0
LINE
  5
1FC
100
AcDbEntity
  8
SEMA2D
100
AcDbLine
370
9
 62
7
  6
_SOLID
 10
3.9875729147
 20
4.9652708919
 30
0
 11
3.9929875627
 21
4.9652708919
 31
0
  0
LINE
  5
1FD
100
AcDbEntity
  8
SEMA2D
100
AcDbLine
370
9
 62
7
  6
_SOLID
 10
3.9930917212
 20
4.9652708919
 30
0
 11
3.9951282547
 21
4.9652708919
 31
0
  0
LINE
  5
1FE
100
AcDbEntity
  8
SEMA2D
100
AcDbLine
370
9
 62
7
  6
_SOLID
 10
3.995268068
 20
4.9652708919
 30
0
 11
3.9987535937
 21
4.9652708919
 31
0
  0
LINE
  5
1FF
100
AcDbEntity
  8
SEMA2D
100
AcDbLine
370
9
 62
7
  6
_SOLID
 10
3.9396719337
 20
4.9652708919
 30
0
 11
4.184574897
 21
4.9652708919
 31
0
  0
LINE
  5
200
100
AcDbEntity
  8
SEMA2D
100
AcDbLine
370
9
 62
7
  6
_SOLID
 10
4.120801812
 20
4.9450312061
 30
0
 11
4.1251211824
 21
4.9289110963
 31
0
  0
LINE
  5
201
100
AcDbEntity
  8
SEMA2D
100
AcDbLine
370
9
 62
9
  6
_SOLID
 10
4.127248787
 20
4.9289766599
 30
0
 11
4.1225998919
 21
4.9463266113
 31
0
  0
LINE
  5
202
100
AcDbEntity
  8
SEMA2D
100
AcDbLine
370
9
 62
9
  6
_SOLID
 10
4.1317688217
 20
4.9470992124
 30
0
 11
4.1317688217
 21
4.9461868493
 31
0
  0
LINE
  5
203
100
AcDbEntity
  8
SEMA2D
100
AcDbLine
370
9
 62
9
  6
_SOLID
 10
4.1265729048
 20
4.9463266113
 30
0
 11
4.1312218117
 21
4.9289766599
 31
0
  0
LINE
  5
204
100
AcDbEntity
  8
SEMA2D
100
AcDbLine
370
9
 62
9
  6
_SOLID
 10
4.1317688496
 20
4.9461868492
 30
0
 11
4.1363553386
 21
4.9290698346
 31
0
  0
LINE
  5
205
100
AcDbEntity
  8
SEMA2D
100
AcDbLine
370
9
 62
9
  6
_SOLID
 10
4.136355312
 20
4.9275297114
 30
0
 11
4.136355312
 21
4.9290698346
 31
0
  0
LINE
  5
206
100
AcDbEntity
  8
SEMA2D
100
AcDbLine
370
9
 62
9
  6
_SOLID
 10
4.1417774337
 20
4.9275297114
 30
0
 11
4.1417774337
 21
4.9290698346
 31
0
  0
LINE
  5
207
100
AcDbEntity
  8
SEMA2D
100
AcDbLine
370
9
 62
9
  6
_SOLID
 10
4.1463639239
 20
4.9470992124
 30
0
 11
4.1463639239
 21
4.9461868492
 31
0
  0
LINE
  5
208
100
AcDbEntity
  8
SEMA2D
100
AcDbLine
370
9
 62
9
  6
_SOLID
 10
4.1417774337
 20
4.9290698346
 30
0
 11
4.1463639003
 21
4.9461868492
 31
0
  0
LINE
  5
209
100
AcDbEntity
  8
SEMA2D
100
AcDbLine
370
9
 62
7
  6
_SOLID
 10
4.1444990843
 20
4.9289110963
 30
0
 11
4.1488932197
 21
4.9453102329
 31
0
  0
LINE
  5
20A
100
AcDbEntity
  8
SEMA2D
100
AcDbLine
370
9
 62
7
  6
_SOLID
 10
4.1895581421
 20
4.9545542604
 30
0
 11
4.1892279164
 21
4.9608553414
 31
0
  0
LINE
  5
20B
100
AcDbEntity
  8
SEMA2D
100
AcDbLine
370
9
 62
9
  6
_SOLID
 10
4.1833364175
 20
4.9545542604
 30
0
 11
4.1832283622
 21
4.9607566269
 31
0
  0
LINE
  5
20C
100
AcDbEntity
  8
SEMA2D
100
AcDbLine
370
9
 62
9
  6
_SOLID
 10
4.1835686989
 20
4.9517586174
 30
0
 11
4.1835686989
 21
4.9545542604
 31
0
  0
LINE
  5
20D
100
AcDbEntity
  8
SEMA2D
100
AcDbLine
370
9
 62
7
  6
_SOLID
 10
4.1902570529
 20
4.9517586174
 30
0
 11
4.1902570529
 21
4.9545542604
 31
0
  0
LINE
  5
20E
100
AcDbEntity
  8
SEMA2D
100
AcDbLine
370
9
 62
9
  6
_SOLID
 10
4.1830537438
 20
4.9488654327
 30
0
 11
4.1831041361
 21
4.9517586174
 31
0
  0
LINE
  5
20F
100
AcDbEntity
  8
SEMA2D
100
AcDbLine
370
9
 62
7
  6
_SOLID
 10
4.1888592314
 20
4.9517586174
 30
0
 11
4.188707606
 21
4.9488654327
 31
0
  0
ARC
  5
210
100
AcDbEntity
  8
SEMA2D
100
AcDbCircle
370
9
 62
9
  6
_SOLID
 10
3.9560973863
 20
5.0007892338
 30
0
 40
0.0427783049000003
100
AcDbArc
 50
249.36032459079
 51
291.165929727371
  0
ARC
  5
211
100
AcDbEntity
  8
SEMA2D
100
AcDbCircle
370
9
 62
7
  6
_SOLID
 10
3.9573345214
 20
5.0005941361
 30
0
 40
0.0390507681000001
100
AcDbArc
 50
246.166229797343
 51
291.165910182383
  0
ARC
  5
212
100
AcDbEntity
  8
SEMA2D
100
AcDbCircle
370
9
 62
7
  6
_SOLID
 10
3.9396719337
 20
4.9606114869
 30
0
 40
0.00465940499999995
100
AcDbArc
 50
66.166444522586
 51
177.000000002598
  0
ARC
  5
213
100
AcDbEntity
  8
SEMA2D
100
AcDbCircle
370
9
 62
7
  6
_SOLID
 10
3.9374004325
 20
4.9489629744
 30
0
 40
0.00186376200000016
100
AcDbArc
 50
182.999999997403
 51
270
  0
ARC
  5
214
100
AcDbEntity
  8
SEMA2D
100
AcDbCircle
370
9
 62
9
  6
_SOLID
 10
3.9910270163
 20
5.0007892418
 30
0
 40
0.0427783127999999
100
AcDbArc
 50
248.834072449561
 51
291.165927550439
  0
ARC
  5
215
100
AcDbEntity
  8
SEMA2D
100
AcDbCircle
370
9
 62
7
  6
_SOLID
 10
3.9922641527
 20
5.0005941361
 30
0
 40
0.0390507681000003
100
AcDbArc
 50
248.834085825368
 51
291.165910697401
  0
ARC
  5
216
100
AcDbEntity
  8
SEMA2D
100
AcDbCircle
370
9
 62
7
  6
_SOLID
 10
3.9747993371
 20
4.9554876365
 30
0
 40
0.00931881000000034
100
AcDbArc
 50
68.8343587192105
 51
111.166087468579
  0
ARC
  5
217
100
AcDbEntity
  8
SEMA2D
100
AcDbCircle
370
9
 62
9
  6
_SOLID
 10
3.9735622006
 20
4.9556827265
 30
0
 40
0.00559127949999993
100
AcDbArc
 50
68.8340372304907
 51
111.165961976816
  0
ARC
  5
218
100
AcDbEntity
  8
SEMA2D
100
AcDbCircle
370
9
 62
9
  6
_SOLID
 10
3.9723904952
 20
4.9457107815
 30
0
 40
0.00286455229999949
100
AcDbArc
 50
16.4288756678182
 51
29.0066504856753
  0
ARC
  5
219
100
AcDbEntity
  8
SEMA2D
100
AcDbCircle
370
9
 62
7
  6
_SOLID
 10
3.972729083
 20
4.9443035694
 30
0
 40
0.00279564299999979
100
AcDbArc
 50
14.9999999996979
 51
90
  0
ARC
  5
21A
100
AcDbEntity
  8
SEMA2D
100
AcDbCircle
370
9
 62
7
  6
_SOLID
 10
3.9973253925
 20
4.9293934734
 30
0
 40
0.00186376200000016
100
AcDbArc
 50
270
 51
345.000000000313
  0
ARC
  5
21B
100
AcDbEntity
  8
SEMA2D
100
AcDbCircle
370
9
 62
7
  6
_SOLID
 10
3.9815480022
 20
4.9293934734
 30
0
 40
0.00186376199999994
100
AcDbArc
 50
194.99999999969
 51
270
  0
ARC
  5
21C
100
AcDbEntity
  8
SEMA2D
100
AcDbCircle
370
9
 62
9
  6
_SOLID
 10
3.9992603643
 20
4.9640469368
 30
0
 40
0.00183986270000025
100
AcDbArc
 50
276.694818557933
 51
280.791012373476
  0
ARC
  5
21D
100
AcDbEntity
  8
SEMA2D
100
AcDbCircle
370
9
 62
9
  6
_SOLID
 10
4.0287202687
 20
3.6954739621
 30
0
 40
1.2512378781
100
AcDbArc
 50
91.4217975656214
 51
91.6598127655654
  0
ARC
  5
21E
100
AcDbEntity
  8
SEMA2D
100
AcDbCircle
370
9
 62
9
  6
_SOLID
 10
4.0259566476
 20
5.0007892418
 30
0
 40
0.0427783127999999
100
AcDbArc
 50
248.834072449561
 51
291.165927550439
  0
ARC
  5
21F
100
AcDbEntity
  8
SEMA2D
100
AcDbCircle
370
9
 62
9
  6
_SOLID
 10
4.0608860818
 20
5.0007882966
 30
0
 40
0.0427773601999997
100
AcDbArc
 50
248.833861560532
 51
267.589812082466
  0
ARC
  5
220
100
AcDbEntity
  8
SEMA2D
100
AcDbCircle
370
9
 62
7
  6
_SOLID
 10
4.027193784
 20
5.0005941361
 30
0
 40
0.0390507681000001
100
AcDbArc
 50
248.834085856221
 51
291.165910692057
  0
ARC
  5
221
100
AcDbEntity
  8
SEMA2D
100
AcDbCircle
370
9
 62
7
  6
_SOLID
 10
4.0097289684
 20
4.9554876365
 30
0
 40
0.00931881000000034
100
AcDbArc
 50
68.8331106658756
 51
111.164859427162
  0
ARC
  5
222
100
AcDbEntity
  8
SEMA2D
100
AcDbCircle
370
9
 62
7
  6
_SOLID
 10
4.0446585997
 20
4.9554876365
 30
0
 40
0.00931881000000034
100
AcDbArc
 50
68.8343120235888
 51
111.165648795943
  0
ARC
  5
223
100
AcDbEntity
  8
SEMA2D
100
AcDbCircle
370
9
 62
9
  6
_SOLID
 10
4.0434214633
 20
4.9556827265
 30
0
 40
0.00559127949999993
100
AcDbArc
 50
68.8340372358335
 51
111.165961969407
  0
ARC
  5
224
100
AcDbEntity
  8
SEMA2D
100
AcDbCircle
370
9
 62
9
  6
_SOLID
 10
4.0084918319
 20
4.9556827265
 30
0
 40
0.00559127949999993
100
AcDbArc
 50
68.8340371942918
 51
111.165961982163
  0
ARC
  5
225
100
AcDbEntity
  8
SEMA2D
100
AcDbCircle
370
9
 62
9
  6
_SOLID
 10
4.0063962514
 20
4.9457561689
 30
0
 40
0.00306304340000008
100
AcDbArc
 50
153.990690010985
 51
164.88010701933
  0
ARC
  5
226
100
AcDbEntity
  8
SEMA2D
100
AcDbCircle
370
9
 62
7
  6
_SOLID
 10
4.0061443117
 20
4.9443035694
 30
0
 40
0.00279564300000024
100
AcDbArc
 50
90
 51
165.000000000307
  0
ARC
  5
227
100
AcDbEntity
  8
SEMA2D
100
AcDbCircle
370
9
 62
9
  6
_SOLID
 10
4.0061431383
 20
4.9443069918
 30
0
 40
0.00279363239999952
100
AcDbArc
 50
97.4125927983709
 51
164.975146375527
  0
ARC
  5
228
100
AcDbEntity
  8
SEMA2D
100
AcDbCircle
370
9
 62
9
  6
_SOLID
 10
4.0061452208
 20
4.9443098388
 30
0
 40
0.00279101789999991
100
AcDbArc
 50
90
 51
97.462525074781
  0
ARC
  5
229
100
AcDbEntity
  8
SEMA2D
100
AcDbCircle
370
9
 62
9
  6
_SOLID
 10
4.0020515674
 20
4.9639409917
 30
0
 40
0.00111367169999976
100
AcDbArc
 50
270
 51
278.265260618576
  0
ARC
  5
22A
100
AcDbEntity
  8
SEMA2D
100
AcDbCircle
370
9
 62
9
  6
_SOLID
 10
4.0232853405
 20
6.7376358326
 30
0
 40
1.8089122951
100
AcDbArc
 50
268.878858005279
 51
269.041484992107
  0
ARC
  5
22B
100
AcDbEntity
  8
SEMA2D
100
AcDbCircle
370
9
 62
9
  6
_SOLID
 10
4.0949354732
 20
3.6734992651
 30
0
 40
1.2732204768
100
AcDbArc
 50
88.3422419486547
 51
88.5761477184597
  0
ARC
  5
22C
100
AcDbEntity
  8
SEMA2D
100
AcDbCircle
370
9
 62
9
  6
_SOLID
 10
4.0633607516
 20
5.0007882867
 30
0
 40
0.0427773499999997
100
AcDbArc
 50
272.4101930444
 51
291.166139865246
  0
ARC
  5
22D
100
AcDbEntity
  8
SEMA2D
100
AcDbCircle
370
9
 62
7
  6
_SOLID
 10
4.0621234154
 20
5.0005941361
 30
0
 40
0.0390507681000001
100
AcDbArc
 50
248.834087673606
 51
291.165913286107
  0
ARC
  5
22E
100
AcDbEntity
  8
SEMA2D
100
AcDbCircle
370
9
 62
7
  6
_SOLID
 10
4.079588231
 20
4.9554876365
 30
0
 40
0.00931881000000034
100
AcDbArc
 50
68.8339401119216
 51
111.166043009527
  0
ARC
  5
22F
100
AcDbEntity
  8
SEMA2D
100
AcDbCircle
370
9
 62
9
  6
_SOLID
 10
4.0808253673
 20
4.9556827265
 30
0
 40
0.00559127949999993
100
AcDbArc
 50
68.8340367463228
 51
111.165961379922
  0
ARC
  5
230
100
AcDbEntity
  8
SEMA2D
100
AcDbCircle
370
9
 62
9
  6
_SOLID
 10
4.0621234157
 20
5.0798224274
 30
0
 40
0.1218114978
100
AcDbArc
 50
268.571702142801
 51
271.428300407639
  0
ARC
  5
231
100
AcDbEntity
  8
SEMA2D
100
AcDbCircle
370
9
 62
9
  6
_SOLID
 10
4.0982901831
 20
5.0007892418
 30
0
 40
0.0427783127999994
100
AcDbArc
 50
248.834072449561
 51
291.165927550439
  0
ARC
  5
232
100
AcDbEntity
  8
SEMA2D
100
AcDbCircle
370
9
 62
7
  6
_SOLID
 10
4.0970530467
 20
5.0005941361
 30
0
 40
0.0390507681000001
100
AcDbArc
 50
248.834090739064
 51
291.165915221559
  0
ARC
  5
233
100
AcDbEntity
  8
SEMA2D
100
AcDbCircle
370
9
 62
7
  6
_SOLID
 10
4.1145178623
 20
4.9554876365
 30
0
 40
0.00931881000000034
100
AcDbArc
 50
68.8339401172688
 51
111.166034906964
  0
ARC
  5
234
100
AcDbEntity
  8
SEMA2D
100
AcDbCircle
370
9
 62
9
  6
_SOLID
 10
4.1157549986
 20
4.9556827265
 30
0
 40
0.00559127949999993
100
AcDbArc
 50
68.8340367261611
 51
111.165961430949
  0
ARC
  5
235
100
AcDbEntity
  8
SEMA2D
100
AcDbCircle
370
9
 62
9
  6
_SOLID
 10
4.1178506131
 20
4.9457561811
 30
0
 40
0.00306300760000067
100
AcDbArc
 50
15.1198333869811
 51
26.0131756825012
  0
ARC
  5
236
100
AcDbEntity
  8
SEMA2D
100
AcDbCircle
370
9
 62
7
  6
_SOLID
 10
4.118102519
 20
4.9443035694
 30
0
 40
0.00279564299999979
100
AcDbArc
 50
14.9999999996979
 51
90
  0
ARC
  5
237
100
AcDbEntity
  8
SEMA2D
100
AcDbCircle
370
9
 62
9
  6
_SOLID
 10
4.1181036919
 20
4.9443069849
 30
0
 40
0.00279363749999995
100
AcDbArc
 50
15.0249877197686
 51
82.5874143083773
  0
ARC
  5
238
100
AcDbEntity
  8
SEMA2D
100
AcDbCircle
370
9
 62
9
  6
_SOLID
 10
4.1181016079
 20
4.9443098308
 30
0
 40
0.00279102440000045
100
AcDbArc
 50
82.5374530825033
 51
90
  0
ARC
  5
239
100
AcDbEntity
  8
SEMA2D
100
AcDbCircle
370
9
 62
9
  6
_SOLID
 10
4.1221953741
 20
4.9639420672
 30
0
 40
0.00111473319999966
100
AcDbArc
 50
261.737365889129
 51
270
  0
ARC
  5
23A
100
AcDbEntity
  8
SEMA2D
100
AcDbCircle
370
9
 62
9
  6
_SOLID
 10
4.1332198144
 20
5.0007892418
 30
0
 40
0.0427783127999999
100
AcDbArc
 50
248.834072449561
 51
291.165927550439
  0
ARC
  5
23B
100
AcDbEntity
  8
SEMA2D
100
AcDbCircle
370
9
 62
7
  6
_SOLID
 10
4.131982678
 20
5.0005941361
 30
0
 40
0.0390507681000001
100
AcDbArc
 50
248.834090739064
 51
291.165915263097
  0
ARC
  5
23C
100
AcDbEntity
  8
SEMA2D
100
AcDbCircle
370
9
 62
7
  6
_SOLID
 10
4.1494474937
 20
4.9554876365
 30
0
 40
0.00931881000000034
100
AcDbArc
 50
68.8339289545894
 51
111.165621287834
  0
ARC
  5
23D
100
AcDbEntity
  8
SEMA2D
100
AcDbCircle
370
9
 62
9
  6
_SOLID
 10
4.15068463
 20
4.9556827265
 30
0
 40
0.00559127949999993
100
AcDbArc
 50
68.8340367389171
 51
111.165961379922
  0
ARC
  5
23E
100
AcDbEntity
  8
SEMA2D
100
AcDbCircle
370
9
 62
9
  6
_SOLID
 10
4.151856337
 20
4.9457107808
 30
0
 40
0.00286455399999985
100
AcDbArc
 50
150.991693593451
 51
163.57149548026
  0
ARC
  5
23F
100
AcDbEntity
  8
SEMA2D
100
AcDbCircle
370
9
 62
7
  6
_SOLID
 10
4.1515177477
 20
4.9443035694
 30
0
 40
0.00279564300000024
100
AcDbArc
 50
90
 51
165.000000000307
  0
ARC
  5
240
100
AcDbEntity
  8
SEMA2D
100
AcDbCircle
370
9
 62
7
  6
_SOLID
 10
4.1426988285
 20
4.9293934734
 30
0
 40
0.00186376200000016
100
AcDbArc
 50
270
 51
345.000000000313
  0
ARC
  5
241
100
AcDbEntity
  8
SEMA2D
100
AcDbCircle
370
9
 62
7
  6
_SOLID
 10
4.1269214382
 20
4.9293934734
 30
0
 40
0.00186376200000016
100
AcDbArc
 50
194.999999999687
 51
270
  0
ARC
  5
242
100
AcDbEntity
  8
SEMA2D
100
AcDbCircle
370
9
 62
9
  6
_SOLID
 10
4.124984665
 20
4.9640308889
 30
0
 40
0.0018238528000003
100
AcDbArc
 50
259.1702202651
 51
263.407686384744
  0
ARC
  5
243
100
AcDbEntity
  8
SEMA2D
100
AcDbCircle
370
9
 62
9
  6
_SOLID
 10
4.1681494446
 20
5.0007892348
 30
0
 40
0.0427783059000002
100
AcDbArc
 50
248.83407051204
 51
290.639679909588
  0
ARC
  5
244
100
AcDbEntity
  8
SEMA2D
100
AcDbCircle
370
9
 62
7
  6
_SOLID
 10
4.1669123093
 20
5.0005941361
 30
0
 40
0.0390507681000001
100
AcDbArc
 50
248.834091187032
 51
293.833749847146
  0
ARC
  5
245
100
AcDbEntity
  8
SEMA2D
100
AcDbCircle
370
9
 62
7
  6
_SOLID
 10
4.184574897
 20
4.9606114869
 30
0
 40
0.00465940499999995
100
AcDbArc
 50
2.99999999740246
 51
113.83432876715
  0
ARC
  5
246
100
AcDbEntity
  8
SEMA2D
100
AcDbCircle
370
9
 62
7
  6
_SOLID
 10
4.1868463982
 20
4.9489629744
 30
0
 40
0.00186376200000016
100
AcDbArc
 50
270
 51
-2.99999999740189
  0
ARC
  5
247
100
AcDbEntity
  8
SEMA2D
100
AcDbCircle
370
9
 62
9
  6
_SOLID
 10
4.100426062
 20
6.767135313
 30
0
 40
1.838416605
100
AcDbArc
 50
270.959819993292
 51
271.119837017141
  0
LINE
  5
248
100
AcDbEntity
  8
SEMA2D
100
AcDbLine
370
9
 62
7
  6
_SOLID
 10
3.8119652289
 20
4.4656742124
 30
0
 11
3.8147608719
 21
4.4656742124
 31
0
  0
LINE
  5
249
100
AcDbEntity
  8
SEMA2D
100
AcDbLine
370
9
 62
9
  6
_SOLID
 10
3.8147608719
 20
4.4662547224
 30
0
 11
3.8119652289
 21
4.4662547224
 31
0
  0
LINE
  5
24A
100
AcDbEntity
  8
SEMA2D
100
AcDbLine
370
9
 62
7
  6
_SOLID
 10
3.8085099671
 20
4.4665763908
 30
0
 11
3.8119652289
 21
4.4663918879
 31
0
  0
LINE
  5
24B
100
AcDbEntity
  8
SEMA2D
100
AcDbLine
370
9
 62
7
  6
_SOLID
 10
3.8147608719
 20
4.4671039994
 30
0
 11
3.8176537543
 21
4.4672584726
 31
0
  0
LINE
  5
24C
100
AcDbEntity
  8
SEMA2D
100
AcDbLine
370
9
 62
9
  6
_SOLID
 10
3.8176540566
 20
4.4677445081
 30
0
 11
3.8147608719
 21
4.467598721
 31
0
  0
LINE
  5
24D
100
AcDbEntity
  8
SEMA2D
100
AcDbLine
370
9
 62
9
  6
_SOLID
 10
3.8119652289
 20
4.4669267217
 30
0
 11
3.8084707102
 21
4.4671028278
 31
0
  0
LINE
  5
24E
100
AcDbEntity
  8
SEMA2D
100
AcDbLine
370
9
 62
9
  6
_SOLID
 10
3.8176540566
 20
4.5101752222
 30
0
 11
3.8147608719
 21
4.5100294351
 31
0
  0
LINE
  5
24F
100
AcDbEntity
  8
SEMA2D
100
AcDbLine
370
9
 62
9
  6
_SOLID
 10
3.8147608719
 20
4.5086854365
 30
0
 11
3.8119652289
 21
4.5086854365
 31
0
  0
LINE
  5
250
100
AcDbEntity
  8
SEMA2D
100
AcDbLine
370
9
 62
9
  6
_SOLID
 10
3.8119652289
 20
4.5093574358
 30
0
 11
3.8057628624
 21
4.5096699631
 31
0
  0
LINE
  5
251
100
AcDbEntity
  8
SEMA2D
100
AcDbLine
370
9
 62
9
  6
_SOLID
 10
3.8194202769
 20
4.5183174266
 30
0
 11
3.8056641479
 21
4.5183174266
 31
0
  0
LINE
  5
252
100
AcDbEntity
  8
SEMA2D
100
AcDbLine
370
9
 62
7
  6
_SOLID
 10
3.803531973
 20
4.485249217
 30
0
 11
3.8038206567
 21
4.4849277044
 31
0
  0
LINE
  5
253
100
AcDbEntity
  8
SEMA2D
100
AcDbLine
370
9
 62
7
  6
_SOLID
 10
3.8038206567
 20
4.4849277044
 30
0
 11
3.8040700243
 21
4.484622488
 31
0
  0
LINE
  5
254
100
AcDbEntity
  8
SEMA2D
100
AcDbLine
370
9
 62
7
  6
_SOLID
 10
3.8040700243
 20
4.484622488
 30
0
 11
3.8042839362
 21
4.4843321998
 31
0
  0
LINE
  5
255
100
AcDbEntity
  8
SEMA2D
100
AcDbLine
370
9
 62
7
  6
_SOLID
 10
3.8042839362
 20
4.4843321998
 30
0
 11
3.8044648135
 21
4.4840567707
 31
0
  0
LINE
  5
256
100
AcDbEntity
  8
SEMA2D
100
AcDbLine
370
9
 62
7
  6
_SOLID
 10
3.8044648135
 20
4.4840567707
 30
0
 11
3.8046151905
 21
4.4837955716
 31
0
  0
LINE
  5
257
100
AcDbEntity
  8
SEMA2D
100
AcDbLine
370
9
 62
7
  6
_SOLID
 10
3.8046151905
 20
4.4837955716
 30
0
 11
3.8047377024
 21
4.4835470472
 31
0
  0
LINE
  5
258
100
AcDbEntity
  8
SEMA2D
100
AcDbLine
370
9
 62
7
  6
_SOLID
 10
3.8047377024
 20
4.4835470472
 30
0
 11
3.8048326933
 21
4.4833143221
 31
0
  0
LINE
  5
259
100
AcDbEntity
  8
SEMA2D
100
AcDbLine
370
9
 62
7
  6
_SOLID
 10
3.8048326933
 20
4.4833143221
 30
0
 11
3.80490105
 21
4.4831014665
 31
0
  0
LINE
  5
25A
100
AcDbEntity
  8
SEMA2D
100
AcDbLine
370
9
 62
7
  6
_SOLID
 10
3.80490105
 20
4.4831014665
 30
0
 11
3.8049463085
 21
4.4829040589
 31
0
  0
LINE
  5
25B
100
AcDbEntity
  8
SEMA2D
100
AcDbLine
370
9
 62
7
  6
_SOLID
 10
3.8049463085
 20
4.4829040589
 30
0
 11
3.8049707647
 21
4.4827168599
 31
0
  0
LINE
  5
25C
100
AcDbEntity
  8
SEMA2D
100
AcDbLine
370
9
 62
7
  6
_SOLID
 10
3.8035354917
 20
4.4726976718
 30
0
 11
3.8038296345
 21
4.4723694594
 31
0
  0
LINE
  5
25D
100
AcDbEntity
  8
SEMA2D
100
AcDbLine
370
9
 62
7
  6
_SOLID
 10
3.8038280756
 20
4.4723712838
 30
0
 11
3.804082406
 21
4.4720587479
 31
0
  0
LINE
  5
25E
100
AcDbEntity
  8
SEMA2D
100
AcDbLine
370
9
 62
7
  6
_SOLID
 10
3.803531973
 20
4.4977969687
 30
0
 11
3.8038206567
 21
4.4974754561
 31
0
  0
LINE
  5
25F
100
AcDbEntity
  8
SEMA2D
100
AcDbLine
370
9
 62
7
  6
_SOLID
 10
3.8038206567
 20
4.4974754561
 30
0
 11
3.8040700243
 21
4.4971702397
 31
0
  0
LINE
  5
260
100
AcDbEntity
  8
SEMA2D
100
AcDbLine
370
9
 62
7
  6
_SOLID
 10
3.8040700243
 20
4.4971702397
 30
0
 11
3.8042839362
 21
4.4968799516
 31
0
  0
LINE
  5
261
100
AcDbEntity
  8
SEMA2D
100
AcDbLine
370
9
 62
7
  6
_SOLID
 10
3.8042839362
 20
4.4968799516
 30
0
 11
3.8044648135
 21
4.4966045224
 31
0
  0
LINE
  5
262
100
AcDbEntity
  8
SEMA2D
100
AcDbLine
370
9
 62
7
  6
_SOLID
 10
3.8044648135
 20
4.4966045224
 30
0
 11
3.8046151905
 21
4.4963433233
 31
0
  0
LINE
  5
263
100
AcDbEntity
  8
SEMA2D
100
AcDbLine
370
9
 62
7
  6
_SOLID
 10
3.8046151905
 20
4.4963433233
 30
0
 11
3.8047377024
 21
4.496094799
 31
0
  0
LINE
  5
264
100
AcDbEntity
  8
SEMA2D
100
AcDbLine
370
9
 62
7
  6
_SOLID
 10
3.8047377024
 20
4.496094799
 30
0
 11
3.8048326933
 21
4.4958620739
 31
0
  0
LINE
  5
265
100
AcDbEntity
  8
SEMA2D
100
AcDbLine
370
9
 62
7
  6
_SOLID
 10
3.8048326933
 20
4.4958620739
 30
0
 11
3.80490105
 21
4.4956492183
 31
0
  0
LINE
  5
266
100
AcDbEntity
  8
SEMA2D
100
AcDbLine
370
9
 62
7
  6
_SOLID
 10
3.80490105
 20
4.4956492183
 30
0
 11
3.8049463085
 21
4.4954518106
 31
0
  0
LINE
  5
267
100
AcDbEntity
  8
SEMA2D
100
AcDbLine
370
9
 62
7
  6
_SOLID
 10
3.8049463085
 20
4.4954518106
 30
0
 11
3.8049707647
 21
4.4952646117
 31
0
  0
LINE
  5
268
100
AcDbEntity
  8
SEMA2D
100
AcDbLine
370
9
 62
7
  6
_SOLID
 10
3.8040810966
 20
4.4720604429
 30
0
 11
3.8042992277
 21
4.471762395
 31
0
  0
LINE
  5
269
100
AcDbEntity
  8
SEMA2D
100
AcDbLine
370
9
 62
7
  6
_SOLID
 10
3.8042992277
 20
4.471762395
 30
0
 11
3.8044852849
 21
4.4714755126
 31
0
  0
LINE
  5
26A
100
AcDbEntity
  8
SEMA2D
100
AcDbLine
370
9
 62
7
  6
_SOLID
 10
3.8044852849
 20
4.4714755126
 30
0
 11
3.8046407488
 21
4.4711992725
 31
0
  0
LINE
  5
26B
100
AcDbEntity
  8
SEMA2D
100
AcDbLine
370
9
 62
7
  6
_SOLID
 10
3.8046407488
 20
4.4711992725
 30
0
 11
3.8047672907
 21
4.4709318023
 31
0
  0
LINE
  5
26C
100
AcDbEntity
  8
SEMA2D
100
AcDbLine
370
9
 62
7
  6
_SOLID
 10
3.8047672907
 20
4.4709318023
 30
0
 11
3.8048633845
 21
4.470678126
 31
0
  0
LINE
  5
26D
100
AcDbEntity
  8
SEMA2D
100
AcDbLine
370
9
 62
7
  6
_SOLID
 10
3.8031993815
 20
4.5106909864
 30
0
 11
3.8036432342
 21
4.5102242205
 31
0
  0
LINE
  5
26E
100
AcDbEntity
  8
SEMA2D
100
AcDbLine
370
9
 62
7
  6
_SOLID
 10
3.8036432342
 20
4.5102242205
 30
0
 11
3.8039388405
 21
4.5098822751
 31
0
  0
LINE
  5
26F
100
AcDbEntity
  8
SEMA2D
100
AcDbLine
370
9
 62
7
  6
_SOLID
 10
3.8039388405
 20
4.5098822751
 30
0
 11
3.8041954281
 21
4.509551668
 31
0
  0
LINE
  5
270
100
AcDbEntity
  8
SEMA2D
100
AcDbLine
370
9
 62
7
  6
_SOLID
 10
3.8041954281
 20
4.509551668
 30
0
 11
3.8044142933
 21
4.5092327024
 31
0
  0
LINE
  5
271
100
AcDbEntity
  8
SEMA2D
100
AcDbLine
370
9
 62
7
  6
_SOLID
 10
3.8044142933
 20
4.5092327024
 30
0
 11
3.8045960011
 21
4.5089266029
 31
0
  0
LINE
  5
272
100
AcDbEntity
  8
SEMA2D
100
AcDbLine
370
9
 62
7
  6
_SOLID
 10
3.8045960011
 20
4.5089266029
 30
0
 11
3.8047405803
 21
4.5086361459
 31
0
  0
LINE
  5
273
100
AcDbEntity
  8
SEMA2D
100
AcDbLine
370
9
 62
7
  6
_SOLID
 10
3.8047405803
 20
4.5086361459
 30
0
 11
3.8048489058
 21
4.5083642353
 31
0
  0
LINE
  5
274
100
AcDbEntity
  8
SEMA2D
100
AcDbLine
370
9
 62
7
  6
_SOLID
 10
3.8048489058
 20
4.5083642353
 30
0
 11
3.8049226382
 21
4.5081127551
 31
0
  0
LINE
  5
275
100
AcDbEntity
  8
SEMA2D
100
AcDbLine
370
9
 62
7
  6
_SOLID
 10
3.8049226382
 20
4.5081127551
 30
0
 11
3.8049638773
 21
4.5078822985
 31
0
  0
LINE
  5
276
100
AcDbEntity
  8
SEMA2D
100
AcDbLine
370
9
 62
7
  6
_SOLID
 10
3.8049638773
 20
4.5078822985
 30
0
 11
3.8049761203
 21
4.5076762182
 31
0
  0
LINE
  5
277
100
AcDbEntity
  8
SEMA2D
100
AcDbLine
370
9
 62
7
  6
_SOLID
 10
3.8015580022
 20
4.5135292689
 30
0
 11
3.8016754669
 21
4.5132190142
 31
0
  0
LINE
  5
278
100
AcDbEntity
  8
SEMA2D
100
AcDbLine
370
9
 62
7
  6
_SOLID
 10
3.8016754669
 20
4.5132190142
 30
0
 11
3.8018301435
 21
4.5128486374
 31
0
  0
LINE
  5
279
100
AcDbEntity
  8
SEMA2D
100
AcDbLine
370
9
 62
7
  6
_SOLID
 10
3.8018301435
 20
4.5128486374
 30
0
 11
3.8019998136
 21
4.5124835311
 31
0
  0
LINE
  5
27A
100
AcDbEntity
  8
SEMA2D
100
AcDbLine
370
9
 62
7
  6
_SOLID
 10
3.8019998136
 20
4.5124835311
 30
0
 11
3.8021819877
 21
4.5121312674
 31
0
  0
LINE
  5
27B
100
AcDbEntity
  8
SEMA2D
100
AcDbLine
370
9
 62
7
  6
_SOLID
 10
3.8021819877
 20
4.5121312674
 30
0
 11
3.8023752051
 21
4.5117955258
 31
0
  0
LINE
  5
27C
100
AcDbEntity
  8
SEMA2D
100
AcDbLine
370
9
 62
7
  6
_SOLID
 10
3.8023752051
 20
4.5117955258
 30
0
 11
3.8025769246
 21
4.5114805497
 31
0
  0
LINE
  5
27D
100
AcDbEntity
  8
SEMA2D
100
AcDbLine
370
9
 62
7
  6
_SOLID
 10
3.8025769246
 20
4.5114805497
 30
0
 11
3.8027847659
 21
4.5111888709
 31
0
  0
LINE
  5
27E
100
AcDbEntity
  8
SEMA2D
100
AcDbLine
370
9
 62
7
  6
_SOLID
 10
3.8027847659
 20
4.5111888709
 30
0
 11
3.8029945247
 21
4.5109241119
 31
0
  0
LINE
  5
27F
100
AcDbEntity
  8
SEMA2D
100
AcDbLine
370
9
 62
7
  6
_SOLID
 10
3.8029945247
 20
4.5109241119
 30
0
 11
3.8031993815
 21
4.5106909864
 31
0
  0
LINE
  5
280
100
AcDbEntity
  8
SEMA2D
100
AcDbLine
370
9
 62
7
  6
_SOLID
 10
3.801504831
 20
4.5136840899
 30
0
 11
3.8015579977
 21
4.5135292784
 31
0
  0
LINE
  5
281
100
AcDbEntity
  8
SEMA2D
100
AcDbLine
370
9
 62
7
  6
_SOLID
 10
3.8048637648
 20
4.4706769693
 30
0
 11
3.8049290897
 21
4.4704414536
 31
0
  0
LINE
  5
282
100
AcDbEntity
  8
SEMA2D
100
AcDbLine
370
9
 62
7
  6
_SOLID
 10
3.8049290897
 20
4.4704414536
 30
0
 11
3.8049642431
 21
4.470235856
 31
0
  0
LINE
  5
283
100
AcDbEntity
  8
SEMA2D
100
AcDbLine
370
9
 62
7
  6
_SOLID
 10
3.80141737
 20
4.5139853699
 30
0
 11
3.801504831
 21
4.5136840899
 31
0
  0
LINE
  5
284
100
AcDbEntity
  8
SEMA2D
100
AcDbLine
370
9
 62
7
  6
_SOLID
 10
3.8013508793
 20
4.5142788786
 30
0
 11
3.8014187546
 21
4.5139792908
 31
0
  0
LINE
  5
285
100
AcDbEntity
  8
SEMA2D
100
AcDbLine
370
9
 62
7
  6
_SOLID
 10
3.80130254
 20
4.5145662981
 30
0
 11
3.8013518881
 21
4.5142728806
 31
0
  0
LINE
  5
286
100
AcDbEntity
  8
SEMA2D
100
AcDbLine
370
9
 62
7
  6
_SOLID
 10
3.805005093
 20
4.4698963091
 30
0
 11
3.8050397866
 21
4.4696700353
 31
0
  0
LINE
  5
287
100
AcDbEntity
  8
SEMA2D
100
AcDbLine
370
9
 62
7
  6
_SOLID
 10
3.8050397866
 20
4.4696700353
 30
0
 11
3.8050876498
 21
4.4694464017
 31
0
  0
LINE
  5
288
100
AcDbEntity
  8
SEMA2D
100
AcDbLine
370
9
 62
7
  6
_SOLID
 10
3.8050876498
 20
4.4694464017
 30
0
 11
3.8051484459
 21
4.4692262287
 31
0
  0
LINE
  5
289
100
AcDbEntity
  8
SEMA2D
100
AcDbLine
370
9
 62
7
  6
_SOLID
 10
3.8051484459
 20
4.4692262287
 30
0
 11
3.8052219617
 21
4.4690102594
 31
0
  0
LINE
  5
28A
100
AcDbEntity
  8
SEMA2D
100
AcDbLine
370
9
 62
7
  6
_SOLID
 10
3.8052219617
 20
4.4690102594
 30
0
 11
3.8053079967
 21
4.4687992415
 31
0
  0
LINE
  5
28B
100
AcDbEntity
  8
SEMA2D
100
AcDbLine
370
9
 62
7
  6
_SOLID
 10
3.8053079967
 20
4.4687992415
 30
0
 11
3.805406332
 21
4.4685939859
 31
0
  0
LINE
  5
28C
100
AcDbEntity
  8
SEMA2D
100
AcDbLine
370
9
 62
7
  6
_SOLID
 10
3.805406332
 20
4.4685939859
 30
0
 11
3.8055167457
 21
4.4683952774
 31
0
  0
LINE
  5
28D
100
AcDbEntity
  8
SEMA2D
100
AcDbLine
370
9
 62
7
  6
_SOLID
 10
3.8055167457
 20
4.4683952774
 30
0
 11
3.8056388192
 21
4.4682038097
 31
0
  0
LINE
  5
28E
100
AcDbEntity
  8
SEMA2D
100
AcDbLine
370
9
 62
7
  6
_SOLID
 10
3.8056388192
 20
4.4682038097
 30
0
 11
3.8057719753
 21
4.4680201899
 31
0
  0
LINE
  5
28F
100
AcDbEntity
  8
SEMA2D
100
AcDbLine
370
9
 62
7
  6
_SOLID
 10
3.8057719753
 20
4.4680201899
 30
0
 11
3.8059156455
 21
4.4678450043
 31
0
  0
LINE
  5
290
100
AcDbEntity
  8
SEMA2D
100
AcDbLine
370
9
 62
7
  6
_SOLID
 10
3.8059156455
 20
4.4678450043
 30
0
 11
3.8060692748
 21
4.4676788298
 31
0
  0
LINE
  5
291
100
AcDbEntity
  8
SEMA2D
100
AcDbLine
370
9
 62
7
  6
_SOLID
 10
3.8060692748
 20
4.4676788298
 30
0
 11
3.8062322543
 21
4.4675223011
 31
0
  0
LINE
  5
292
100
AcDbEntity
  8
SEMA2D
100
AcDbLine
370
9
 62
7
  6
_SOLID
 10
3.8062322543
 20
4.4675223011
 30
0
 11
3.8064040147
 21
4.4673760051
 31
0
  0
LINE
  5
293
100
AcDbEntity
  8
SEMA2D
100
AcDbLine
370
9
 62
7
  6
_SOLID
 10
3.8064040147
 20
4.4673760051
 30
0
 11
3.8065838574
 21
4.4672406223
 31
0
  0
LINE
  5
294
100
AcDbEntity
  8
SEMA2D
100
AcDbLine
370
9
 62
7
  6
_SOLID
 10
3.8065838574
 20
4.4672406223
 30
0
 11
3.8067711009
 21
4.4671167785
 31
0
  0
LINE
  5
295
100
AcDbEntity
  8
SEMA2D
100
AcDbLine
370
9
 62
7
  6
_SOLID
 10
3.8067711009
 20
4.4671167785
 30
0
 11
3.8069650045
 21
4.4670050033
 31
0
  0
LINE
  5
296
100
AcDbEntity
  8
SEMA2D
100
AcDbLine
370
9
 62
7
  6
_SOLID
 10
3.8069650045
 20
4.4670050033
 30
0
 11
3.8071646864
 21
4.4669055599
 31
0
  0
LINE
  5
297
100
AcDbEntity
  8
SEMA2D
100
AcDbLine
370
9
 62
7
  6
_SOLID
 10
3.8071646864
 20
4.4669055599
 30
0
 11
3.807369235
 21
4.466818635
 31
0
  0
LINE
  5
298
100
AcDbEntity
  8
SEMA2D
100
AcDbLine
370
9
 62
7
  6
_SOLID
 10
3.807369235
 20
4.466818635
 30
0
 11
3.8075777403
 21
4.4667443864
 31
0
  0
LINE
  5
299
100
AcDbEntity
  8
SEMA2D
100
AcDbLine
370
9
 62
7
  6
_SOLID
 10
3.8075777403
 20
4.4667443864
 30
0
 11
3.8077893022
 21
4.4666829403
 31
0
  0
LINE
  5
29A
100
AcDbEntity
  8
SEMA2D
100
AcDbLine
370
9
 62
7
  6
_SOLID
 10
3.8077893022
 20
4.4666829403
 30
0
 11
3.8080030293
 21
4.4666343929
 31
0
  0
LINE
  5
29B
100
AcDbEntity
  8
SEMA2D
100
AcDbLine
370
9
 62
7
  6
_SOLID
 10
3.8080030293
 20
4.4666343929
 30
0
 11
3.8082180465
 21
4.4665988083
 31
0
  0
LINE
  5
29C
100
AcDbEntity
  8
SEMA2D
100
AcDbLine
370
9
 62
7
  6
_SOLID
 10
3.8082180465
 20
4.4665988083
 30
0
 11
3.8084334396
 21
4.4665762229
 31
0
  0
LINE
  5
29D
100
AcDbEntity
  8
SEMA2D
100
AcDbLine
370
9
 62
7
  6
_SOLID
 10
3.804980605
 20
4.470098329
 30
0
 11
3.805005093
 21
4.4698963091
 31
0
  0
LINE
  5
29E
100
AcDbEntity
  8
SEMA2D
100
AcDbLine
370
9
 62
7
  6
_SOLID
 10
3.8012686611
 20
4.5148711249
 30
0
 11
3.80130254
 21
4.5145662981
 31
0
  0
LINE
  5
29F
100
AcDbEntity
  8
SEMA2D
100
AcDbLine
370
9
 62
7
  6
_SOLID
 10
3.801248918
 20
4.5153531801
 30
0
 11
3.8012521877
 21
4.5151549688
 31
0
  0
LINE
  5
2A0
100
AcDbEntity
  8
SEMA2D
100
AcDbLine
370
9
 62
7
  6
_SOLID
 10
3.8012521877
 20
4.5151549688
 30
0
 11
3.8012695884
 21
4.5148601025
 31
0
  0
LINE
  5
2A1
100
AcDbEntity
  8
SEMA2D
100
AcDbLine
370
9
 62
7
  6
_SOLID
 10
3.8017149682
 20
4.4763677391
 30
0
 11
3.8017312151
 21
4.4760868745
 31
0
  0
LINE
  5
2A2
100
AcDbEntity
  8
SEMA2D
100
AcDbLine
370
9
 62
7
  6
_SOLID
 10
3.8017312151
 20
4.4760868745
 30
0
 11
3.8017646905
 21
4.4758060264
 31
0
  0
LINE
  5
2A3
100
AcDbEntity
  8
SEMA2D
100
AcDbLine
370
9
 62
7
  6
_SOLID
 10
3.8017646905
 20
4.4758060264
 30
0
 11
3.8018155254
 21
4.4755261395
 31
0
  0
LINE
  5
2A4
100
AcDbEntity
  8
SEMA2D
100
AcDbLine
370
9
 62
7
  6
_SOLID
 10
3.8018155254
 20
4.4755261395
 30
0
 11
3.8018838078
 21
4.4752482761
 31
0
  0
LINE
  5
2A5
100
AcDbEntity
  8
SEMA2D
100
AcDbLine
370
9
 62
7
  6
_SOLID
 10
3.8018838078
 20
4.4752482761
 30
0
 11
3.8019698053
 21
4.474972822
 31
0
  0
LINE
  5
2A6
100
AcDbEntity
  8
SEMA2D
100
AcDbLine
370
9
 62
7
  6
_SOLID
 10
3.8019698053
 20
4.474972822
 30
0
 11
3.8020737682
 21
4.4747001355
 31
0
  0
LINE
  5
2A7
100
AcDbEntity
  8
SEMA2D
100
AcDbLine
370
9
 62
7
  6
_SOLID
 10
3.8020737682
 20
4.4747001355
 30
0
 11
3.8021956205
 21
4.4744312416
 31
0
  0
LINE
  5
2A8
100
AcDbEntity
  8
SEMA2D
100
AcDbLine
370
9
 62
7
  6
_SOLID
 10
3.8021956205
 20
4.4744312416
 30
0
 11
3.8023355073
 21
4.4741666708
 31
0
  0
LINE
  5
2A9
100
AcDbEntity
  8
SEMA2D
100
AcDbLine
370
9
 62
7
  6
_SOLID
 10
3.8023355073
 20
4.4741666708
 30
0
 11
3.8024930187
 21
4.4739079438
 31
0
  0
LINE
  5
2AA
100
AcDbEntity
  8
SEMA2D
100
AcDbLine
370
9
 62
7
  6
_SOLID
 10
3.8024930187
 20
4.4739079438
 30
0
 11
3.8026678549
 21
4.4736560789
 31
0
  0
LINE
  5
2AB
100
AcDbEntity
  8
SEMA2D
100
AcDbLine
370
9
 62
7
  6
_SOLID
 10
3.8026678549
 20
4.4736560789
 30
0
 11
3.8028596389
 21
4.473412015
 31
0
  0
LINE
  5
2AC
100
AcDbEntity
  8
SEMA2D
100
AcDbLine
370
9
 62
7
  6
_SOLID
 10
3.8028596389
 20
4.473412015
 30
0
 11
3.8030679087
 21
4.4731765841
 31
0
  0
LINE
  5
2AD
100
AcDbEntity
  8
SEMA2D
100
AcDbLine
370
9
 62
7
  6
_SOLID
 10
3.8030679087
 20
4.4731765841
 30
0
 11
3.8035364814
 21
4.4726966585
 31
0
  0
LINE
  5
2AE
100
AcDbEntity
  8
SEMA2D
100
AcDbLine
370
9
 62
7
  6
_SOLID
 10
3.8017149682
 20
4.4889154908
 30
0
 11
3.8017312151
 21
4.4886346262
 31
0
  0
LINE
  5
2AF
100
AcDbEntity
  8
SEMA2D
100
AcDbLine
370
9
 62
7
  6
_SOLID
 10
3.8017312151
 20
4.4886346262
 30
0
 11
3.8017646905
 21
4.488353778
 31
0
  0
LINE
  5
2B0
100
AcDbEntity
  8
SEMA2D
100
AcDbLine
370
9
 62
7
  6
_SOLID
 10
3.8017646905
 20
4.488353778
 30
0
 11
3.8018155254
 21
4.4880738912
 31
0
  0
LINE
  5
2B1
100
AcDbEntity
  8
SEMA2D
100
AcDbLine
370
9
 62
7
  6
_SOLID
 10
3.8018155254
 20
4.4880738912
 30
0
 11
3.8018838079
 21
4.4877960278
 31
0
  0
LINE
  5
2B2
100
AcDbEntity
  8
SEMA2D
100
AcDbLine
370
9
 62
7
  6
_SOLID
 10
3.8018838079
 20
4.4877960278
 30
0
 11
3.8019698053
 21
4.4875205737
 31
0
  0
LINE
  5
2B3
100
AcDbEntity
  8
SEMA2D
100
AcDbLine
370
9
 62
7
  6
_SOLID
 10
3.8019698053
 20
4.4875205737
 30
0
 11
3.8020737682
 21
4.4872478872
 31
0
  0
LINE
  5
2B4
100
AcDbEntity
  8
SEMA2D
100
AcDbLine
370
9
 62
7
  6
_SOLID
 10
3.8020737682
 20
4.4872478872
 30
0
 11
3.8021956205
 21
4.4869789933
 31
0
  0
LINE
  5
2B5
100
AcDbEntity
  8
SEMA2D
100
AcDbLine
370
9
 62
7
  6
_SOLID
 10
3.8021956205
 20
4.4869789933
 30
0
 11
3.8023355073
 21
4.4867144225
 31
0
  0
LINE
  5
2B6
100
AcDbEntity
  8
SEMA2D
100
AcDbLine
370
9
 62
7
  6
_SOLID
 10
3.8023355073
 20
4.4867144225
 30
0
 11
3.8024930187
 21
4.4864556955
 31
0
  0
LINE
  5
2B7
100
AcDbEntity
  8
SEMA2D
100
AcDbLine
370
9
 62
7
  6
_SOLID
 10
3.8024930187
 20
4.4864556955
 30
0
 11
3.8026678549
 21
4.4862038306
 31
0
  0
LINE
  5
2B8
100
AcDbEntity
  8
SEMA2D
100
AcDbLine
370
9
 62
7
  6
_SOLID
 10
3.8026678549
 20
4.4862038306
 30
0
 11
3.8028596389
 21
4.4859597668
 31
0
  0
LINE
  5
2B9
100
AcDbEntity
  8
SEMA2D
100
AcDbLine
370
9
 62
7
  6
_SOLID
 10
3.8028596389
 20
4.4859597668
 30
0
 11
3.8030679087
 21
4.4857243359
 31
0
  0
LINE
  5
2BA
100
AcDbEntity
  8
SEMA2D
100
AcDbLine
370
9
 62
7
  6
_SOLID
 10
3.8030679087
 20
4.4857243359
 30
0
 11
3.803531973
 21
4.485249217
 31
0
  0
LINE
  5
2BB
100
AcDbEntity
  8
SEMA2D
100
AcDbLine
370
9
 62
7
  6
_SOLID
 10
3.8017149682
 20
4.5014632426
 30
0
 11
3.8017312151
 21
4.5011823781
 31
0
  0
LINE
  5
2BC
100
AcDbEntity
  8
SEMA2D
100
AcDbLine
370
9
 62
7
  6
_SOLID
 10
3.8017312151
 20
4.5011823781
 30
0
 11
3.8017646905
 21
4.5009015299
 31
0
  0
LINE
  5
2BD
100
AcDbEntity
  8
SEMA2D
100
AcDbLine
370
9
 62
7
  6
_SOLID
 10
3.8017646905
 20
4.5009015299
 30
0
 11
3.8018155254
 21
4.500621643
 31
0
  0
LINE
  5
2BE
100
AcDbEntity
  8
SEMA2D
100
AcDbLine
370
9
 62
7
  6
_SOLID
 10
3.8018155254
 20
4.500621643
 30
0
 11
3.8018838078
 21
4.5003437796
 31
0
  0
LINE
  5
2BF
100
AcDbEntity
  8
SEMA2D
100
AcDbLine
370
9
 62
7
  6
_SOLID
 10
3.8018838078
 20
4.5003437796
 30
0
 11
3.8019698053
 21
4.5000683255
 31
0
  0
LINE
  5
2C0
100
AcDbEntity
  8
SEMA2D
100
AcDbLine
370
9
 62
7
  6
_SOLID
 10
3.8019698053
 20
4.5000683255
 30
0
 11
3.8020737682
 21
4.499795639
 31
0
  0
LINE
  5
2C1
100
AcDbEntity
  8
SEMA2D
100
AcDbLine
370
9
 62
7
  6
_SOLID
 10
3.8020737682
 20
4.499795639
 30
0
 11
3.8021956205
 21
4.4995267451
 31
0
  0
LINE
  5
2C2
100
AcDbEntity
  8
SEMA2D
100
AcDbLine
370
9
 62
7
  6
_SOLID
 10
3.8021956205
 20
4.4995267451
 30
0
 11
3.8023355073
 21
4.4992621743
 31
0
  0
LINE
  5
2C3
100
AcDbEntity
  8
SEMA2D
100
AcDbLine
370
9
 62
7
  6
_SOLID
 10
3.8023355073
 20
4.4992621743
 30
0
 11
3.8024930187
 21
4.4990034473
 31
0
  0
LINE
  5
2C4
100
AcDbEntity
  8
SEMA2D
100
AcDbLine
370
9
 62
7
  6
_SOLID
 10
3.8024930187
 20
4.4990034473
 30
0
 11
3.8026678549
 21
4.4987515824
 31
0
  0
LINE
  5
2C5
100
AcDbEntity
  8
SEMA2D
100
AcDbLine
370
9
 62
7
  6
_SOLID
 10
3.8026678549
 20
4.4987515824
 30
0
 11
3.8028596389
 21
4.4985075185
 31
0
  0
LINE
  5
2C6
100
AcDbEntity
  8
SEMA2D
100
AcDbLine
370
9
 62
7
  6
_SOLID
 10
3.8028596389
 20
4.4985075185
 30
0
 11
3.8030679087
 21
4.4982720877
 31
0
  0
LINE
  5
2C7
100
AcDbEntity
  8
SEMA2D
100
AcDbLine
370
9
 62
7
  6
_SOLID
 10
3.8030679087
 20
4.4982720877
 30
0
 11
3.803531973
 21
4.4977969687
 31
0
  0
LINE
  5
2C8
100
AcDbEntity
  8
SEMA2D
100
AcDbLine
370
9
 62
7
  6
_SOLID
 10
3.8012485974
 20
4.8437155583
 30
0
 11
3.8012485974
 21
4.5153551113
 31
0
  0
ARC
  5
2C9
100
AcDbEntity
  8
SEMA2D
100
AcDbCircle
370
9
 62
7
  6
_SOLID
 10
3.803462311
 20
4.8437155583
 30
0
 40
0.0022137136
100
AcDbArc
 50
90
 51
180
  0
LINE
  5
2CA
100
AcDbEntity
  8
SEMA2D
100
AcDbLine
370
9
 62
7
  6
_SOLID
 10
3.8017130428
 20
4.5131290378
 30
0
 11
3.8017130428
 21
4.4764921789
 31
0
  0
LINE
  5
2CB
100
AcDbEntity
  8
SEMA2D
100
AcDbLine
370
9
 62
9
  6
_SOLID
 10
3.8023417097
 20
4.4897438065
 30
0
 11
3.8023417076
 21
4.4992519897
 31
0
  0
LINE
  5
2CC
100
AcDbEntity
  8
SEMA2D
100
AcDbLine
370
9
 62
9
  6
_SOLID
 10
3.8023417097
 20
4.4771960547
 30
0
 11
3.802341709
 21
4.4867042356
 31
0
  0
LINE
  5
2CD
100
AcDbEntity
  8
SEMA2D
100
AcDbLine
370
9
 62
9
  6
_SOLID
 10
3.8023417098
 20
4.5022915583
 30
0
 11
3.8023417099
 21
4.5118537284
 31
0
  0
LINE
  5
2CE
100
AcDbEntity
  8
SEMA2D
100
AcDbLine
370
9
 62
9
  6
_SOLID
 10
3.8056641479
 20
4.8441526699
 30
0
 11
3.8056641479
 21
4.5183174266
 31
0
  0
LINE
  5
2CF
100
AcDbEntity
  8
SEMA2D
100
AcDbLine
370
9
 62
7
  6
_SOLID
 10
3.8119652289
 20
4.8470992124
 30
0
 11
3.8119652289
 21
4.4656742647
 31
0
  0
LINE
  5
2D0
100
AcDbEntity
  8
SEMA2D
100
AcDbLine
370
9
 62
7
  6
_SOLID
 10
3.8147608719
 20
4.8470992124
 30
0
 11
3.8147608719
 21
4.4656742647
 31
0
  0
LINE
  5
2D1
100
AcDbEntity
  8
SEMA2D
100
AcDbLine
370
9
 62
9
  6
_SOLID
 10
3.8176540566
 20
4.8436222428
 30
0
 11
3.8176540566
 21
4.4672584887
 31
0
  0
LINE
  5
2D2
100
AcDbEntity
  8
SEMA2D
100
AcDbLine
370
9
 62
7
  6
_SOLID
 10
3.8194202769
 20
4.8436222428
 30
0
 11
3.8194202769
 21
4.4691511957
 31
0
  0
LINE
  5
2D3
100
AcDbEntity
  8
SEMA2D
100
AcDbLine
370
9
 62
9
  6
_SOLID
 10
3.8214923542
 20
4.8406224663
 30
0
 11
3.8214923542
 21
4.8273526832
 31
0
  0
LINE
  5
2D4
100
AcDbEntity
  8
SEMA2D
100
AcDbLine
370
9
 62
7
  6
_SOLID
 10
3.8354160101
 20
4.8371494669
 30
0
 11
3.8354160101
 21
4.8279985385
 31
0
  0
LINE
  5
2D5
100
AcDbEntity
  8
SEMA2D
100
AcDbLine
370
9
 62
7
  6
_SOLID
 10
3.8119652289
 20
4.8463867124
 30
0
 11
3.8033442078
 21
4.8459261192
 31
0
  0
LINE
  5
2D6
100
AcDbEntity
  8
SEMA2D
100
AcDbLine
370
9
 62
9
  6
_SOLID
 10
3.8194202769
 20
4.8273526832
 30
0
 11
3.8214923542
 21
4.8273526832
 31
0
  0
LINE
  5
2D7
100
AcDbEntity
  8
SEMA2D
100
AcDbLine
370
9
 62
9
  6
_SOLID
 10
3.8194202769
 20
4.8406224821
 30
0
 11
3.8214923542
 21
4.8406224821
 31
0
  0
LINE
  5
2D8
100
AcDbEntity
  8
SEMA2D
100
AcDbLine
370
9
 62
9
  6
_SOLID
 10
3.8194202769
 20
4.8436222428
 30
0
 11
3.8176540566
 21
4.8436222428
 31
0
  0
LINE
  5
2D9
100
AcDbEntity
  8
SEMA2D
100
AcDbLine
370
9
 62
7
  6
_SOLID
 10
3.8147608719
 20
4.8470992124
 30
0
 11
3.8119652289
 21
4.8470992124
 31
0
  0
LINE
  5
2DA
100
AcDbEntity
  8
SEMA2D
100
AcDbLine
370
9
 62
9
  6
_SOLID
 10
3.8251149367
 20
4.8404289392
 30
0
 11
3.8214923542
 21
4.8406224663
 31
0
  0
LINE
  5
2DB
100
AcDbEntity
  8
SEMA2D
100
AcDbLine
370
9
 62
9
  6
_SOLID
 10
3.8147608719
 20
4.8437768163
 30
0
 11
3.8176540566
 21
4.8436222428
 31
0
  0
LINE
  5
2DC
100
AcDbEntity
  8
SEMA2D
100
AcDbLine
370
9
 62
7
  6
_SOLID
 10
3.8147608719
 20
4.8456742124
 30
0
 11
3.8243284226
 21
4.8451630491
 31
0
  0
ARC
  5
2DD
100
AcDbEntity
  8
SEMA2D
100
AcDbCircle
370
9
 62
9
  6
_SOLID
 10
3.8657575981
 20
4.8679222264
 30
0
 40
0.0629284017
100
AcDbArc
 50
222.577653661108
 51
223.351244434339
  0
ARC
  5
2DE
100
AcDbEntity
  8
SEMA2D
100
AcDbCircle
370
9
 62
9
  6
_SOLID
 10
3.8166572783
 20
4.8273523877
 30
0
 40
0.00483507589999999
100
AcDbArc
 50
340.296364282532
 51
0.00350115028126664
  0
ARC
  5
2DF
100
AcDbEntity
  8
SEMA2D
100
AcDbCircle
370
9
 62
7
  6
_SOLID
 10
3.8241291796
 20
4.8414884814
 30
0
 40
0.00367995699999946
100
AcDbArc
 50
65.2243153393513
 51
86.8963379198507
  0
ARC
  5
2E0
100
AcDbEntity
  8
SEMA2D
100
AcDbCircle
370
9
 62
7
  6
_SOLID
 10
3.8241315997
 20
4.8414977005
 30
0
 40
0.00367055009999984
100
AcDbArc
 50
65.1983090053
 51
85.350280983542
  0
ARC
  5
2E1
100
AcDbEntity
  8
SEMA2D
100
AcDbCircle
370
9
 62
7
  6
_SOLID
 10
3.8241320577
 20
4.84151913
 30
0
 40
0.00364915430000012
100
AcDbArc
 50
85.3301723167158
 51
86.9154065436184
  0
ARC
  5
2E2
100
AcDbEntity
  8
SEMA2D
100
AcDbCircle
370
9
 62
9
  6
_SOLID
 10
3.8083940528
 20
4.4706351929
 30
0
 40
0.00345297909999975
100
AcDbArc
 50
186.641116458864
 51
190.600215586585
  0
ARC
  5
2E3
100
AcDbEntity
  8
SEMA2D
100
AcDbCircle
370
9
 62
9
  6
_SOLID
 10
3.8242357982
 20
4.8416898005
 30
0
 40
0.00345249190000008
100
AcDbArc
 50
65.4305746749371
 51
86.8167140998978
  0
ARC
  5
2E4
100
AcDbEntity
  8
SEMA2D
100
AcDbCircle
370
9
 62
7
  6
_SOLID
 10
3.820818939
 20
4.8200911106
 30
0
 40
0.00275271799999999
100
AcDbArc
 50
100.174685197235
 51
120.535736037102
  0
ARC
  5
2E5
100
AcDbEntity
  8
SEMA2D
100
AcDbCircle
370
9
 62
7
  6
_SOLID
 10
3.8174972747
 20
4.8436221211
 30
0
 40
0.00192300219999986
100
AcDbArc
 50
0.003684227488226
 51
3.81749914339197
  0
ARC
  5
2E6
100
AcDbEntity
  8
SEMA2D
100
AcDbCircle
370
9
 62
7
  6
_SOLID
 10
3.8175554803
 20
4.8436921415
 30
0
 40
0.00183012819999995
100
AcDbArc
 50
82.5679012008452
 51
90
  0
LINE
  5
2E7
100
AcDbEntity
  8
SEMA2D
100
AcDbLine
370
9
 62
9
  6
_SOLID
 10
3.8056641479
 20
4.8441526699
 30
0
 11
3.8012485974
 21
4.8440111248
 31
0
  0
LINE
  5
2E8
100
AcDbEntity
  8
SEMA2D
100
AcDbLine
370
9
 62
9
  6
_SOLID
 10
3.8085085618
 20
4.4665764658
 30
0
 11
3.8084707129
 21
4.4671028277
 31
0
  0
LINE
  5
2E9
100
AcDbEntity
  8
SEMA2D
100
AcDbLine
370
9
 62
7
  6
_SOLID
 10
3.8256713289
 20
4.8448296973
 30
0
 11
3.8354160101
 21
4.8371494669
 31
0
  0
LINE
  5
2EA
100
AcDbEntity
  8
SEMA2D
100
AcDbLine
370
9
 62
7
  6
_SOLID
 10
3.8203326717
 20
4.8228005387
 30
0
 11
3.8354160101
 21
4.8279985385
 31
0
  0
LINE
  5
2EB
100
AcDbEntity
  8
SEMA2D
100
AcDbLine
370
9
 62
7
  6
_DOT
 10
3.8012485974
 20
4.8770992124
 30
0
 11
3.8012485974
 21
4.8440111248
 31
0
  0
LINE
  5
2EC
100
AcDbEntity
  8
SEMA2D
100
AcDbLine
370
9
 62
7
  6
_DOT
 10
3.8194160101
 20
4.8770992124
 30
0
 11
3.8194160101
 21
4.8436222448
 31
0
  0
LINE
  5
2ED
100
AcDbEntity
  8
SEMA2D
100
AcDbLine
370
9
 62
7
  6
_DOT
 10
3.8354160101
 20
4.8770992124
 30
0
 11
3.8354160101
 21
4.8371494669
 31
0
  0
LINE
  5
2EE
100
AcDbEntity
  8
SEMA2D
100
AcDbLine
370
9
 62
7
  6
_DOT
 10
3.84942035
 20
4.8224620608
 30
0
 11
3.8203326717
 21
4.8224620608
 31
0
  0
LINE
  5
2EF
100
AcDbEntity
  8
SEMA2D
100
AcDbLine
370
9
 62
7
  6
_DOT
 10
3.7819652289
 20
4.8228005387
 30
0
 11
3.8203326717
 21
4.8228005387
 31
0
  0
LINE
  5
2F0
100
AcDbEntity
  8
SEMA2D
100
AcDbLine
370
9
 62
7
  6
_DOT
 10
3.7819652289
 20
4.8470992124
 30
0
 11
3.8119652289
 21
4.8470992124
 31
0
  0
LINE
  5
2F1
100
AcDbEntity
  8
SEMA2D
100
AcDbLine
370
9
 62
7
  6
_DOT
 10
3.9339897779
 20
4.8770992124
 30
0
 11
3.9339897779
 21
4.8464299532
 31
0
  0
LINE
  5
2F2
100
AcDbEntity
  8
SEMA2D
100
AcDbLine
370
9
 62
7
  6
_DOT
 10
4.1902570529
 20
4.8770992124
 30
0
 11
4.1902570529
 21
4.8470992124
 31
0
  0
LINE
  5
2F3
100
AcDbEntity
  8
SEMA2D
100
AcDbLine
370
9
 62
7
  6
_DOT
 10
3.84942035
 20
4.4671424532
 30
0
 11
3.8147608719
 21
4.4671424532
 31
0
  0
LINE
  5
2F4
100
AcDbEntity
  8
SEMA2D
100
AcDbLine
370
9
 62
7
  6
_DOT
 10
4.2202570529
 20
4.4671424532
 30
0
 11
4.1012570529
 21
4.4671424532
 31
0
  0
LINE
  5
2F5
100
AcDbEntity
  8
SEMA2D
100
AcDbLine
370
9
 62
7
  6
_DOT
 10
4.2202570529
 20
4.8471424532
 30
0
 11
4.1902570529
 21
4.8471424532
 31
0
  0
ENDSEC
  0
SECTION
  2
OBJECTS
  0
DICTIONARY
  5
306
100
AcDbDictionary
  3
ACAD_GROUP
350
307
  3
ACAD_MATERIAL
350
308
  3
ACAD_WIPEOUT_VARS
350
309
  3
ACAD_MLINESTYLE
350
30A
  3
ACAD_LAYOUT
350
30B
  0
DICTIONARY
  5
307
330
306
100
AcDbDictionary
  0
DICTIONARY
  5
308
330
306
100
AcDbDictionary
  0
WIPEOUTVARIABLES
  5
309
330
306
100
AcDbWipeoutVariables
 70
1
  0
DICTIONARY
  5
30A
330
306
100
AcDbDictionary
  3
STANDARD
350
30C
  0
MLINESTYLE
  5
30C
100
AcDbMlineStyle
  2
STANDARD
 70
0
  3

 62
256
 51
90
 52
90
 71
2
 49
0.5
 62
256
  6
ByLayer
 49
-0.5
 62
256
  6
ByLayer
  0
DICTIONARY
  5
30B
100
AcDbDictionary
281
1
  3
Model
350
2F6
  0
LAYOUT
  5
2F6
102
{ACAD_REACTORS
330
30B
102
}
330
30B
100
AcDbPlotSettings
  1

  2
none_device
  4

  6

 40
0
 41
0
 42
0
 43
0
 44
0
 45
0
 46
0
 47
0
 48
0
 49
0
 70
1712
 72
1
 73
0
 74
5
 75
16
 76
0
 77
0
 78
100
140
0
141
0
142
1
143
1
147
1
148
0
149
0
100
AcDbLayout
  1
Model
 70
1
 71
1
 10
3.7735652289
 20
4.4656742124
 11
4.23282829763513
 21
5.002752392333
 12
0
 22
0
 32
0
 14
3.7735652289
 24
4.4656742124
 34
0
 15
4.23282829763513
 25
5.002752392333
 35
0
146
0
 13
0
 23
0
 33
0
 16
1
 26
0
 36
0
 17
0
 27
1
 37
0
 76
0
330
2A
  0
DICTIONARY
  5
30D
100
AcDbDictionary
280
1
  3
XINFO
360
30E
  0
XRECORD
  5
30E
102
{ACAD_REACTORS
330
30D
102
}
330
30D
100
AcDbXrecord
280
0
310
0000000002001400
311
F3297C61AE171425
  0
ENDSEC
  0
EOF
