999
Created by Soft Gold Ltd. www.cadsofttools.com
999

  0
SECTION
  2
HEADER
  9
$ACADVER
  1
AC1021
  9
$DWGCODEPAGE
  3
ANSI_1252
  9
$CLAYER
  8
0
  9
$CELTYPE
  6
BYLAYER
  9
$CELTSCALE
 40
1
  9
$CELWEIGHT
370
-1
  9
$DIMALT
 70
0
  9
$DIMALTF
 40
1
  9
$DIMPOST
  1

  9
$DIMAPOST
  1

  9
$DIMSCALE
 40
1
  9
$DIMASZ
 40
0.18
  9
$DIMCLRD
 70
0
  9
$DIMCLRE
 70
0
  9
$DIMCLRT
 70
0
  9
$DIMEXE
 40
0.18
  9
$DIMEXO
 40
0.0625
  9
$DIMGAP
 40
0.0625
  9
$DIMLFAC
 40
1
  9
$DIMDEC
 70
4
  9
$DIMTAD
 70
0
  9
$DIMCEN
 40
0.09
  9
$DIMTIH
 70
1
  9
$DIMTIX
 70
0
  9
$DIMTOH
 70
1
  9
$DIMSE1
 70
0
  9
$DIMSE2
 70
0
  9
$DIMSD1
 70
0
  9
$DIMSD2
 70
0
  9
$DIMLWD
 70
-1
  9
$DIMLWE
 70
-1
  9
$DIMSAH
 70
0
  9
$DIMBLK
  1

  9
$DIMBLK1
  1

  9
$DIMBLK2
  1

  9
$DIMLDRBLK
  1

  9
$DIMSTYLE
  2
STANDARD
  9
$DIMTP
 40
0
  9
$DIMTM
 40
0
  9
$DIMTXT
 40
0.18
  9
$DIMLUNIT
 70
2
  9
$DIMDSEP
 70
46
  9
$DIMTXSTY
  7
STANDARD
  9
$TEXTSIZE
 40
0.18
  9
$TEXTSTYLE
  7
STANDARD
  9
$HANDSEED
  5
0000000000000260
  9
$FILLETRAD
 40
0.5
  9
$INSUNITS
 70
4
  9
$LIMMIN
 10
2.91089746395811
 20
5.16662911830838
  9
$LIMMAX
 10
3.36790226337702
 20
5.67547684322463
  9
$FILLMODE
 70
1
  9
$LTSCALE
 40
1
  9
$MEASUREMENT
 70
0
  9
$ATTMODE
 70
1
  9
$PDMODE
 70
0
  9
$PDSIZE
 40
0
  9
$TILEMODE
 70
1
  9
$UCSORG
 10
0
 20
0
 30
0
  9
$UCSXDIR
 10
1
 20
0
 30
0
  9
$UCSYDIR
 10
0
 20
1
 30
0
  9
$INSBASE
 10
0
 20
0
 30
0
  9
$XCLIPFRAME
290
1
  9
$DIMASSOC
280
2
  9
$TDCREATE
 40
2459018.60701549
  9
$TDINDWG
 40
3.00925925925926E-7
  9
$TDUPDATE
 40
2459018.60701579
  0
ENDSEC
  0
SECTION
  2
CLASSES
  0
CLASS
  1
IMAGE
  2
AcDbRasterImage
  3
ISM
 90
2175
 91
1
280
0
281
1
  0
CLASS
  1
IMAGEDEF
  2
AcDbRasterImageDef
  3
ISM
 90
0
 91
1
280
0
281
0
  0
CLASS
  1
WIPEOUT
  2
AcDbWipeout
  3
"WipeOut"
 90
2175
 91
1
280
0
281
1
  0
CLASS
  1
WIPEOUTVARIABLES
  2
AcDbWipeoutVariables
  3
"WipeOut"
 90
0
 91
1
280
0
281
0
  0
CLASS
  1
MPOLYGON
  2
AcDbMPolygon
  3
"AcMPolygonObj15"
 90
3071
 91
1
280
0
281
1
  0
ENDSEC
  0
SECTION
  2
TABLES
  0
TABLE
  2
APPID
  5
248
100
AcDbSymbolTable
  0
APPID
  5
249
100
AcDbSymbolTableRecord
100
AcDbRegAppTableRecord
  2
ACAD
 70
0
  0
APPID
  5
12
100
AcDbSymbolTableRecord
100
AcDbRegAppTableRecord
  2
CSTINVENTORY
 70
0
  0
APPID
  5
24A
100
AcDbSymbolTableRecord
100
AcDbRegAppTableRecord
  2
PE_URL
 70
0
  0
ENDTAB
  0
TABLE
  2
BLOCK_RECORD
  5
24B
100
AcDbSymbolTable
  0
BLOCK_RECORD
  5
2A
100
AcDbSymbolTableRecord
100
AcDbBlockTableRecord
  2
*MODEL_SPACE
  0
BLOCK_RECORD
  5
24C
100
AcDbSymbolTableRecord
100
AcDbBlockTableRecord
  2
*PAPER_SPACE
  0
BLOCK_RECORD
  5
10
100
AcDbSymbolTableRecord
100
AcDbBlockTableRecord
  2
_CLOSEDFILLED
  0
ENDTAB
  0
TABLE
  2
STYLE
  5
3
100
AcDbSymbolTable
  0
STYLE
  5
A
100
AcDbSymbolTableRecord
100
AcDbTextStyleTableRecord
  2
STANDARD
 70
0
 40
0
 41
1
 50
0
 71
0
 42
2.5
  3
txt
  4

1001
ACAD
1000
txt
1071
0
  0
ENDTAB
  0
TABLE
  2
LTYPE
  5
1
100
AcDbSymbolTable
  0
LTYPE
  5
9
100
AcDbSymbolTableRecord
100
AcDbLinetypeTableRecord
  2
CONTINUOUS
 70
0
  3

 72
65
 73
0
 40
0
  0
LTYPE
  5
7
100
AcDbSymbolTableRecord
100
AcDbLinetypeTableRecord
  2
BYLAYER
 70
0
  3

 72
65
 73
0
 40
0
  0
LTYPE
  5
8
100
AcDbSymbolTableRecord
100
AcDbLinetypeTableRecord
  2
BYBLOCK
 70
0
  3

 72
65
 73
0
 40
0
  0
LTYPE
  5
13
100
AcDbSymbolTableRecord
100
AcDbLinetypeTableRecord
  2
_SOLID
 70
0
  3
_.
 72
65
 73
2
 40
5
 49
5
 74
0
 49
0
 74
0
  0
LTYPE
  5
14
100
AcDbSymbolTableRecord
100
AcDbLinetypeTableRecord
  2
_DASH
 70
0
  3
_ 
 72
65
 73
2
 40
7
 49
5
 74
0
 49
-2
 74
0
  0
LTYPE
  5
15
100
AcDbSymbolTableRecord
100
AcDbLinetypeTableRecord
  2
_DOT
 70
0
  3
_ 
 72
65
 73
2
 40
4
 49
2
 74
0
 49
-2
 74
0
  0
LTYPE
  5
16
100
AcDbSymbolTableRecord
100
AcDbLinetypeTableRecord
  2
_DASHDOT
 70
0
  3
_ _ 
 72
65
 73
4
 40
11
 49
5
 74
0
 49
-2
 74
0
 49
2
 74
0
 49
-2
 74
0
  0
LTYPE
  5
17
100
AcDbSymbolTableRecord
100
AcDbLinetypeTableRecord
  2
_DASHDOTDOT
 70
0
  3
_ _ _ 
 72
65
 73
6
 40
15
 49
5
 74
0
 49
-2
 74
0
 49
2
 74
0
 49
-2
 74
0
 49
2
 74
0
 49
-2
 74
0
  0
LTYPE
  5
18
100
AcDbSymbolTableRecord
100
AcDbLinetypeTableRecord
  2
ISO128-20-02
 70
0
  3
_ 
 72
65
 73
2
 40
5
 49
4
 74
0
 49
-1
 74
0
  0
LTYPE
  5
19
100
AcDbSymbolTableRecord
100
AcDbLinetypeTableRecord
  2
ISO128-20-03
 70
0
  3
_ 
 72
65
 73
2
 40
10
 49
4
 74
0
 49
-6
 74
0
  0
LTYPE
  5
1A
100
AcDbSymbolTableRecord
100
AcDbLinetypeTableRecord
  2
ISO128-20-04
 70
0
  3
_ . 
 72
65
 73
4
 40
10
 49
8
 74
0
 49
-1
 74
0
 49
0
 74
0
 49
-1
 74
0
  0
LTYPE
  5
1B
100
AcDbSymbolTableRecord
100
AcDbLinetypeTableRecord
  2
ISO128-20-05
 70
0
  3
_ . . 
 72
65
 73
6
 40
11
 49
8
 74
0
 49
-1
 74
0
 49
0
 74
0
 49
-1
 74
0
 49
0
 74
0
 49
-1
 74
0
  0
LTYPE
  5
1C
100
AcDbSymbolTableRecord
100
AcDbLinetypeTableRecord
  2
ISO128-20-06
 70
0
  3
_ . . . 
 72
65
 73
8
 40
12
 49
8
 74
0
 49
-1
 74
0
 49
0
 74
0
 49
-1
 74
0
 49
0
 74
0
 49
-1
 74
0
 49
0
 74
0
 49
-1
 74
0
  0
LTYPE
  5
1D
100
AcDbSymbolTableRecord
100
AcDbLinetypeTableRecord
  2
ISO128-20-07
 70
0
  3
. 
 72
65
 73
2
 40
1
 49
0
 74
0
 49
-1
 74
0
  0
LTYPE
  5
1E
100
AcDbSymbolTableRecord
100
AcDbLinetypeTableRecord
  2
ISO128-20-08
 70
0
  3
_ _ 
 72
65
 73
4
 40
12
 49
8
 74
0
 49
-1
 74
0
 49
2
 74
0
 49
-1
 74
0
  0
LTYPE
  5
1F
100
AcDbSymbolTableRecord
100
AcDbLinetypeTableRecord
  2
ISO128-20-09
 70
0
  3
_ _ _ 
 72
65
 73
6
 40
15
 49
8
 74
0
 49
-1
 74
0
 49
2
 74
0
 49
-1
 74
0
 49
2
 74
0
 49
-1
 74
0
  0
LTYPE
  5
20
100
AcDbSymbolTableRecord
100
AcDbLinetypeTableRecord
  2
ISO128-20-10
 70
0
  3
_ . 
 72
65
 73
4
 40
10
 49
8
 74
0
 49
-1
 74
0
 49
0
 74
0
 49
-1
 74
0
  0
LTYPE
  5
21
100
AcDbSymbolTableRecord
100
AcDbLinetypeTableRecord
  2
ISO128-20-11
 70
0
  3
_ _ . 
 72
65
 73
6
 40
11
 49
4
 74
0
 49
-1
 74
0
 49
4
 74
0
 49
-1
 74
0
 49
0
 74
0
 49
-1
 74
0
  0
LTYPE
  5
22
100
AcDbSymbolTableRecord
100
AcDbLinetypeTableRecord
  2
ISO128-20-12
 70
0
  3
_ . . 
 72
65
 73
6
 40
7
 49
4
 74
0
 49
-1
 74
0
 49
0
 74
0
 49
-1
 74
0
 49
0
 74
0
 49
-1
 74
0
  0
LTYPE
  5
23
100
AcDbSymbolTableRecord
100
AcDbLinetypeTableRecord
  2
ISO128-20-13
 70
0
  3
_ _ . . 
 72
65
 73
8
 40
12
 49
4
 74
0
 49
-1
 74
0
 49
4
 74
0
 49
-1
 74
0
 49
0
 74
0
 49
-1
 74
0
 49
0
 74
0
 49
-1
 74
0
  0
LTYPE
  5
24
100
AcDbSymbolTableRecord
100
AcDbLinetypeTableRecord
  2
ISO128-20-14
 70
0
  3
_ . . . 
 72
65
 73
8
 40
8
 49
4
 74
0
 49
-1
 74
0
 49
0
 74
0
 49
-1
 74
0
 49
0
 74
0
 49
-1
 74
0
 49
0
 74
0
 49
-1
 74
0
  0
LTYPE
  5
25
100
AcDbSymbolTableRecord
100
AcDbLinetypeTableRecord
  2
ISO128-20-15
 70
0
  3
_ _ . . . 
 72
65
 73
10
 40
13
 49
4
 74
0
 49
-1
 74
0
 49
4
 74
0
 49
-1
 74
0
 49
0
 74
0
 49
-1
 74
0
 49
0
 74
0
 49
-1
 74
0
 49
0
 74
0
 49
-1
 74
0
  0
LTYPE
  5
26
100
AcDbSymbolTableRecord
100
AcDbLinetypeTableRecord
  2
kurzgestrichelt
 70
0
  3
_ 
 72
65
 73
2
 40
3
 49
2
 74
0
 49
-1
 74
0
  0
ENDTAB
  0
TABLE
  2
LAYER
  5
2
100
AcDbSymbolTable
  0
LAYER
  5
E
100
AcDbSymbolTableRecord
100
AcDbLayerTableRecord
  2
0
 70
0
 62
7
  6
CONTINUOUS
290
1
370
-3
390
0
  0
LAYER
  5
27
100
AcDbSymbolTableRecord
100
AcDbLayerTableRecord
  2
SEMA2D
 70
0
 62
7
290
1
370
-3
390
0
  0
LAYER
  5
2B
100
AcDbSymbolTableRecord
100
AcDbLayerTableRecord
  2
SEMATEXT
 70
0
 62
7
290
1
370
-3
390
0
  0
ENDTAB
  0
TABLE
  2
VPORT
  5
24D
100
AcDbSymbolTable
  0
VPORT
  5
24F
100
AcDbSymbolTableRecord
100
AcDbViewportTableRecord
  2
*ACTIVE
 70
0
 10
0
 20
0
 11
1
 21
1
 12
3.13939986366756
 22
5.4210529807665
 32
0
 13
0
 23
0
 14
1
 24
1
 15
1
 25
1
 16
0
 26
0
 36
1
 17
0
 27
0
 37
0
 40
0.407078179933002
 41
0.898117014268121
 42
50
 43
0
 44
0
 50
0
 51
0
 71
0
 72
100
 73
1
 74
1
 75
0
 76
0
 77
0
 78
0
  0
ENDTAB
  0
TABLE
  2
VIEW
  5
250
100
AcDbSymbolTable
  0
ENDTAB
  0
TABLE
  2
UCS
  5
251
100
AcDbSymbolTable
  0
ENDTAB
  0
TABLE
  2
DIMSTYLE
  5
4
100
AcDbSymbolTable
 70
1
100
AcDbDimStyleTable
 71
0
  0
DIMSTYLE
105
B
100
AcDbSymbolTableRecord
100
AcDbDimStyleTableRecord
  2
STANDARD
 70
0
  3

 40
1
 41
0.18
 42
0.0625
 44
0.18
 47
0
 48
0
 73
1
 74
1
 75
0
 76
0
 77
0
140
0.18
141
0.09
144
1
147
0.0625
173
0
174
0
176
0
177
0
178
0
277
2
278
46
281
0
282
0
271
4
340
A
371
-1
372
-1
  0
ENDTAB
  0
ENDSEC
  0
SECTION
  2
BLOCKS
  0
BLOCK
  5
252
100
AcDbEntity
  8
0
100
AcDbBlockBegin
  2
*MODEL_SPACE
 70
0
 10
0
 20
0
  0
ENDBLK
  5
253
100
AcDbEntity
  8
0
100
AcDbBlockEnd
  0
BLOCK
  5
254
100
AcDbEntity
  8
0
100
AcDbBlockBegin
  2
*PAPER_SPACE
 70
0
 10
0
 20
0
  0
ENDBLK
  5
255
100
AcDbEntity
  8
0
100
AcDbBlockEnd
  0
BLOCK
  5
F
100
AcDbEntity
  8
0
100
AcDbBlockBegin
  2
_CLOSEDFILLED
 70
0
 10
0
 20
0
 30
0
  3
_CLOSEDFILLED
  1

  0
SOLID
  5
C
100
AcDbEntity
  8
0
100
AcDbTrace
370
-2
 62
0
 10
-1
 20
0.166666666666667
 30
0
 11
0
 21
0
 31
0
 12
-1
 22
0.166666666666667
 32
0
 13
-1
 23
-0.166666666666667
 33
0
  0
LINE
  5
D
100
AcDbEntity
  8
0
100
AcDbLine
370
-2
 62
0
 10
-1
 20
0
 30
0
 11
-2
 21
0
 31
0
  0
ENDBLK
  5
256
100
AcDbEntity
  8
0
100
AcDbBlockEnd
  0
ENDSEC
  0
SECTION
  2
ENTITIES
  0
LINE
  5
28
100
AcDbEntity
  8
SEMA2D
100
AcDbLine
370
9
 62
7
  6
_SOLID
 10
3.3096305387
 20
5.4689388908
 30
0
 11
3.3096305387
 21
5.2189388908
 31
0
  0
MTEXT
  5
2C
100
AcDbEntity
  8
SEMATEXT
100
AcDbMText
370
9
 62
7
 10
3.31155488621219
 20
5.33601275295157
 30
0
 40
0.010476
  1
{\fHelveticaNeueLT Com 55 Roman;25}
 50
90
 41
0
  7
STANDARD
 71
0
 73
1
 44
1
  0
LINE
  5
31
100
AcDbEntity
  8
SEMA2D
100
AcDbLine
370
9
 62
7
  6
_SOLID
 10
3.3096305387
 20
5.4689388908
 30
0
 11
3.3180305387
 21
5.4689388908
 31
0
  0
LINE
  5
32
100
AcDbEntity
  8
SEMA2D
100
AcDbLine
370
9
 62
7
  6
_SOLID
 10
3.3096305387
 20
5.4689388908
 30
0
 11
3.3012305387
 21
5.4689388908
 31
0
  0
LINE
  5
33
100
AcDbEntity
  8
SEMA2D
100
AcDbLine
370
9
 62
7
  6
_SOLID
 10
3.3096305387
 20
5.2189388908
 30
0
 11
3.3180305387
 21
5.2189388908
 31
0
  0
LINE
  5
34
100
AcDbEntity
  8
SEMA2D
100
AcDbLine
370
9
 62
7
  6
_SOLID
 10
3.3096305387
 20
5.2189388908
 30
0
 11
3.3012305387
 21
5.2189388908
 31
0
  0
LINE
  5
35
100
AcDbEntity
  8
SEMA2D
100
AcDbLine
370
9
 62
7
  6
_SOLID
 10
3.0315697121
 20
5.4446404546
 30
0
 11
3.0315697121
 21
5.2189388908
 31
0
  0
MTEXT
  5
36
100
AcDbEntity
  8
SEMATEXT
100
AcDbMText
370
9
 62
7
 10
3.0334940596122
 20
5.3206298987453
 30
0
 40
0.010476
  1
{\fHelveticaNeueLT Com 55 Roman;226}
 50
90
 41
0
  7
STANDARD
 71
0
 73
1
 44
1
  0
LINE
  5
3B
100
AcDbEntity
  8
SEMA2D
100
AcDbLine
370
9
 62
7
  6
_SOLID
 10
3.0315697121
 20
5.4446404546
 30
0
 11
3.0399697121
 21
5.4446404546
 31
0
  0
LINE
  5
3C
100
AcDbEntity
  8
SEMA2D
100
AcDbLine
370
9
 62
7
  6
_SOLID
 10
3.0315697121
 20
5.4446404546
 30
0
 11
3.0231697121
 21
5.4446404546
 31
0
  0
LINE
  5
3D
100
AcDbEntity
  8
SEMA2D
100
AcDbLine
370
9
 62
7
  6
_SOLID
 10
3.0315697121
 20
5.2189388908
 30
0
 11
3.0399697121
 21
5.2189388908
 31
0
  0
LINE
  5
3E
100
AcDbEntity
  8
SEMA2D
100
AcDbLine
370
9
 62
7
  6
_SOLID
 10
3.0315697121
 20
5.2189388908
 30
0
 11
3.0231697121
 21
5.2189388908
 31
0
  0
LINE
  5
3F
100
AcDbEntity
  8
SEMA2D
100
AcDbLine
370
9
 62
7
  6
_SOLID
 10
3.1104941372
 20
5.4989388908
 30
0
 11
3.2796305387
 21
5.4989388908
 31
0
  0
MTEXT
  5
40
100
AcDbEntity
  8
SEMATEXT
100
AcDbMText
370
9
 62
7
 10
3.1839593444831
 20
5.51689946758049
 30
0
 40
0.010476
  1
{\fHelveticaNeueLT Com 55 Roman;169}
 50
0
 41
0
  7
STANDARD
 71
0
 73
1
 44
1
  0
LINE
  5
45
100
AcDbEntity
  8
SEMA2D
100
AcDbLine
370
9
 62
7
  6
_SOLID
 10
3.1104941372
 20
5.4989388908
 30
0
 11
3.1104941372
 21
5.5073388908
 31
0
  0
LINE
  5
46
100
AcDbEntity
  8
SEMA2D
100
AcDbLine
370
9
 62
7
  6
_SOLID
 10
3.1104941372
 20
5.4989388908
 30
0
 11
3.1104941372
 21
5.4905388908
 31
0
  0
LINE
  5
47
100
AcDbEntity
  8
SEMA2D
100
AcDbLine
370
9
 62
7
  6
_SOLID
 10
3.2796305387
 20
5.4989388908
 30
0
 11
3.2796305387
 21
5.5073388908
 31
0
  0
LINE
  5
48
100
AcDbEntity
  8
SEMA2D
100
AcDbLine
370
9
 62
7
  6
_SOLID
 10
3.2796305387
 20
5.4989388908
 30
0
 11
3.2796305387
 21
5.4905388908
 31
0
  0
LINE
  5
49
100
AcDbEntity
  8
SEMA2D
100
AcDbLine
370
9
 62
7
  6
_SOLID
 10
2.98148562511271
 20
5.49893871789997
 30
0
 11
2.99964060451271
 21
5.49893874219997
 31
0
  0
MTEXT
  5
4A
100
AcDbEntity
  8
SEMATEXT
100
AcDbMText
370
9
 62
7
 10
2.9833892943879
 20
5.51689929722849
 30
0
 40
0.010476
  1
{\fHelveticaNeueLT Com 55 Roman;18}
 50
7.66890132405043E-5
 41
0
  7
STANDARD
 71
0
 73
1
 44
1
  0
LINE
  5
4F
100
AcDbEntity
  8
SEMA2D
100
AcDbLine
370
9
 62
7
  6
_SOLID
 10
2.98148562511271
 20
5.49893871789997
 30
0
 11
2.98148561386951
 21
5.50733871789996
 31
0
  0
LINE
  5
50
100
AcDbEntity
  8
SEMA2D
100
AcDbLine
370
9
 62
7
  6
_SOLID
 10
2.98148562511271
 20
5.49893871789997
 30
0
 11
2.98148563635591
 21
5.49053871789998
 31
0
  0
LINE
  5
51
100
AcDbEntity
  8
SEMA2D
100
AcDbLine
370
9
 62
7
  6
_SOLID
 10
2.99964060451271
 20
5.49893874219997
 30
0
 11
2.99964059326951
 21
5.50733874219996
 31
0
  0
LINE
  5
52
100
AcDbEntity
  8
SEMA2D
100
AcDbLine
370
9
 62
7
  6
_SOLID
 10
2.99964060451271
 20
5.49893874219997
 30
0
 11
2.99964061575591
 21
5.49053874219998
 31
0
  0
LINE
  5
53
100
AcDbEntity
  8
SEMA2D
100
AcDbLine
370
9
 62
7
  6
_SOLID
 10
2.9996406044
 20
5.4989388908
 30
0
 11
3.0154993259
 21
5.4989388908
 31
0
  0
MTEXT
  5
54
100
AcDbEntity
  8
SEMATEXT
100
AcDbMText
370
9
 62
7
 10
3.00037183427021
 20
5.51689946758049
 30
0
 40
0.010476
  1
{\fHelveticaNeueLT Com 55 Roman;16}
 50
0
 41
0
  7
STANDARD
 71
0
 73
1
 44
1
  0
LINE
  5
59
100
AcDbEntity
  8
SEMA2D
100
AcDbLine
370
9
 62
7
  6
_SOLID
 10
2.9996406044
 20
5.4989388908
 30
0
 11
2.9996406044
 21
5.5073388908
 31
0
  0
LINE
  5
5A
100
AcDbEntity
  8
SEMA2D
100
AcDbLine
370
9
 62
7
  6
_SOLID
 10
2.9996406044
 20
5.4989388908
 30
0
 11
2.9996406044
 21
5.4905388908
 31
0
  0
LINE
  5
5B
100
AcDbEntity
  8
SEMA2D
100
AcDbLine
370
9
 62
7
  6
_SOLID
 10
3.0154993259
 20
5.4989388908
 30
0
 11
3.0154993259
 21
5.5073388908
 31
0
  0
LINE
  5
5C
100
AcDbEntity
  8
SEMA2D
100
AcDbLine
370
9
 62
7
  6
_SOLID
 10
3.0154993259
 20
5.4989388908
 30
0
 11
3.0154993259
 21
5.4905388908
 31
0
  0
LINE
  5
5D
100
AcDbEntity
  8
SEMA2D
100
AcDbLine
370
9
 62
7
  6
_SOLID
 10
2.9649979439
 20
5.4689389524
 30
0
 11
2.9649979439
 21
5.4446404546
 31
0
  0
MTEXT
  5
5E
100
AcDbEntity
  8
SEMATEXT
100
AcDbMText
370
9
 62
7
 10
2.9669222914122
 20
5.44961590711498
 30
0
 40
0.010476
  1
{\fHelveticaNeueLT Com 55 Roman;24}
 50
90
 41
0
  7
STANDARD
 71
0
 73
1
 44
1
  0
LINE
  5
63
100
AcDbEntity
  8
SEMA2D
100
AcDbLine
370
9
 62
7
  6
_SOLID
 10
2.9649979439
 20
5.4689389524
 30
0
 11
2.9733979439
 21
5.4689389524
 31
0
  0
LINE
  5
64
100
AcDbEntity
  8
SEMA2D
100
AcDbLine
370
9
 62
7
  6
_SOLID
 10
2.9649979439
 20
5.4689389524
 30
0
 11
2.9565979439
 21
5.4689389524
 31
0
  0
LINE
  5
65
100
AcDbEntity
  8
SEMA2D
100
AcDbLine
370
9
 62
7
  6
_SOLID
 10
2.9649979439
 20
5.4446404546
 30
0
 11
2.9733979439
 21
5.4446404546
 31
0
  0
LINE
  5
66
100
AcDbEntity
  8
SEMA2D
100
AcDbLine
370
9
 62
7
  6
_SOLID
 10
2.9649979439
 20
5.4446404546
 30
0
 11
2.9565979439
 21
5.4446404546
 31
0
  0
LINE
  5
67
100
AcDbEntity
  8
SEMA2D
100
AcDbLine
370
9
 62
7
  6
_SOLID
 10
3.1104941372
 20
5.6067169429
 30
0
 11
3.2796305387
 21
5.6067169429
 31
0
  0
MTEXT
  5
68
100
AcDbEntity
  8
SEMATEXT
100
AcDbMText
370
9
 62
7
 10
3.1839593444831
 20
5.62467751968049
 30
0
 40
0.010476
  1
{\fHelveticaNeueLT Com 55 Roman;169}
 50
0
 41
0
  7
STANDARD
 71
0
 73
1
 44
1
  0
LINE
  5
6D
100
AcDbEntity
  8
SEMA2D
100
AcDbLine
370
9
 62
7
  6
_SOLID
 10
3.1104941372
 20
5.6067169429
 30
0
 11
3.1104941372
 21
5.6151169429
 31
0
  0
LINE
  5
6E
100
AcDbEntity
  8
SEMA2D
100
AcDbLine
370
9
 62
7
  6
_SOLID
 10
3.1104941372
 20
5.6067169429
 30
0
 11
3.1104941372
 21
5.5983169429
 31
0
  0
LINE
  5
6F
100
AcDbEntity
  8
SEMA2D
100
AcDbLine
370
9
 62
7
  6
_SOLID
 10
3.2796305387
 20
5.6067169429
 30
0
 11
3.2796305387
 21
5.6151169429
 31
0
  0
LINE
  5
70
100
AcDbEntity
  8
SEMA2D
100
AcDbLine
370
9
 62
7
  6
_SOLID
 10
3.2796305387
 20
5.6067169429
 30
0
 11
3.2796305387
 21
5.5983169429
 31
0
  0
LINE
  5
71
100
AcDbEntity
  8
SEMA2D
100
AcDbLine
370
9
 62
9
  6
_SOLID
 10
3.1355395478
 20
5.4330146814
 30
0
 11
3.1345339389
 21
5.431795464
 31
0
  0
LINE
  5
72
100
AcDbEntity
  8
SEMA2D
100
AcDbLine
370
9
 62
9
  6
_SOLID
 10
3.1320777499
 20
5.3962408062
 30
0
 11
3.1294838083
 21
5.3935964367
 31
0
  0
LINE
  5
73
100
AcDbEntity
  8
SEMA2D
100
AcDbLine
370
9
 62
9
  6
_SOLID
 10
3.2545779661
 20
5.4484746928
 30
0
 11
3.2550204802
 21
5.4487505952
 31
0
  0
LINE
  5
74
100
AcDbEntity
  8
SEMA2D
100
AcDbLine
370
9
 62
9
  6
_SOLID
 10
3.2172056305
 20
5.4133561706
 30
0
 11
3.2170336226
 21
5.4133025963
 31
0
  0
LINE
  5
75
100
AcDbEntity
  8
SEMA2D
100
AcDbLine
370
9
 62
9
  6
_SOLID
 10
3.1589195283
 20
5.3830643576
 30
0
 11
3.1577782119
 21
5.38190085
 31
0
  0
LINE
  5
76
100
AcDbEntity
  8
SEMA2D
100
AcDbLine
370
9
 62
9
  6
_SOLID
 10
3.2079685283
 20
5.4107267209
 30
0
 11
3.2049532691
 21
5.4085967821
 31
0
  0
LINE
  5
77
100
AcDbEntity
  8
SEMA2D
100
AcDbLine
370
9
 62
7
  6
_SOLID
 10
3.1104941372
 20
5.2715031196
 30
0
 11
3.1104941372
 21
5.4689388908
 31
0
  0
LINE
  5
78
100
AcDbEntity
  8
SEMA2D
100
AcDbLine
370
9
 62
7
  6
_SOLID
 10
3.1111930479
 20
5.2715031196
 30
0
 11
3.1111930479
 21
5.4682263908
 31
0
  0
LINE
  5
79
100
AcDbEntity
  8
SEMA2D
100
AcDbLine
370
9
 62
9
  6
_SOLID
 10
3.1115232736
 20
5.4659923483
 30
0
 11
3.1115232736
 21
5.2715031196
 31
0
  0
LINE
  5
7A
100
AcDbEntity
  8
SEMA2D
100
AcDbLine
370
9
 62
9
  6
_SOLID
 10
3.1485039266
 20
5.3704302941
 30
0
 11
3.1480665001
 21
5.3695979383
 31
0
  0
LINE
  5
7B
100
AcDbEntity
  8
SEMA2D
100
AcDbLine
370
9
 62
9
  6
_SOLID
 10
3.1539187097
 20
5.3710369897
 30
0
 11
3.1527658823
 21
5.3698617473
 31
0
  0
LINE
  5
7C
100
AcDbEntity
  8
SEMA2D
100
AcDbLine
370
9
 62
9
  6
_SOLID
 10
3.1639950477
 20
5.3755631373
 30
0
 11
3.1651363642
 21
5.3767266449
 31
0
  0
LINE
  5
7D
100
AcDbEntity
  8
SEMA2D
100
AcDbLine
370
9
 62
9
  6
_SOLID
 10
3.116176293
 20
5.3987390017
 30
0
 11
3.116176293
 21
5.4677481993
 31
0
  0
LINE
  5
7E
100
AcDbEntity
  8
SEMA2D
100
AcDbLine
370
9
 62
9
  6
_SOLID
 10
3.1182410177
 20
5.3880814183
 30
0
 11
3.118241011
 21
5.2678044521
 31
0
  0
LINE
  5
7F
100
AcDbEntity
  8
SEMA2D
100
AcDbLine
370
9
 62
9
  6
_SOLID
 10
3.1239209462
 20
5.4448160081
 30
0
 11
3.1239209462
 21
5.4072874979
 31
0
  0
LINE
  5
80
100
AcDbEntity
  8
SEMA2D
100
AcDbLine
370
9
 62
9
  6
_SOLID
 10
3.1255513381
 20
5.4448159999
 30
0
 11
3.1255513381
 21
5.407287504
 31
0
  0
LINE
  5
81
100
AcDbEntity
  8
SEMA2D
100
AcDbLine
370
9
 62
9
  6
_SOLID
 10
3.1275893284
 20
5.407287504
 30
0
 11
3.1275893284
 21
5.4448159998
 31
0
  0
LINE
  5
82
100
AcDbEntity
  8
SEMA2D
100
AcDbLine
370
9
 62
9
  6
_SOLID
 10
3.1334188125
 20
5.4079929688
 30
0
 11
3.133418811
 21
5.4155608201
 31
0
  0
LINE
  5
83
100
AcDbEntity
  8
SEMA2D
100
AcDbLine
370
9
 62
9
  6
_SOLID
 10
3.1334188121
 20
5.4342463729
 30
0
 11
3.133418811
 21
5.43646082
 31
0
  0
LINE
  5
84
100
AcDbEntity
  8
SEMA2D
100
AcDbLine
370
9
 62
9
  6
_SOLID
 10
3.1341569411
 20
5.4515113098
 30
0
 11
3.1341569322
 21
5.4552510178
 31
0
  0
LINE
  5
85
100
AcDbEntity
  8
SEMA2D
100
AcDbLine
370
9
 62
9
  6
_SOLID
 10
3.1349921651
 20
5.4079929738
 30
0
 11
3.1349921624
 21
5.4155608197
 31
0
  0
LINE
  5
86
100
AcDbEntity
  8
SEMA2D
100
AcDbLine
370
9
 62
9
  6
_SOLID
 10
3.1349921643
 20
5.4342463705
 30
0
 11
3.1349921624
 21
5.4364608197
 31
0
  0
LINE
  5
87
100
AcDbEntity
  8
SEMA2D
100
AcDbLine
370
9
 62
9
  6
_SOLID
 10
3.1361450069
 20
5.4283105996
 30
0
 11
3.1361450069
 21
5.4286405311
 31
0
  0
LINE
  5
88
100
AcDbEntity
  8
SEMA2D
100
AcDbLine
370
9
 62
9
  6
_SOLID
 10
3.137352183
 20
5.4046222187
 30
0
 11
3.1373521895
 21
5.4155608197
 31
0
  0
LINE
  5
89
100
AcDbEntity
  8
SEMA2D
100
AcDbLine
370
9
 62
9
  6
_SOLID
 10
3.1373521867
 20
5.4309583236
 30
0
 11
3.1373521895
 21
5.4364608197
 31
0
  0
LINE
  5
8A
100
AcDbEntity
  8
SEMA2D
100
AcDbLine
370
9
 62
9
  6
_SOLID
 10
3.1548663461
 20
5.4463718124
 30
0
 11
3.1551173868
 21
5.4488857188
 31
0
  0
LINE
  5
8B
100
AcDbEntity
  8
SEMA2D
100
AcDbLine
370
9
 62
9
  6
_SOLID
 10
3.1564804119
 20
5.4460418861
 30
0
 11
3.1567314485
 21
5.4485557524
 31
0
  0
LINE
  5
8C
100
AcDbEntity
  8
SEMA2D
100
AcDbLine
370
9
 62
9
  6
_SOLID
 10
3.1361450294
 20
5.4283105996
 30
0
 11
3.137335842
 21
5.4163856485
 31
0
  0
LINE
  5
8D
100
AcDbEntity
  8
SEMA2D
100
AcDbLine
370
9
 62
9
  6
_SOLID
 10
3.1362104006
 20
5.4485557515
 30
0
 11
3.137335842
 21
5.4372856485
 31
0
  0
LINE
  5
8E
100
AcDbEntity
  8
SEMA2D
100
AcDbLine
370
9
 62
9
  6
_SOLID
 10
3.14425625
 20
5.2506225605
 30
0
 11
3.1442562227
 21
5.3686338387
 31
0
  0
LINE
  5
8F
100
AcDbEntity
  8
SEMA2D
100
AcDbLine
370
9
 62
9
  6
_SOLID
 10
3.1466064394
 20
5.4163856537
 30
0
 11
3.1466064395
 21
5.4155607958
 31
0
  0
LINE
  5
90
100
AcDbEntity
  8
SEMA2D
100
AcDbLine
370
9
 62
9
  6
_SOLID
 10
3.1466629007
 20
5.4515113098
 30
0
 11
3.1466629007
 21
5.4502054837
 31
0
  0
LINE
  5
91
100
AcDbEntity
  8
SEMA2D
100
AcDbLine
370
9
 62
9
  6
_SOLID
 10
3.1482769659
 20
5.4515113098
 30
0
 11
3.1482769659
 21
5.450205445
 31
0
  0
LINE
  5
92
100
AcDbEntity
  8
SEMA2D
100
AcDbLine
370
9
 62
9
  6
_SOLID
 10
3.149708853
 20
5.4434630202
 30
0
 11
3.1497088532
 21
5.4451731388
 31
0
  0
LINE
  5
93
100
AcDbEntity
  8
SEMA2D
100
AcDbLine
370
9
 62
9
  6
_SOLID
 10
3.1501863361
 20
5.4590389438
 30
0
 11
3.1501863398
 21
5.4578781158
 31
0
  0
LINE
  5
94
100
AcDbEntity
  8
SEMA2D
100
AcDbLine
370
9
 62
9
  6
_SOLID
 10
3.151468178
 20
5.3652723597
 30
0
 11
3.1514682088
 21
5.2480712517
 31
0
  0
LINE
  5
95
100
AcDbEntity
  8
SEMA2D
100
AcDbLine
370
9
 62
9
  6
_SOLID
 10
3.1532734068
 20
5.4590389372
 30
0
 11
3.1532734049
 21
5.4578781228
 31
0
  0
LINE
  5
96
100
AcDbEntity
  8
SEMA2D
100
AcDbLine
370
9
 62
9
  6
_SOLID
 10
3.1537508898
 20
5.443463025
 30
0
 11
3.1537508894
 21
5.4451731388
 31
0
  0
LINE
  5
97
100
AcDbEntity
  8
SEMA2D
100
AcDbLine
370
9
 62
9
  6
_SOLID
 10
3.1551827769
 20
5.450205445
 30
0
 11
3.1551827769
 21
5.4515113098
 31
0
  0
LINE
  5
98
100
AcDbEntity
  8
SEMA2D
100
AcDbLine
370
9
 62
9
  6
_SOLID
 10
3.2202268937
 20
5.4076576813
 30
0
 11
3.2193036415
 21
5.406212998
 31
0
  0
LINE
  5
99
100
AcDbEntity
  8
SEMA2D
100
AcDbLine
370
9
 62
9
  6
_SOLID
 10
3.2249883117
 20
5.3767266449
 30
0
 11
3.2312051475
 21
5.3830643576
 31
0
  0
LINE
  5
9A
100
AcDbEntity
  8
SEMA2D
100
AcDbLine
370
9
 62
9
  6
_SOLID
 10
3.2261296281
 20
5.3755631373
 30
0
 11
3.2323464639
 21
5.3819008499
 31
0
  0
LINE
  5
9B
100
AcDbEntity
  8
SEMA2D
100
AcDbLine
370
9
 62
9
  6
_SOLID
 10
3.2324055845
 20
5.38190721
 30
0
 11
3.2259902626
 21
5.3753669943
 31
0
  0
LINE
  5
9C
100
AcDbEntity
  8
SEMA2D
100
AcDbLine
370
9
 62
9
  6
_SOLID
 10
3.2371501743
 20
5.3838346458
 30
0
 11
3.2270729514
 21
5.3735619618
 31
0
  0
LINE
  5
9D
100
AcDbEntity
  8
SEMA2D
100
AcDbLine
370
9
 62
9
  6
_SOLID
 10
3.1467282943
 20
5.4485557524
 30
0
 11
3.1469793309
 21
5.4460418861
 31
0
  0
LINE
  5
9E
100
AcDbEntity
  8
SEMA2D
100
AcDbLine
370
9
 62
9
  6
_SOLID
 10
3.148342356
 20
5.4488857188
 30
0
 11
3.1485933967
 21
5.4463718119
 31
0
  0
LINE
  5
9F
100
AcDbEntity
  8
SEMA2D
100
AcDbLine
370
9
 62
9
  6
_SOLID
 10
3.1567968421
 20
5.4502054837
 30
0
 11
3.1567968421
 21
5.4515113098
 31
0
  0
LINE
  5
A0
100
AcDbEntity
  8
SEMA2D
100
AcDbLine
370
9
 62
9
  6
_SOLID
 10
3.1654092781
 20
5.4080706801
 30
0
 11
3.1654092822
 21
5.4046222188
 31
0
  0
LINE
  5
A1
100
AcDbEntity
  8
SEMA2D
100
AcDbLine
370
9
 62
9
  6
_SOLID
 10
3.1689677563
 20
5.4163856517
 30
0
 11
3.1689677563
 21
5.4155608208
 31
0
  0
LINE
  5
A2
100
AcDbEntity
  8
SEMA2D
100
AcDbLine
370
9
 62
9
  6
_SOLID
 10
3.1725203537
 20
5.4283105996
 30
0
 11
3.1713295037
 21
5.4163856722
 31
0
  0
LINE
  5
A3
100
AcDbEntity
  8
SEMA2D
100
AcDbLine
370
9
 62
9
  6
_SOLID
 10
3.1730910532
 20
5.4175326388
 30
0
 11
3.1729435689
 21
5.4160557407
 31
0
  0
LINE
  5
A4
100
AcDbEntity
  8
SEMA2D
100
AcDbLine
370
9
 62
9
  6
_SOLID
 10
3.2580469259
 20
5.3962408062
 30
0
 11
3.2326579534
 21
5.3703582174
 31
0
  0
LINE
  5
A5
100
AcDbEntity
  8
SEMA2D
100
AcDbLine
370
9
 62
9
  6
_SOLID
 10
3.2594880026
 20
5.39477171
 30
0
 11
3.2362059667
 21
5.3710369904
 31
0
  0
LINE
  5
A6
100
AcDbEntity
  8
SEMA2D
100
AcDbLine
370
9
 62
9
  6
_SOLID
 10
3.260640868
 20
5.3935964374
 30
0
 11
3.2373587961
 21
5.3698616808
 31
0
  0
LINE
  5
A7
100
AcDbEntity
  8
SEMA2D
100
AcDbLine
370
9
 62
9
  6
_SOLID
 10
3.1713049801
 20
5.415560796
 30
0
 11
3.1713049801
 21
5.4133560799
 31
0
  0
LINE
  5
A8
100
AcDbEntity
  8
SEMA2D
100
AcDbLine
370
9
 62
9
  6
_SOLID
 10
3.1725203364
 20
5.4283105996
 30
0
 11
3.1725203364
 21
5.4286405395
 31
0
  0
LINE
  5
A9
100
AcDbEntity
  8
SEMA2D
100
AcDbLine
370
9
 62
9
  6
_SOLID
 10
3.1729190453
 20
5.415560796
 30
0
 11
3.1729190453
 21
5.4133561706
 31
0
  0
LINE
  5
AA
100
AcDbEntity
  8
SEMA2D
100
AcDbLine
370
9
 62
9
  6
_SOLID
 10
3.1730910532
 20
5.4175326388
 30
0
 11
3.1730910532
 21
5.4133025963
 31
0
  0
LINE
  5
AB
100
AcDbEntity
  8
SEMA2D
100
AcDbLine
370
9
 62
9
  6
_SOLID
 10
3.1747051184
 20
5.4175326388
 30
0
 11
3.1747051184
 21
5.413302526
 31
0
  0
LINE
  5
AC
100
AcDbEntity
  8
SEMA2D
100
AcDbLine
370
9
 62
9
  6
_SOLID
 10
3.1757230727
 20
5.2320696762
 30
0
 11
3.1757231578
 21
5.3774426771
 31
0
  0
LINE
  5
AD
100
AcDbEntity
  8
SEMA2D
100
AcDbLine
370
9
 62
9
  6
_SOLID
 10
3.1829350172
 20
5.2295183758
 30
0
 11
3.1829350833
 21
5.3871963921
 31
0
  0
LINE
  5
AE
100
AcDbEntity
  8
SEMA2D
100
AcDbLine
370
9
 62
9
  6
_SOLID
 10
3.2264540548
 20
5.3725201944
 30
0
 11
3.2270729492
 21
5.3735619631
 31
0
  0
LINE
  5
AF
100
AcDbEntity
  8
SEMA2D
100
AcDbLine
370
9
 62
9
  6
_SOLID
 10
3.2312051475
 20
5.3830643576
 30
0
 11
3.2320697095
 21
5.3844735188
 31
0
  0
LINE
  5
B0
100
AcDbEntity
  8
SEMA2D
100
AcDbLine
370
9
 62
9
  6
_SOLID
 10
3.1833254624
 20
5.4169263908
 30
0
 11
3.1833254624
 21
5.414540028
 31
0
  0
LINE
  5
B1
100
AcDbEntity
  8
SEMA2D
100
AcDbLine
370
9
 62
9
  6
_SOLID
 10
3.1853634527
 20
5.4169263908
 30
0
 11
3.1853634527
 21
5.414540028
 31
0
  0
LINE
  5
B2
100
AcDbEntity
  8
SEMA2D
100
AcDbLine
370
9
 62
9
  6
_SOLID
 10
3.1869938449
 20
5.4169263908
 30
0
 11
3.1869938446
 21
5.4145400189
 31
0
  0
LINE
  5
B3
100
AcDbEntity
  8
SEMA2D
100
AcDbLine
370
9
 62
9
  6
_SOLID
 10
3.2321594435
 20
5.3693832413
 30
0
 11
3.2326579746
 21
5.3703582056
 31
0
  0
LINE
  5
B4
100
AcDbEntity
  8
SEMA2D
100
AcDbLine
370
9
 62
9
  6
_SOLID
 10
3.2031308315
 20
5.4145400177
 30
0
 11
3.2031308309
 21
5.4169263908
 31
0
  0
LINE
  5
B5
100
AcDbEntity
  8
SEMA2D
100
AcDbLine
370
9
 62
9
  6
_SOLID
 10
3.2047612232
 20
5.414540028
 30
0
 11
3.2047612231
 21
5.4169263908
 31
0
  0
LINE
  5
B6
100
AcDbEntity
  8
SEMA2D
100
AcDbLine
370
9
 62
9
  6
_SOLID
 10
3.2067992134
 20
5.414540028
 30
0
 11
3.2067992134
 21
5.4169263908
 31
0
  0
LINE
  5
B7
100
AcDbEntity
  8
SEMA2D
100
AcDbLine
370
9
 62
9
  6
_SOLID
 10
3.2071896481
 20
5.2295183686
 30
0
 11
3.2071895692
 21
5.3871964247
 31
0
  0
LINE
  5
B8
100
AcDbEntity
  8
SEMA2D
100
AcDbLine
370
9
 62
9
  6
_SOLID
 10
3.1574667012
 20
5.3703582056
 30
0
 11
3.1579652323
 21
5.3693832413
 31
0
  0
LINE
  5
B9
100
AcDbEntity
  8
SEMA2D
100
AcDbLine
370
9
 62
9
  6
_SOLID
 10
3.2144016158
 20
5.2319761557
 30
0
 11
3.2144015445
 21
5.3774424864
 31
0
  0
LINE
  5
BA
100
AcDbEntity
  8
SEMA2D
100
AcDbLine
370
9
 62
9
  6
_SOLID
 10
3.2154195574
 20
5.413302526
 30
0
 11
3.2154195574
 21
5.4175326388
 31
0
  0
LINE
  5
BB
100
AcDbEntity
  8
SEMA2D
100
AcDbLine
370
9
 62
9
  6
_SOLID
 10
3.2170336226
 20
5.4133025963
 30
0
 11
3.2170336226
 21
5.4175326388
 31
0
  0
LINE
  5
BC
100
AcDbEntity
  8
SEMA2D
100
AcDbLine
370
9
 62
9
  6
_SOLID
 10
3.2172056305
 20
5.4133561706
 30
0
 11
3.2172056305
 21
5.4155608184
 31
0
  0
LINE
  5
BD
100
AcDbEntity
  8
SEMA2D
100
AcDbLine
370
9
 62
9
  6
_SOLID
 10
3.2176043394
 20
5.4283105996
 30
0
 11
3.2176043394
 21
5.4286405311
 31
0
  0
LINE
  5
BE
100
AcDbEntity
  8
SEMA2D
100
AcDbLine
370
9
 62
9
  6
_SOLID
 10
3.2188196957
 20
5.4133560799
 30
0
 11
3.2188196957
 21
5.4155608184
 31
0
  0
LINE
  5
BF
100
AcDbEntity
  8
SEMA2D
100
AcDbLine
370
9
 62
9
  6
_SOLID
 10
3.2211569195
 20
5.4155608208
 30
0
 11
3.2211569195
 21
5.4163856517
 31
0
  0
LINE
  5
C0
100
AcDbEntity
  8
SEMA2D
100
AcDbLine
370
9
 62
9
  6
_SOLID
 10
3.2247153936
 20
5.4046222188
 30
0
 11
3.2247153977
 21
5.4080706801
 31
0
  0
LINE
  5
C1
100
AcDbEntity
  8
SEMA2D
100
AcDbLine
370
9
 62
9
  6
_SOLID
 10
3.2415312791
 20
5.4463718124
 30
0
 11
3.2417823198
 21
5.4488857188
 31
0
  0
LINE
  5
C2
100
AcDbEntity
  8
SEMA2D
100
AcDbLine
370
9
 62
9
  6
_SOLID
 10
3.1589195288
 20
5.383064358
 30
0
 11
3.1580549977
 21
5.3844734589
 31
0
  0
LINE
  5
C3
100
AcDbEntity
  8
SEMA2D
100
AcDbLine
370
9
 62
9
  6
_SOLID
 10
3.1630517266
 20
5.3735619631
 30
0
 11
3.1636706212
 21
5.3725201937
 31
0
  0
LINE
  5
C4
100
AcDbEntity
  8
SEMA2D
100
AcDbLine
370
9
 62
9
  6
_SOLID
 10
3.2171811091
 20
5.4160557183
 30
0
 11
3.2170336226
 21
5.4175326388
 31
0
  0
LINE
  5
C5
100
AcDbEntity
  8
SEMA2D
100
AcDbLine
370
9
 62
9
  6
_SOLID
 10
3.2187951743
 20
5.4163856498
 30
0
 11
3.2176043218
 21
5.4283105996
 31
0
  0
LINE
  5
C6
100
AcDbEntity
  8
SEMA2D
100
AcDbLine
370
9
 62
9
  6
_SOLID
 10
3.2333278337
 20
5.4515113098
 30
0
 11
3.2333278337
 21
5.4502054837
 31
0
  0
LINE
  5
C7
100
AcDbEntity
  8
SEMA2D
100
AcDbLine
370
9
 62
9
  6
_SOLID
 10
3.2349418989
 20
5.4515113098
 30
0
 11
3.2349418989
 21
5.450205445
 31
0
  0
LINE
  5
C8
100
AcDbEntity
  8
SEMA2D
100
AcDbLine
370
9
 62
9
  6
_SOLID
 10
3.236373786
 20
5.4434630202
 30
0
 11
3.2363737862
 21
5.4451731388
 31
0
  0
LINE
  5
C9
100
AcDbEntity
  8
SEMA2D
100
AcDbLine
370
9
 62
9
  6
_SOLID
 10
3.2368512691
 20
5.4590389438
 30
0
 11
3.2368512728
 21
5.4578781158
 31
0
  0
LINE
  5
CA
100
AcDbEntity
  8
SEMA2D
100
AcDbLine
370
9
 62
9
  6
_SOLID
 10
3.2431453449
 20
5.4460418861
 30
0
 11
3.2433963815
 21
5.4485557524
 31
0
  0
LINE
  5
CB
100
AcDbEntity
  8
SEMA2D
100
AcDbLine
370
9
 62
9
  6
_SOLID
 10
3.2527888338
 20
5.4372856485
 30
0
 11
3.2539142752
 21
5.4485557515
 31
0
  0
LINE
  5
CC
100
AcDbEntity
  8
SEMA2D
100
AcDbLine
370
9
 62
9
  6
_SOLID
 10
3.1294838083
 20
5.3935964367
 30
0
 11
3.1527658828
 21
5.3698616776
 31
0
  0
LINE
  5
CD
100
AcDbEntity
  8
SEMA2D
100
AcDbLine
370
9
 62
9
  6
_SOLID
 10
3.1306366732
 20
5.39477171
 30
0
 11
3.1539187098
 21
5.3710369898
 31
0
  0
LINE
  5
CE
100
AcDbEntity
  8
SEMA2D
100
AcDbLine
370
9
 62
9
  6
_SOLID
 10
3.157466721
 20
5.3703582166
 30
0
 11
3.1320777499
 21
5.3962408062
 31
0
  0
LINE
  5
CF
100
AcDbEntity
  8
SEMA2D
100
AcDbLine
370
9
 62
9
  6
_SOLID
 10
3.2333932273
 20
5.4485557524
 30
0
 11
3.2336442639
 21
5.4460418861
 31
0
  0
LINE
  5
D0
100
AcDbEntity
  8
SEMA2D
100
AcDbLine
370
9
 62
9
  6
_SOLID
 10
3.235007289
 20
5.4488857188
 30
0
 11
3.2352583297
 21
5.4463718119
 31
0
  0
LINE
  5
D1
100
AcDbEntity
  8
SEMA2D
100
AcDbLine
370
9
 62
9
  6
_SOLID
 10
3.2386565115
 20
5.3652723427
 30
0
 11
3.2386564743
 21
5.2480712566
 31
0
  0
LINE
  5
D2
100
AcDbEntity
  8
SEMA2D
100
AcDbLine
370
9
 62
9
  6
_SOLID
 10
3.2399383398
 20
5.4590389372
 30
0
 11
3.2399383379
 21
5.4578781228
 31
0
  0
LINE
  5
D3
100
AcDbEntity
  8
SEMA2D
100
AcDbLine
370
9
 62
9
  6
_SOLID
 10
3.2404158228
 20
5.443463025
 30
0
 11
3.2404158224
 21
5.4451731388
 31
0
  0
LINE
  5
D4
100
AcDbEntity
  8
SEMA2D
100
AcDbLine
370
9
 62
9
  6
_SOLID
 10
3.2418477099
 20
5.450205445
 30
0
 11
3.2418477099
 21
5.4515113098
 31
0
  0
LINE
  5
D5
100
AcDbEntity
  8
SEMA2D
100
AcDbLine
370
9
 62
9
  6
_SOLID
 10
3.2434617751
 20
5.4502054837
 30
0
 11
3.2434617751
 21
5.4515113098
 31
0
  0
LINE
  5
D6
100
AcDbEntity
  8
SEMA2D
100
AcDbLine
370
9
 62
9
  6
_SOLID
 10
3.2435182363
 20
5.4155607958
 30
0
 11
3.2435182364
 21
5.4163856537
 31
0
  0
LINE
  5
D7
100
AcDbEntity
  8
SEMA2D
100
AcDbLine
370
9
 62
9
  6
_SOLID
 10
3.2458684221
 20
5.250622558
 30
0
 11
3.2458684457
 21
5.3686338401
 31
0
  0
LINE
  5
D8
100
AcDbEntity
  8
SEMA2D
100
AcDbLine
370
9
 62
9
  6
_SOLID
 10
3.2527888338
 20
5.4163856485
 30
0
 11
3.2539796416
 21
5.4283105996
 31
0
  0
LINE
  5
D9
100
AcDbEntity
  8
SEMA2D
100
AcDbLine
370
9
 62
9
  6
_SOLID
 10
3.1630516998
 20
5.3735619471
 30
0
 11
3.1529745473
 21
5.3838350777
 31
0
  0
LINE
  5
DA
100
AcDbEntity
  8
SEMA2D
100
AcDbLine
370
9
 62
9
  6
_SOLID
 10
3.1641344132
 20
5.3753669943
 30
0
 11
3.1577190911
 21
5.38190721
 31
0
  0
LINE
  5
DB
100
AcDbEntity
  8
SEMA2D
100
AcDbLine
370
9
 62
9
  6
_SOLID
 10
3.1639950477
 20
5.3755631373
 30
0
 11
3.1577782119
 21
5.3819008499
 31
0
  0
LINE
  5
DC
100
AcDbEntity
  8
SEMA2D
100
AcDbLine
370
9
 62
9
  6
_SOLID
 10
3.1651363641
 20
5.3767266449
 30
0
 11
3.1589195283
 21
5.3830643576
 31
0
  0
LINE
  5
DD
100
AcDbEntity
  8
SEMA2D
100
AcDbLine
370
9
 62
9
  6
_SOLID
 10
3.1698977831
 20
5.4076576813
 30
0
 11
3.1708210343
 21
5.406212998
 31
0
  0
LINE
  5
DE
100
AcDbEntity
  8
SEMA2D
100
AcDbLine
370
9
 62
9
  6
_SOLID
 10
3.2527724863
 20
5.4364608197
 30
0
 11
3.2527724891
 21
5.4309583236
 31
0
  0
LINE
  5
DF
100
AcDbEntity
  8
SEMA2D
100
AcDbLine
370
9
 62
9
  6
_SOLID
 10
3.2527724863
 20
5.4155608197
 30
0
 11
3.2527724928
 21
5.4046222187
 31
0
  0
LINE
  5
E0
100
AcDbEntity
  8
SEMA2D
100
AcDbLine
370
9
 62
9
  6
_SOLID
 10
3.2539796689
 20
5.4283105995
 30
0
 11
3.2539796689
 21
5.4286405525
 31
0
  0
LINE
  5
E1
100
AcDbEntity
  8
SEMA2D
100
AcDbLine
370
9
 62
9
  6
_SOLID
 10
3.2551325134
 20
5.4364608197
 30
0
 11
3.2551325115
 21
5.4342463705
 31
0
  0
LINE
  5
E2
100
AcDbEntity
  8
SEMA2D
100
AcDbLine
370
9
 62
9
  6
_SOLID
 10
3.2551325134
 20
5.4155608197
 30
0
 11
3.2551325107
 21
5.4079929738
 31
0
  0
LINE
  5
E3
100
AcDbEntity
  8
SEMA2D
100
AcDbLine
370
9
 62
9
  6
_SOLID
 10
3.2559677347
 20
5.4515113098
 30
0
 11
3.2559677428
 21
5.455251018
 31
0
  0
LINE
  5
E4
100
AcDbEntity
  8
SEMA2D
100
AcDbLine
370
9
 62
9
  6
_SOLID
 10
3.2567058648
 20
5.43646082
 30
0
 11
3.2567058637
 21
5.4342463729
 31
0
  0
LINE
  5
E5
100
AcDbEntity
  8
SEMA2D
100
AcDbLine
370
9
 62
9
  6
_SOLID
 10
3.2567058648
 20
5.41556082
 30
0
 11
3.2567058633
 21
5.4079929688
 31
0
  0
LINE
  5
E6
100
AcDbEntity
  8
SEMA2D
100
AcDbLine
370
9
 62
9
  6
_SOLID
 10
3.2625353474
 20
5.4448159998
 30
0
 11
3.2625353474
 21
5.407287504
 31
0
  0
LINE
  5
E7
100
AcDbEntity
  8
SEMA2D
100
AcDbLine
370
9
 62
9
  6
_SOLID
 10
3.2645733376
 20
5.4448159998
 30
0
 11
3.2645733377
 21
5.407287504
 31
0
  0
LINE
  5
E8
100
AcDbEntity
  8
SEMA2D
100
AcDbLine
370
9
 62
9
  6
_SOLID
 10
3.2662037294
 20
5.4448160089
 30
0
 11
3.2662037297
 21
5.4072874988
 31
0
  0
LINE
  5
E9
100
AcDbEntity
  8
SEMA2D
100
AcDbLine
370
9
 62
9
  6
_SOLID
 10
3.2718836591
 20
5.2678044484
 30
0
 11
3.2718836581
 21
5.3880814183
 31
0
  0
LINE
  5
EA
100
AcDbEntity
  8
SEMA2D
100
AcDbLine
370
9
 62
9
  6
_SOLID
 10
3.2739483828
 20
5.3987390029
 30
0
 11
3.2739483828
 21
5.4677481993
 31
0
  0
LINE
  5
EB
100
AcDbEntity
  8
SEMA2D
100
AcDbLine
370
9
 62
9
  6
_SOLID
 10
3.2786014022
 20
5.4659923483
 30
0
 11
3.2786014022
 21
5.2715031196
 31
0
  0
LINE
  5
EC
100
AcDbEntity
  8
SEMA2D
100
AcDbLine
370
9
 62
7
  6
_SOLID
 10
3.2789316279
 20
5.4682263908
 30
0
 11
3.2789316279
 21
5.2715031196
 31
0
  0
LINE
  5
ED
100
AcDbEntity
  8
SEMA2D
100
AcDbLine
370
9
 62
7
  6
_SOLID
 10
3.2796305387
 20
5.4689388908
 30
0
 11
3.2796305387
 21
5.2715031196
 31
0
  0
LINE
  5
EE
100
AcDbEntity
  8
SEMA2D
100
AcDbLine
370
9
 62
9
  6
_SOLID
 10
3.2416210224
 20
5.3704304374
 30
0
 11
3.2420584545
 21
5.3695980936
 31
0
  0
LINE
  5
EF
100
AcDbEntity
  8
SEMA2D
100
AcDbLine
370
9
 62
9
  6
_SOLID
 10
3.2249883116
 20
5.3767266449
 30
0
 11
3.2261296281
 21
5.3755631373
 31
0
  0
LINE
  5
F0
100
AcDbEntity
  8
SEMA2D
100
AcDbLine
370
9
 62
9
  6
_SOLID
 10
3.2373587941
 20
5.369861748
 30
0
 11
3.2362059667
 21
5.3710369904
 31
0
  0
LINE
  5
F1
100
AcDbEntity
  8
SEMA2D
100
AcDbLine
370
9
 62
9
  6
_SOLID
 10
3.2323464639
 20
5.38190085
 30
0
 11
3.2312051475
 21
5.3830643576
 31
0
  0
LINE
  5
F2
100
AcDbEntity
  8
SEMA2D
100
AcDbLine
370
9
 62
9
  6
_SOLID
 10
3.1355467125
 20
5.4484746958
 30
0
 11
3.1351042569
 21
5.448750557
 31
0
  0
LINE
  5
F3
100
AcDbEntity
  8
SEMA2D
100
AcDbLine
370
9
 62
9
  6
_SOLID
 10
3.1851714069
 20
5.4085967829
 30
0
 11
3.1821561475
 21
5.4107267209
 31
0
  0
LINE
  5
F4
100
AcDbEntity
  8
SEMA2D
100
AcDbLine
370
9
 62
9
  6
_SOLID
 10
3.2527724928
 20
5.4046222187
 30
0
 11
3.2247153936
 21
5.4046222188
 31
0
  0
LINE
  5
F5
100
AcDbEntity
  8
SEMA2D
100
AcDbLine
370
9
 62
9
  6
_SOLID
 10
3.1654092822
 20
5.4046222188
 30
0
 11
3.137352183
 21
5.4046222187
 31
0
  0
LINE
  5
F6
100
AcDbEntity
  8
SEMA2D
100
AcDbLine
370
9
 62
9
  6
_SOLID
 10
3.1730910532
 20
5.4133025963
 30
0
 11
3.1729190453
 21
5.4133561706
 31
0
  0
LINE
  5
F7
100
AcDbEntity
  8
SEMA2D
100
AcDbLine
370
9
 62
9
  6
_SOLID
 10
3.2551378186
 20
5.4159194101
 30
0
 11
3.2567038084
 21
5.4159385153
 31
0
  0
LINE
  5
F8
100
AcDbEntity
  8
SEMA2D
100
AcDbLine
370
9
 62
9
  6
_SOLID
 10
3.2527724863
 20
5.4063464493
 30
0
 11
3.2247153977
 21
5.4063464494
 31
0
  0
LINE
  5
F9
100
AcDbEntity
  8
SEMA2D
100
AcDbLine
370
9
 62
9
  6
_SOLID
 10
3.1654092781
 20
5.4063464494
 30
0
 11
3.1373521895
 21
5.4063464493
 31
0
  0
LINE
  5
FA
100
AcDbEntity
  8
SEMA2D
100
AcDbLine
370
9
 62
9
  6
_SOLID
 10
3.1275893284
 20
5.407287504
 30
0
 11
3.1239209462
 21
5.4072874979
 31
0
  0
LINE
  5
FB
100
AcDbEntity
  8
SEMA2D
100
AcDbLine
370
9
 62
9
  6
_SOLID
 10
3.2662037297
 20
5.4072874988
 30
0
 11
3.2625353474
 21
5.407287504
 31
0
  0
LINE
  5
FC
100
AcDbEntity
  8
SEMA2D
100
AcDbLine
370
9
 62
9
  6
_SOLID
 10
3.1349921651
 20
5.4079929693
 30
0
 11
3.1334188125
 21
5.4079929688
 31
0
  0
LINE
  5
FD
100
AcDbEntity
  8
SEMA2D
100
AcDbLine
370
9
 62
9
  6
_SOLID
 10
3.2551325107
 20
5.4079929693
 30
0
 11
3.2567058633
 21
5.4079929688
 31
0
  0
LINE
  5
FE
100
AcDbEntity
  8
SEMA2D
100
AcDbLine
370
9
 62
9
  6
_SOLID
 10
3.2527724863
 20
5.4080706801
 30
0
 11
3.2247153977
 21
5.4080706801
 31
0
  0
LINE
  5
FF
100
AcDbEntity
  8
SEMA2D
100
AcDbLine
370
9
 62
9
  6
_SOLID
 10
3.1654092781
 20
5.4080706801
 30
0
 11
3.1373521895
 21
5.4080706801
 31
0
  0
LINE
  5
100
100
AcDbEntity
  8
SEMA2D
100
AcDbLine
370
9
 62
9
  6
_SOLID
 10
3.2170336226
 20
5.413302526
 30
0
 11
3.2154195574
 21
5.413302526
 31
0
  0
LINE
  5
101
100
AcDbEntity
  8
SEMA2D
100
AcDbLine
370
9
 62
9
  6
_SOLID
 10
3.1730910532
 20
5.413302526
 30
0
 11
3.1747051184
 21
5.413302526
 31
0
  0
LINE
  5
102
100
AcDbEntity
  8
SEMA2D
100
AcDbLine
370
9
 62
9
  6
_SOLID
 10
3.1729190453
 20
5.4133560799
 30
0
 11
3.1713049801
 21
5.4133560799
 31
0
  0
LINE
  5
103
100
AcDbEntity
  8
SEMA2D
100
AcDbLine
370
9
 62
9
  6
_SOLID
 10
3.2172056305
 20
5.4133560799
 30
0
 11
3.2188196957
 21
5.4133560799
 31
0
  0
LINE
  5
104
100
AcDbEntity
  8
SEMA2D
100
AcDbLine
370
9
 62
9
  6
_SOLID
 10
3.2067992134
 20
5.414540028
 30
0
 11
3.2031308315
 21
5.4145400177
 31
0
  0
LINE
  5
105
100
AcDbEntity
  8
SEMA2D
100
AcDbLine
370
9
 62
9
  6
_SOLID
 10
3.1833254624
 20
5.414540028
 30
0
 11
3.1869938446
 21
5.4145400189
 31
0
  0
LINE
  5
106
100
AcDbEntity
  8
SEMA2D
100
AcDbLine
370
9
 62
9
  6
_SOLID
 10
3.1729190453
 20
5.415560796
 30
0
 11
3.1713049801
 21
5.415560796
 31
0
  0
LINE
  5
107
100
AcDbEntity
  8
SEMA2D
100
AcDbLine
370
9
 62
9
  6
_SOLID
 10
3.1373521895
 20
5.4155608197
 30
0
 11
3.133418811
 21
5.4155608201
 31
0
  0
LINE
  5
108
100
AcDbEntity
  8
SEMA2D
100
AcDbLine
370
9
 62
9
  6
_SOLID
 10
3.2172056305
 20
5.4155608184
 30
0
 11
3.2188196957
 21
5.4155608184
 31
0
  0
LINE
  5
109
100
AcDbEntity
  8
SEMA2D
100
AcDbLine
370
9
 62
9
  6
_SOLID
 10
3.2527724863
 20
5.4155608197
 30
0
 11
3.2567058648
 21
5.41556082
 31
0
  0
LINE
  5
10A
100
AcDbEntity
  8
SEMA2D
100
AcDbLine
370
9
 62
9
  6
_SOLID
 10
3.1833254624
 20
5.4169263908
 30
0
 11
3.1869938449
 21
5.4169263908
 31
0
  0
LINE
  5
10B
100
AcDbEntity
  8
SEMA2D
100
AcDbLine
370
9
 62
9
  6
_SOLID
 10
3.2031308309
 20
5.4169263908
 30
0
 11
3.2067992134
 21
5.4169263908
 31
0
  0
LINE
  5
10C
100
AcDbEntity
  8
SEMA2D
100
AcDbLine
370
9
 62
9
  6
_SOLID
 10
3.2170336226
 20
5.4175326388
 30
0
 11
3.2154195574
 21
5.4175326388
 31
0
  0
LINE
  5
10D
100
AcDbEntity
  8
SEMA2D
100
AcDbLine
370
9
 62
9
  6
_SOLID
 10
3.1730910532
 20
5.4175326388
 30
0
 11
3.1747051184
 21
5.4175326388
 31
0
  0
LINE
  5
10E
100
AcDbEntity
  8
SEMA2D
100
AcDbLine
370
9
 62
9
  6
_SOLID
 10
3.1349868572
 20
5.4159194097
 30
0
 11
3.1334208675
 21
5.4159385153
 31
0
  0
LINE
  5
10F
100
AcDbEntity
  8
SEMA2D
100
AcDbLine
370
9
 62
9
  6
_SOLID
 10
3.260640868
 20
5.3935964374
 30
0
 11
3.2580469259
 21
5.3962408062
 31
0
  0
LINE
  5
110
100
AcDbEntity
  8
SEMA2D
100
AcDbLine
370
9
 62
9
  6
_SOLID
 10
3.1361450294
 20
5.4283105996
 30
0
 11
3.1725203537
 21
5.4283105996
 31
0
  0
LINE
  5
111
100
AcDbEntity
  8
SEMA2D
100
AcDbLine
370
9
 62
9
  6
_SOLID
 10
3.2176043218
 20
5.4283105996
 30
0
 11
3.2539796416
 21
5.4283105996
 31
0
  0
LINE
  5
112
100
AcDbEntity
  8
SEMA2D
100
AcDbLine
370
9
 62
9
  6
_SOLID
 10
3.1361450069
 20
5.4286405311
 30
0
 11
3.1725203364
 21
5.4286405311
 31
0
  0
LINE
  5
113
100
AcDbEntity
  8
SEMA2D
100
AcDbLine
370
9
 62
9
  6
_SOLID
 10
3.2176043394
 20
5.4286405311
 30
0
 11
3.2539796689
 21
5.4286405311
 31
0
  0
LINE
  5
114
100
AcDbEntity
  8
SEMA2D
100
AcDbLine
370
9
 62
9
  6
_SOLID
 10
3.2527724891
 20
5.4309583236
 30
0
 11
3.1373521867
 21
5.4309583236
 31
0
  0
LINE
  5
115
100
AcDbEntity
  8
SEMA2D
100
AcDbLine
370
9
 62
9
  6
_SOLID
 10
3.2527724863
 20
5.4326825543
 30
0
 11
3.1373521895
 21
5.4326825543
 31
0
  0
LINE
  5
116
100
AcDbEntity
  8
SEMA2D
100
AcDbLine
370
9
 62
9
  6
_SOLID
 10
3.2545851301
 20
5.4330146787
 30
0
 11
3.255590732
 21
5.431795467
 31
0
  0
LINE
  5
117
100
AcDbEntity
  8
SEMA2D
100
AcDbLine
370
9
 62
9
  6
_SOLID
 10
3.1350324649
 20
5.4338346799
 30
0
 11
3.1335197795
 21
5.4334354676
 31
0
  0
LINE
  5
118
100
AcDbEntity
  8
SEMA2D
100
AcDbLine
370
9
 62
9
  6
_SOLID
 10
3.2551378186
 20
5.4368194101
 30
0
 11
3.2567038084
 21
5.4368385153
 31
0
  0
LINE
  5
119
100
AcDbEntity
  8
SEMA2D
100
AcDbLine
370
9
 62
9
  6
_SOLID
 10
3.1349921643
 20
5.4342463736
 30
0
 11
3.1334188121
 21
5.4342463729
 31
0
  0
LINE
  5
11A
100
AcDbEntity
  8
SEMA2D
100
AcDbLine
370
9
 62
9
  6
_SOLID
 10
3.2551325115
 20
5.4342463736
 30
0
 11
3.2567058637
 21
5.4342463729
 31
0
  0
LINE
  5
11B
100
AcDbEntity
  8
SEMA2D
100
AcDbLine
370
9
 62
9
  6
_SOLID
 10
3.2527724863
 20
5.4344067851
 30
0
 11
3.1373521895
 21
5.4344067851
 31
0
  0
LINE
  5
11C
100
AcDbEntity
  8
SEMA2D
100
AcDbLine
370
9
 62
9
  6
_SOLID
 10
3.133418811
 20
5.43646082
 30
0
 11
3.2567058648
 21
5.43646082
 31
0
  0
LINE
  5
11D
100
AcDbEntity
  8
SEMA2D
100
AcDbLine
370
9
 62
9
  6
_SOLID
 10
3.2527888338
 20
5.4372856485
 30
0
 11
3.137335842
 21
5.4372856485
 31
0
  0
LINE
  5
11E
100
AcDbEntity
  8
SEMA2D
100
AcDbLine
370
9
 62
9
  6
_SOLID
 10
3.149708853
 20
5.4434630202
 30
0
 11
3.1537508898
 21
5.4434630202
 31
0
  0
LINE
  5
11F
100
AcDbEntity
  8
SEMA2D
100
AcDbLine
370
9
 62
9
  6
_SOLID
 10
3.236373786
 20
5.4434630202
 30
0
 11
3.2404158228
 21
5.4434630202
 31
0
  0
LINE
  5
120
100
AcDbEntity
  8
SEMA2D
100
AcDbLine
370
9
 62
9
  6
_SOLID
 10
3.1275893284
 20
5.4448159998
 30
0
 11
3.1239209462
 21
5.4448160081
 31
0
  0
LINE
  5
121
100
AcDbEntity
  8
SEMA2D
100
AcDbLine
370
9
 62
9
  6
_SOLID
 10
3.2625353474
 20
5.4448159998
 30
0
 11
3.2662037294
 21
5.4448160089
 31
0
  0
LINE
  5
122
100
AcDbEntity
  8
SEMA2D
100
AcDbLine
370
9
 62
9
  6
_SOLID
 10
3.1497088601
 20
5.4451731388
 30
0
 11
3.1537508827
 21
5.4451731388
 31
0
  0
LINE
  5
123
100
AcDbEntity
  8
SEMA2D
100
AcDbLine
370
9
 62
9
  6
_SOLID
 10
3.2363737931
 20
5.4451731388
 30
0
 11
3.2404158157
 21
5.4451731388
 31
0
  0
LINE
  5
124
100
AcDbEntity
  8
SEMA2D
100
AcDbLine
370
9
 62
9
  6
_SOLID
 10
3.1349868572
 20
5.4368194097
 30
0
 11
3.1334208675
 21
5.4368385153
 31
0
  0
LINE
  5
125
100
AcDbEntity
  8
SEMA2D
100
AcDbLine
370
9
 62
9
  6
_SOLID
 10
3.2550922079
 20
5.4338346838
 30
0
 11
3.2566048963
 21
5.4334354685
 31
0
  0
LINE
  5
126
100
AcDbEntity
  8
SEMA2D
100
AcDbLine
370
9
 62
9
  6
_SOLID
 10
3.2539142752
 20
5.4485557515
 30
0
 11
3.2433963815
 21
5.4485557524
 31
0
  0
LINE
  5
127
100
AcDbEntity
  8
SEMA2D
100
AcDbLine
370
9
 62
9
  6
_SOLID
 10
3.2333932273
 20
5.4485557524
 30
0
 11
3.1567314485
 21
5.4485557524
 31
0
  0
LINE
  5
128
100
AcDbEntity
  8
SEMA2D
100
AcDbLine
370
9
 62
9
  6
_SOLID
 10
3.1467282943
 20
5.4485557524
 30
0
 11
3.1362104006
 21
5.4485557515
 31
0
  0
LINE
  5
129
100
AcDbEntity
  8
SEMA2D
100
AcDbLine
370
9
 62
9
  6
_SOLID
 10
3.2540204976
 20
5.450205525
 30
0
 11
3.2418477099
 21
5.450205445
 31
0
  0
LINE
  5
12A
100
AcDbEntity
  8
SEMA2D
100
AcDbLine
370
9
 62
9
  6
_SOLID
 10
3.1361041782
 20
5.450205525
 30
0
 11
3.1482769659
 21
5.450205445
 31
0
  0
LINE
  5
12B
100
AcDbEntity
  8
SEMA2D
100
AcDbLine
370
9
 62
9
  6
_SOLID
 10
3.2349418989
 20
5.450205445
 30
0
 11
3.1551827769
 21
5.450205445
 31
0
  0
LINE
  5
12C
100
AcDbEntity
  8
SEMA2D
100
AcDbLine
370
9
 62
9
  6
_SOLID
 10
3.1341569411
 20
5.4515113098
 30
0
 11
3.1482769659
 21
5.4515113098
 31
0
  0
LINE
  5
12D
100
AcDbEntity
  8
SEMA2D
100
AcDbLine
370
9
 62
9
  6
_SOLID
 10
3.1551827769
 20
5.4515113098
 30
0
 11
3.2349418989
 21
5.4515113098
 31
0
  0
LINE
  5
12E
100
AcDbEntity
  8
SEMA2D
100
AcDbLine
370
9
 62
9
  6
_SOLID
 10
3.2418477099
 20
5.4515113098
 30
0
 11
3.2559677347
 21
5.4515113098
 31
0
  0
LINE
  5
12F
100
AcDbEntity
  8
SEMA2D
100
AcDbLine
370
9
 62
9
  6
_SOLID
 10
3.2433231031
 20
5.4535889237
 30
0
 11
3.2559677347
 21
5.4535889256
 31
0
  0
LINE
  5
130
100
AcDbEntity
  8
SEMA2D
100
AcDbLine
370
9
 62
9
  6
_SOLID
 10
3.1468015728
 20
5.4535889241
 30
0
 11
3.1341569411
 21
5.4535889256
 31
0
  0
LINE
  5
131
100
AcDbEntity
  8
SEMA2D
100
AcDbLine
370
9
 62
9
  6
_SOLID
 10
3.1566581701
 20
5.4535889237
 30
0
 11
3.2334665057
 21
5.4535889237
 31
0
  0
LINE
  5
132
100
AcDbEntity
  8
SEMA2D
100
AcDbLine
370
9
 62
9
  6
_SOLID
 10
3.1539347255
 20
5.4552510183
 30
0
 11
3.2361899503
 21
5.4552510183
 31
0
  0
LINE
  5
133
100
AcDbEntity
  8
SEMA2D
100
AcDbLine
370
9
 62
9
  6
_SOLID
 10
3.2405996585
 20
5.4552510183
 30
0
 11
3.2559677428
 21
5.455251018
 31
0
  0
LINE
  5
134
100
AcDbEntity
  8
SEMA2D
100
AcDbLine
370
9
 62
9
  6
_SOLID
 10
3.1495250173
 20
5.4552510183
 30
0
 11
3.1341569322
 21
5.4552510178
 31
0
  0
LINE
  5
135
100
AcDbEntity
  8
SEMA2D
100
AcDbLine
370
9
 62
9
  6
_SOLID
 10
3.2422137238
 20
5.4553905747
 30
0
 11
3.2405996585
 21
5.4553905747
 31
0
  0
LINE
  5
136
100
AcDbEntity
  8
SEMA2D
100
AcDbLine
370
9
 62
9
  6
_SOLID
 10
3.1555487908
 20
5.4553905747
 30
0
 11
3.1539347255
 21
5.4553905747
 31
0
  0
LINE
  5
137
100
AcDbEntity
  8
SEMA2D
100
AcDbLine
370
9
 62
9
  6
_SOLID
 10
3.147910952
 20
5.4553905747
 30
0
 11
3.1495250173
 21
5.4553905747
 31
0
  0
LINE
  5
138
100
AcDbEntity
  8
SEMA2D
100
AcDbLine
370
9
 62
9
  6
_SOLID
 10
3.234575885
 20
5.4553905747
 30
0
 11
3.2361899503
 21
5.4553905747
 31
0
  0
LINE
  5
139
100
AcDbEntity
  8
SEMA2D
100
AcDbLine
370
9
 62
9
  6
_SOLID
 10
3.2399383129
 20
5.4578781228
 30
0
 11
3.2368512958
 21
5.4578781228
 31
0
  0
LINE
  5
13A
100
AcDbEntity
  8
SEMA2D
100
AcDbLine
370
9
 62
9
  6
_SOLID
 10
3.1532733799
 20
5.4578781228
 30
0
 11
3.1501863628
 21
5.4578781228
 31
0
  0
LINE
  5
13B
100
AcDbEntity
  8
SEMA2D
100
AcDbLine
370
9
 62
9
  6
_SOLID
 10
3.2399383398
 20
5.4590389372
 30
0
 11
3.2368512691
 21
5.4590389372
 31
0
  0
LINE
  5
13C
100
AcDbEntity
  8
SEMA2D
100
AcDbLine
370
9
 62
9
  6
_SOLID
 10
3.1532734068
 20
5.4590389372
 30
0
 11
3.1501863361
 21
5.4590389372
 31
0
  0
LINE
  5
13D
100
AcDbEntity
  8
SEMA2D
100
AcDbLine
370
9
 62
9
  6
_SOLID
 10
3.2739483828
 20
5.4658508031
 30
0
 11
3.116176293
 21
5.4658508031
 31
0
  0
LINE
  5
13E
100
AcDbEntity
  8
SEMA2D
100
AcDbLine
370
9
 62
9
  6
_SOLID
 10
3.2739483828
 20
5.4677481993
 30
0
 11
3.116176293
 21
5.4677481993
 31
0
  0
LINE
  5
13F
100
AcDbEntity
  8
SEMA2D
100
AcDbLine
370
9
 62
7
  6
_SOLID
 10
3.1111930479
 20
5.4682263908
 30
0
 11
3.2789316279
 21
5.4682263908
 31
0
  0
LINE
  5
140
100
AcDbEntity
  8
SEMA2D
100
AcDbLine
370
9
 62
7
  6
_SOLID
 10
3.1104941372
 20
5.4689388908
 30
0
 11
3.2796305387
 21
5.4689388908
 31
0
  0
ARC
  5
141
100
AcDbEntity
  8
SEMA2D
100
AcDbCircle
370
9
 62
9
  6
_SOLID
 10
3.0567642084
 20
5.4043598427
 30
0
 40
0.0976959583000001
100
AcDbArc
 50
338.108062543168
 51
339.156429078347
  0
ARC
  5
142
100
AcDbEntity
  8
SEMA2D
100
AcDbCircle
370
9
 62
9
  6
_SOLID
 10
3.1696954156
 20
5.415552151
 30
0
 40
0.0362766057000001
100
AcDbArc
 50
179.389759333248
 51
179.986308027439
  0
ARC
  5
143
100
AcDbEntity
  8
SEMA2D
100
AcDbCircle
370
9
 62
9
  6
_SOLID
 10
3.1169159203
 20
5.4155683639
 30
0
 40
0.0204362705999996
100
AcDbArc
 50
-0.0211510869907076
 51
2.29197642192544
  0
ARC
  5
144
100
AcDbEntity
  8
SEMA2D
100
AcDbCircle
370
9
 62
9
  6
_SOLID
 10
3.185047038
 20
5.415565046
 30
0
 40
0.0137420586000001
100
AcDbArc
 50
176.576465797195
 51
180.017719951955
  0
ARC
  5
145
100
AcDbEntity
  8
SEMA2D
100
AcDbCircle
370
9
 62
9
  6
_SOLID
 10
3.1223007303
 20
5.4155523924
 30
0
 40
0.0126914346
100
AcDbArc
 50
0.0380450421050062
 51
1.65713966851648
  0
ARC
  5
146
100
AcDbEntity
  8
SEMA2D
100
AcDbCircle
370
9
 62
9
  6
_SOLID
 10
3.176435941
 20
5.4145264673
 30
0
 40
0.0105579116000001
100
AcDbArc
 50
325.831114015349
 51
0.0735416341033065
  0
ARC
  5
147
100
AcDbEntity
  8
SEMA2D
100
AcDbCircle
370
9
 62
9
  6
_SOLID
 10
3.1764901945
 20
5.4145277135
 30
0
 40
0.00887326610000017
100
AcDbArc
 50
325.825131615185
 51
0.0795160365261037
  0
ARC
  5
148
100
AcDbEntity
  8
SEMA2D
100
AcDbCircle
370
9
 62
9
  6
_SOLID
 10
3.1524897908
 20
5.3728992779
 30
0
 40
0.00795058120000003
100
AcDbArc
 50
283.924687010501
 51
298.909286140933
  0
ARC
  5
149
100
AcDbEntity
  8
SEMA2D
100
AcDbCircle
370
9
 62
9
  6
_SOLID
 10
3.1655544418
 20
5.3769204522
 30
0
 40
0.00640708619999963
100
AcDbArc
 50
300.599714289844
 51
304.332023490816
  0
ARC
  5
14A
100
AcDbEntity
  8
SEMA2D
100
AcDbCircle
370
9
 62
9
  6
_SOLID
 10
3.1531783427
 20
5.3700449322
 30
0
 40
0.00501445340000006
100
AcDbArc
 50
266.19699491634
 51
284.136874628976
  0
ARC
  5
14B
100
AcDbEntity
  8
SEMA2D
100
AcDbCircle
370
9
 62
9
  6
_SOLID
 10
3.1779035546
 20
5.4155619033
 30
0
 40
0.00498450909999981
100
AcDbArc
 50
174.314126992582
 51
180.012728572654
  0
ARC
  5
14C
100
AcDbEntity
  8
SEMA2D
100
AcDbCircle
370
9
 62
9
  6
_SOLID
 10
3.1539813481
 20
5.3725757113
 30
0
 40
0.00425640350000012
100
AcDbArc
 50
270
 51
284.911541897415
  0
ARC
  5
14D
100
AcDbEntity
  8
SEMA2D
100
AcDbCircle
370
9
 62
9
  6
_SOLID
 10
3.1574743585
 20
5.3882818191
 30
0
 40
0.00385230529999991
100
AcDbArc
 50
90
 51
270
  0
ARC
  5
14E
100
AcDbEntity
  8
SEMA2D
100
AcDbCircle
370
9
 62
9
  6
_SOLID
 10
3.1574743585
 20
5.3882818191
 30
0
 40
0.00385230529999991
100
AcDbArc
 50
270
 51
90
  0
ARC
  5
14F
100
AcDbEntity
  8
SEMA2D
100
AcDbCircle
370
9
 62
9
  6
_SOLID
 10
3.1650817673
 20
5.3762476864
 30
0
 40
0.00165274230000012
100
AcDbArc
 50
307.539569134903
 51
311.429400491866
  0
ARC
  5
150
100
AcDbEntity
  8
SEMA2D
100
AcDbCircle
370
9
 62
9
  6
_SOLID
 10
3.1319696885
 20
5.5715248686
 30
0
 40
0.1888617805
100
AcDbArc
 50
276.385360261628
 51
277.923659956979
  0
ARC
  5
151
100
AcDbEntity
  8
SEMA2D
100
AcDbCircle
370
9
 62
9
  6
_SOLID
 10
3.167190329
 20
5.4616931346
 30
0
 40
0.1239375069
100
AcDbArc
 50
324.500047450704
 51
329.472582274055
  0
ARC
  5
152
100
AcDbEntity
  8
SEMA2D
100
AcDbCircle
370
9
 62
9
  6
_SOLID
 10
3.1098049745
 20
5.4595944705
 30
0
 40
0.0996425572000001
100
AcDbArc
 50
303.73129593415
 51
328.829629004679
  0
ARC
  5
153
100
AcDbEntity
  8
SEMA2D
100
AcDbCircle
370
9
 62
9
  6
_SOLID
 10
3.1107135732
 20
5.4583316862
 30
0
 40
0.0996252384999998
100
AcDbArc
 50
297.988231469841
 51
301.69181312109
  0
ARC
  5
154
100
AcDbEntity
  8
SEMA2D
100
AcDbCircle
370
9
 62
9
  6
_SOLID
 10
3.1100557028
 20
5.4595670867
 30
0
 40
0.0907763241000001
100
AcDbArc
 50
302.56718612938
 51
325.840862621112
  0
ARC
  5
155
100
AcDbEntity
  8
SEMA2D
100
AcDbCircle
370
9
 62
9
  6
_SOLID
 10
3.1100788572
 20
5.4595889824
 30
0
 40
0.0891290063000001
100
AcDbArc
 50
302.56630260966
 51
325.840692314834
  0
ARC
  5
156
100
AcDbEntity
  8
SEMA2D
100
AcDbCircle
370
9
 62
9
  6
_SOLID
 10
3.1102006852
 20
5.4595293324
 30
0
 40
0.0869441396999999
100
AcDbArc
 50
299.470239489949
 51
325.853561398278
  0
ARC
  5
157
100
AcDbEntity
  8
SEMA2D
100
AcDbCircle
370
9
 62
9
  6
_SOLID
 10
3.1696953822
 20
5.4364521514
 30
0
 40
0.0362765723
100
AcDbArc
 50
179.389759281685
 51
179.986308611856
  0
ARC
  5
158
100
AcDbEntity
  8
SEMA2D
100
AcDbCircle
370
9
 62
9
  6
_SOLID
 10
3.1674648988
 20
5.4502038825
 30
0
 40
0.0208019986999999
100
AcDbArc
 50
179.995589617261
 51
184.54427358963
  0
ARC
  5
159
100
AcDbEntity
  8
SEMA2D
100
AcDbCircle
370
9
 62
9
  6
_SOLID
 10
3.1361346817
 20
5.4501983395
 30
0
 40
0.0206621621999998
100
AcDbArc
 50
355.440326065788
 51
0.0198106693331482
  0
ARC
  5
15A
100
AcDbEntity
  8
SEMA2D
100
AcDbCircle
370
9
 62
9
  6
_SOLID
 10
3.1169251202
 20
5.4364685462
 30
0
 40
0.0204270707999996
100
AcDbArc
 50
-0.0216720087966893
 51
2.29249756018079
  0
ARC
  5
15B
100
AcDbEntity
  8
SEMA2D
100
AcDbCircle
370
9
 62
9
  6
_SOLID
 10
3.1548222212
 20
5.4432217394
 30
0
 40
0.019978458
100
AcDbArc
 50
159.539626157678
 51
164.755957196841
  0
ARC
  5
15C
100
AcDbEntity
  8
SEMA2D
100
AcDbCircle
370
9
 62
9
  6
_SOLID
 10
3.137760849
 20
5.4331062853
 30
0
 40
0.0155270825
100
AcDbArc
 50
95.7308023756863
 51
98.1982133490865
  0
ARC
  5
15D
100
AcDbEntity
  8
SEMA2D
100
AcDbCircle
370
9
 62
9
  6
_SOLID
 10
3.16160582
 20
5.4502043825
 30
0
 40
0.0133288539
100
AcDbArc
 50
179.995433022164
 51
185.677731885715
  0
ARC
  5
15E
100
AcDbEntity
  8
SEMA2D
100
AcDbCircle
370
9
 62
9
  6
_SOLID
 10
3.1419227144
 20
5.4502009741
 30
0
 40
0.0132600630999999
100
AcDbArc
 50
354.307516532601
 51
0.0193185042890714
  0
ARC
  5
15F
100
AcDbEntity
  8
SEMA2D
100
AcDbCircle
370
9
 62
9
  6
_SOLID
 10
3.1489488123
 20
5.4502045534
 30
0
 40
0.0128446739000001
100
AcDbArc
 50
179.995666089937
 51
187.375100349878
  0
ARC
  5
160
100
AcDbEntity
  8
SEMA2D
100
AcDbCircle
370
9
 62
9
  6
_SOLID
 10
3.1223006339
 20
5.4364523914
 30
0
 40
0.0126915311000004
100
AcDbArc
 50
0.0380494195053784
 51
1.65713199335678
  0
ARC
  5
161
100
AcDbEntity
  8
SEMA2D
100
AcDbCircle
370
9
 62
9
  6
_SOLID
 10
3.1367223026
 20
5.4342459593
 30
0
 40
0.00330349049999978
100
AcDbArc
 50
179.992826648594
 51
194.202166315924
  0
ARC
  5
162
100
AcDbEntity
  8
SEMA2D
100
AcDbCircle
370
9
 62
9
  6
_SOLID
 10
3.3335728089
 20
5.4044396054
 30
0
 40
0.0979224690999996
100
AcDbArc
 50
200.842934515699
 51
201.888879950268
  0
ARC
  5
163
100
AcDbEntity
  8
SEMA2D
100
AcDbCircle
370
9
 62
9
  6
_SOLID
 10
3.2204293012
 20
5.4155521514
 30
0
 40
0.0362765646999998
100
AcDbArc
 50
0.0136913423075252
 51
0.61024077560842
  0
ARC
  5
164
100
AcDbEntity
  8
SEMA2D
100
AcDbCircle
370
9
 62
9
  6
_SOLID
 10
3.2049648335
 20
5.4155617075
 30
0
 40
0.0138548621999999
100
AcDbArc
 50
-0.00367649828571702
 51
3.4093657022275
  0
ARC
  5
165
100
AcDbEntity
  8
SEMA2D
100
AcDbCircle
370
9
 62
9
  6
_SOLID
 10
3.2678240423
 20
5.4155523914
 30
0
 40
0.0126915313999998
100
AcDbArc
 50
178.342868041003
 51
179.961950511742
  0
ARC
  5
166
100
AcDbEntity
  8
SEMA2D
100
AcDbCircle
370
9
 62
9
  6
_SOLID
 10
3.2136887355
 20
5.4145264653
 30
0
 40
0.0105579117000001
100
AcDbArc
 50
179.926453598887
 51
214.168878761941
  0
ARC
  5
167
100
AcDbEntity
  8
SEMA2D
100
AcDbCircle
370
9
 62
9
  6
_SOLID
 10
3.2245703705
 20
5.3769206775
 30
0
 40
0.00640734939999987
100
AcDbArc
 50
235.668013427854
 51
239.400510174311
  0
ARC
  5
168
100
AcDbEntity
  8
SEMA2D
100
AcDbCircle
370
9
 62
9
  6
_SOLID
 10
3.2369445534
 20
5.3700252259
 30
0
 40
0.00499491169999988
100
AcDbArc
 50
255.827451658711
 51
273.838115287458
  0
ARC
  5
169
100
AcDbEntity
  8
SEMA2D
100
AcDbCircle
370
9
 62
9
  6
_SOLID
 10
3.2122215734
 20
5.4155619236
 30
0
 40
0.00498405699999993
100
AcDbArc
 50
-0.0127048980337713
 51
5.6858971905237
  0
ARC
  5
16A
100
AcDbEntity
  8
SEMA2D
100
AcDbCircle
370
9
 62
9
  6
_SOLID
 10
3.2361435962
 20
5.3725778052
 30
0
 40
0.00425849600000006
100
AcDbArc
 50
255.092204834119
 51
270
  0
ARC
  5
16B
100
AcDbEntity
  8
SEMA2D
100
AcDbCircle
370
9
 62
9
  6
_SOLID
 10
3.2326503173
 20
5.3882818191
 30
0
 40
0.00385230529999991
100
AcDbArc
 50
90
 51
270
  0
ARC
  5
16C
100
AcDbEntity
  8
SEMA2D
100
AcDbCircle
370
9
 62
9
  6
_SOLID
 10
3.2326503173
 20
5.3882818191
 30
0
 40
0.00385230529999991
100
AcDbArc
 50
270
 51
90
  0
ARC
  5
16D
100
AcDbEntity
  8
SEMA2D
100
AcDbCircle
370
9
 62
9
  6
_SOLID
 10
3.2250443729
 20
5.3762494034
 30
0
 40
0.00165499159999993
100
AcDbArc
 50
228.571388336814
 51
232.456808805734
  0
ARC
  5
16E
100
AcDbEntity
  8
SEMA2D
100
AcDbCircle
370
9
 62
9
  6
_SOLID
 10
3.2578268751
 20
5.5689108805
 30
0
 40
0.1862275211
100
AcDbArc
 50
262.065458547972
 51
263.62525770324
  0
ARC
  5
16F
100
AcDbEntity
  8
SEMA2D
100
AcDbCircle
370
9
 62
9
  6
_SOLID
 10
3.2223087318
 20
5.4612866426
 30
0
 40
0.1231921355
100
AcDbArc
 50
210.512364972941
 51
215.515004819106
  0
ARC
  5
170
100
AcDbEntity
  8
SEMA2D
100
AcDbCircle
370
9
 62
9
  6
_SOLID
 10
3.1959699599
 20
5.4571235155
 30
0
 40
0.1008875309
100
AcDbArc
 50
230.038946876265
 51
234.885733167668
  0
ARC
  5
171
100
AcDbEntity
  8
SEMA2D
100
AcDbCircle
370
9
 62
9
  6
_SOLID
 10
3.1941634031
 20
5.4571122089
 30
0
 40
0.100873285
100
AcDbArc
 50
305.113924545926
 51
309.961395735476
  0
ARC
  5
172
100
AcDbEntity
  8
SEMA2D
100
AcDbCircle
370
9
 62
9
  6
_SOLID
 10
3.2803197013
 20
5.4595944705
 30
0
 40
0.0996425572000001
100
AcDbArc
 50
211.170370995321
 51
236.268704061085
  0
ARC
  5
173
100
AcDbEntity
  8
SEMA2D
100
AcDbCircle
370
9
 62
9
  6
_SOLID
 10
3.2794111029
 20
5.4583316868
 30
0
 40
0.0996252391999999
100
AcDbArc
 50
238.308170429619
 51
242.011767610052
  0
ARC
  5
174
100
AcDbEntity
  8
SEMA2D
100
AcDbCircle
370
9
 62
9
  6
_SOLID
 10
3.1940211905
 20
5.4574003674
 30
0
 40
0.0991438942
100
AcDbArc
 50
298.69247486055
 51
323.723751002978
  0
ARC
  5
175
100
AcDbEntity
  8
SEMA2D
100
AcDbCircle
370
9
 62
9
  6
_SOLID
 10
3.1961034839
 20
5.4574003661
 30
0
 40
0.0991438922999999
100
AcDbArc
 50
216.276249386672
 51
241.307564006069
  0
ARC
  5
176
100
AcDbEntity
  8
SEMA2D
100
AcDbCircle
370
9
 62
9
  6
_SOLID
 10
3.280068973
 20
5.4595670867
 30
0
 40
0.0907763240000001
100
AcDbArc
 50
214.159137841313
 51
237.432813875449
  0
ARC
  5
177
100
AcDbEntity
  8
SEMA2D
100
AcDbCircle
370
9
 62
9
  6
_SOLID
 10
3.2800458192
 20
5.4595889826
 30
0
 40
0.0891290069000001
100
AcDbArc
 50
214.159307602535
 51
237.433697178968
  0
ARC
  5
178
100
AcDbEntity
  8
SEMA2D
100
AcDbCircle
370
9
 62
9
  6
_SOLID
 10
3.2799239853
 20
5.4595293275
 30
0
 40
0.0869441325999996
100
AcDbArc
 50
214.146437872273
 51
240.529927967067
  0
ARC
  5
179
100
AcDbEntity
  8
SEMA2D
100
AcDbCircle
370
9
 62
9
  6
_SOLID
 10
3.2204293015
 20
5.4364521514
 30
0
 40
0.0362765643999998
100
AcDbArc
 50
0.0136913251185776
 51
0.610240798525309
  0
ARC
  5
17A
100
AcDbEntity
  8
SEMA2D
100
AcDbCircle
370
9
 62
9
  6
_SOLID
 10
3.2541298313
 20
5.4502038825
 30
0
 40
0.0208019981999998
100
AcDbArc
 50
179.995589611531
 51
184.544273606765
  0
ARC
  5
17B
100
AcDbEntity
  8
SEMA2D
100
AcDbCircle
370
9
 62
9
  6
_SOLID
 10
3.2227996143
 20
5.4501983395
 30
0
 40
0.0206621625999999
100
AcDbArc
 50
355.4403260715
 51
0.0198106807937258
  0
ARC
  5
17C
100
AcDbEntity
  8
SEMA2D
100
AcDbCircle
370
9
 62
9
  6
_SOLID
 10
3.2353023108
 20
5.4432216931
 30
0
 40
0.0199786089999998
100
AcDbArc
 50
15.2440626209297
 51
20.460354316536
  0
ARC
  5
17D
100
AcDbEntity
  8
SEMA2D
100
AcDbCircle
370
9
 62
9
  6
_SOLID
 10
3.2523374715
 20
5.4328905338
 30
0
 40
0.0157443880999999
100
AcDbArc
 50
81.8188169473819
 51
84.252167319524
  0
ARC
  5
17E
100
AcDbEntity
  8
SEMA2D
100
AcDbCircle
370
9
 62
9
  6
_SOLID
 10
3.2482707533
 20
5.4502043826
 30
0
 40
0.0133288542000001
100
AcDbArc
 50
179.99543310811
 51
185.677731811027
  0
ARC
  5
17F
100
AcDbEntity
  8
SEMA2D
100
AcDbCircle
370
9
 62
9
  6
_SOLID
 10
3.2285876475
 20
5.450200974
 30
0
 40
0.0132600629999999
100
AcDbArc
 50
354.307516515498
 51
0.0193185386636969
  0
ARC
  5
180
100
AcDbEntity
  8
SEMA2D
100
AcDbCircle
370
9
 62
9
  6
_SOLID
 10
3.2412204703
 20
5.4502016803
 30
0
 40
0.0128000676
100
AcDbArc
 50
352.612023516449
 51
0.0172096642601942
  0
ARC
  5
181
100
AcDbEntity
  8
SEMA2D
100
AcDbCircle
370
9
 62
9
  6
_SOLID
 10
3.2678240434
 20
5.4364523914
 30
0
 40
0.0126915326000003
100
AcDbArc
 50
178.342868063913
 51
179.961950488824
  0
ARC
  5
182
100
AcDbEntity
  8
SEMA2D
100
AcDbCircle
370
9
 62
9
  6
_SOLID
 10
3.2534023735
 20
5.4342459593
 30
0
 40
0.00330349019999976
100
AcDbArc
 50
345.797848985326
 51
0.00717391289234932
  0
ARC
  5
183
100
AcDbEntity
  8
SEMA2D
100
AcDbCircle
370
9
 62
9
  6
_SOLID
 10
3.25293327
 20
5.4346028999
 30
0
 40
0.00229139890000041
100
AcDbArc
 50
316.12453451691
 51
340.412738560382
  0
LINE
  5
184
100
AcDbEntity
  8
SEMA2D
100
AcDbLine
370
9
 62
7
  6
_SOLID
 10
3.190046938
 20
5.2188859587
 30
0
 11
3.115415197
 21
5.2628889239
 31
0
  0
ARC
  5
185
100
AcDbEntity
  8
SEMA2D
100
AcDbCircle
370
9
 62
7
  6
_SOLID
 10
3.1204941372
 20
5.2715031195
 30
0
 40
0.00999999999999979
100
AcDbArc
 50
180
 51
239.476346914009
  0
LINE
  5
186
100
AcDbEntity
  8
SEMA2D
100
AcDbLine
370
9
 62
7
  6
_SOLID
 10
3.1899833977
 20
5.2197465048
 30
0
 11
3.1158463696
 21
5.2634577867
 31
0
  0
ARC
  5
187
100
AcDbEntity
  8
SEMA2D
100
AcDbCircle
370
9
 62
7
  6
_SOLID
 10
3.1950623379
 20
5.2283607005
 30
0
 40
0.0100000000000002
100
AcDbArc
 50
239.476346914012
 51
300.523653085988
  0
LINE
  5
188
100
AcDbEntity
  8
SEMA2D
100
AcDbLine
370
9
 62
9
  6
_SOLID
 10
3.2789316279
 20
5.2716814444
 30
0
 11
3.2786014022
 21
5.2716814444
 31
0
  0
LINE
  5
189
100
AcDbEntity
  8
SEMA2D
100
AcDbLine
370
9
 62
9
  6
_SOLID
 10
3.1111930479
 20
5.2716814444
 30
0
 11
3.1115232736
 21
5.2716814444
 31
0
  0
LINE
  5
18A
100
AcDbEntity
  8
SEMA2D
100
AcDbLine
370
9
 62
9
  6
_SOLID
 10
3.1997278262
 20
5.2195027331
 30
0
 11
3.1996344364
 21
5.2196674769
 31
0
  0
LINE
  5
18B
100
AcDbEntity
  8
SEMA2D
100
AcDbLine
370
9
 62
9
  6
_SOLID
 10
3.2742783062
 20
5.2634577867
 30
0
 11
3.2741082172
 21
5.2637575603
 31
0
  0
LINE
  5
18C
100
AcDbEntity
  8
SEMA2D
100
AcDbLine
370
9
 62
9
  6
_SOLID
 10
3.1158463696
 20
5.2634577867
 30
0
 11
3.1160164441
 21
5.2637575692
 31
0
  0
ARC
  5
18D
100
AcDbEntity
  8
SEMA2D
100
AcDbCircle
370
9
 62
7
  6
_SOLID
 10
3.2696305387
 20
5.2715031196
 30
0
 40
0.00999999999999979
100
AcDbArc
 50
300.523653085991
 51
0
  0
LINE
  5
18E
100
AcDbEntity
  8
SEMA2D
100
AcDbLine
370
9
 62
9
  6
_SOLID
 10
3.1903968496
 20
5.2195027331
 30
0
 11
3.1904902469
 21
5.2196674724
 31
0
  0
LINE
  5
18F
100
AcDbEntity
  8
SEMA2D
100
AcDbLine
370
9
 62
7
  6
_SOLID
 10
3.2742783062
 20
5.2634577867
 30
0
 11
3.2001412781
 21
5.2197465048
 31
0
  0
LINE
  5
190
100
AcDbEntity
  8
SEMA2D
100
AcDbLine
370
9
 62
7
  6
_SOLID
 10
3.2747094789
 20
5.2628889239
 30
0
 11
3.2000777378
 21
5.2188859587
 31
0
  0
ARC
  5
191
100
AcDbEntity
  8
SEMA2D
100
AcDbCircle
370
9
 62
9
  6
_SOLID
 10
3.0768258941
 20
5.1287407153
 30
0
 40
0.1362183626
100
AcDbArc
 50
58.4198429752726
 51
60.5328508274284
  0
ARC
  5
192
100
AcDbEntity
  8
SEMA2D
100
AcDbCircle
370
9
 62
9
  6
_SOLID
 10
3.1082926112
 20
5.1101879008
 30
0
 40
0.1362183626
100
AcDbArc
 50
58.4198429752728
 51
60.5328508274286
  0
ARC
  5
193
100
AcDbEntity
  8
SEMA2D
100
AcDbCircle
370
9
 62
9
  6
_SOLID
 10
2.7945407249
 20
5.9726251992
 30
0
 40
0.8543627515
100
AcDbArc
 50
299.467169500017
 51
301.580136678493
  0
ARC
  5
194
100
AcDbEntity
  8
SEMA2D
100
AcDbCircle
370
9
 62
9
  6
_SOLID
 10
2.8266318155
 20
5.9900931002
 30
0
 40
0.85311104
100
AcDbArc
 50
299.466504120556
 51
301.636140527075
  0
ARC
  5
195
100
AcDbEntity
  8
SEMA2D
100
AcDbCircle
370
9
 62
9
  6
_SOLID
 10
2.7705167382
 20
5.9417710431
 30
0
 40
0.8399854518
100
AcDbArc
 50
300.721347538462
 51
301.587064902425
  0
ARC
  5
196
100
AcDbEntity
  8
SEMA2D
100
AcDbCircle
370
9
 62
9
  6
_SOLID
 10
3.3132987817
 20
5.1287407152
 30
0
 40
0.1362183627
100
AcDbArc
 50
119.467149118572
 51
121.580156962794
  0
ARC
  5
197
100
AcDbEntity
  8
SEMA2D
100
AcDbCircle
370
9
 62
9
  6
_SOLID
 10
3.2818320645
 20
5.1101879006
 30
0
 40
0.1362183626
100
AcDbArc
 50
119.467149113583
 51
121.580156970676
  0
ARC
  5
198
100
AcDbEntity
  8
SEMA2D
100
AcDbCircle
370
9
 62
9
  6
_SOLID
 10
3.5955839509
 20
5.9726251993
 30
0
 40
0.8543627516
100
AcDbArc
 50
238.419863321507
 51
240.532830499983
  0
ARC
  5
199
100
AcDbEntity
  8
SEMA2D
100
AcDbCircle
370
9
 62
9
  6
_SOLID
 10
3.5634928917
 20
5.9900931546
 30
0
 40
0.8531111028
100
AcDbArc
 50
238.363858451955
 51
240.53349583824
  0
ARC
  5
19A
100
AcDbEntity
  8
SEMA2D
100
AcDbCircle
370
9
 62
9
  6
_SOLID
 10
3.6050027887
 20
5.9176115169
 30
0
 40
0.8117552196
100
AcDbArc
 50
238.397881294279
 51
239.293706737688
  0
ARC
  5
19B
100
AcDbEntity
  8
SEMA2D
100
AcDbCircle
370
9
 62
7
  6
_SOLID
 10
3.1951598547
 20
5.2277263908
 30
0
 40
0.0102125
100
AcDbArc
 50
239.956802077691
 51
300.043197922309
  0
LINE
  5
19C
100
AcDbEntity
  8
SEMA2D
100
AcDbLine
370
9
 62
9
  6
_SOLID
 10
3.2458684221
 20
5.250622558
 30
0
 11
3.2718836591
 21
5.2678044484
 31
0
  0
LINE
  5
19D
100
AcDbEntity
  8
SEMA2D
100
AcDbLine
370
9
 62
9
  6
_SOLID
 10
3.2386564743
 20
5.2480712566
 30
0
 11
3.2144016095
 21
5.2319761515
 31
0
  0
LINE
  5
19E
100
AcDbEntity
  8
SEMA2D
100
AcDbLine
370
9
 62
9
  6
_SOLID
 10
3.1974828554
 20
5.222952399
 30
0
 11
3.2071897132
 21
5.2295184126
 31
0
  0
LINE
  5
19F
100
AcDbEntity
  8
SEMA2D
100
AcDbLine
370
9
 62
9
  6
_SOLID
 10
3.1926418206
 20
5.2229523991
 30
0
 11
3.1829349627
 21
5.2295184127
 31
0
  0
LINE
  5
1A0
100
AcDbEntity
  8
SEMA2D
100
AcDbLine
370
9
 62
9
  6
_SOLID
 10
3.1757229965
 20
5.2320697265
 30
0
 11
3.1514682088
 21
5.2480712517
 31
0
  0
LINE
  5
1A1
100
AcDbEntity
  8
SEMA2D
100
AcDbLine
370
9
 62
9
  6
_SOLID
 10
3.14425628
 20
5.2506225406
 30
0
 11
3.118241011
 21
5.2678044521
 31
0
  0
LINE
  5
1A2
100
AcDbEntity
  8
SEMA2D
100
AcDbLine
370
9
 62
7
  6
_SOLID
 10
3.1118919587
 20
5.5735982958
 30
0
 11
3.112043584
 21
5.570705111
 31
0
  0
LINE
  5
1A3
100
AcDbEntity
  8
SEMA2D
100
AcDbLine
370
9
 62
7
  6
_SOLID
 10
3.1104941372
 20
5.5735982958
 30
0
 11
3.1104941372
 21
5.5763939388
 31
0
  0
LINE
  5
1A4
100
AcDbEntity
  8
SEMA2D
100
AcDbLine
370
9
 62
7
  6
_SOLID
 10
3.1115232736
 20
5.5826950197
 30
0
 11
3.1111930479
 21
5.5763939388
 31
0
  0
LINE
  5
1A5
100
AcDbEntity
  8
SEMA2D
100
AcDbLine
370
9
 62
9
  6
_SOLID
 10
3.1162721929
 20
5.570705111
 30
0
 11
3.1161962813
 21
5.5735982958
 31
0
  0
LINE
  5
1A6
100
AcDbEntity
  8
SEMA2D
100
AcDbLine
370
9
 62
9
  6
_SOLID
 10
3.115496458
 20
5.5735982958
 30
0
 11
3.115496458
 21
5.5763939388
 31
0
  0
LINE
  5
1A7
100
AcDbEntity
  8
SEMA2D
100
AcDbLine
370
9
 62
9
  6
_SOLID
 10
3.1158463696
 20
5.5763939388
 30
0
 11
3.1160164441
 21
5.5828758968
 31
0
  0
LINE
  5
1A8
100
AcDbEntity
  8
SEMA2D
100
AcDbLine
370
9
 62
7
  6
_SOLID
 10
3.1424250153
 20
5.5669561462
 30
0
 11
3.1457684444
 21
5.5544782987
 31
0
  0
LINE
  5
1A9
100
AcDbEntity
  8
SEMA2D
100
AcDbLine
370
9
 62
9
  6
_SOLID
 10
3.1449023919
 20
5.5680265276
 30
0
 11
3.1449023919
 21
5.5689388908
 31
0
  0
LINE
  5
1AA
100
AcDbEntity
  8
SEMA2D
100
AcDbLine
370
9
 62
9
  6
_SOLID
 10
3.1484900951
 20
5.5530969138
 30
0
 11
3.1484900951
 21
5.5546370372
 31
0
  0
LINE
  5
1AB
100
AcDbEntity
  8
SEMA2D
100
AcDbLine
370
9
 62
9
  6
_SOLID
 10
3.1449024132
 20
5.5680265276
 30
0
 11
3.1484900951
 21
5.5546370369
 31
0
  0
LINE
  5
1AC
100
AcDbEntity
  8
SEMA2D
100
AcDbLine
370
9
 62
9
  6
_SOLID
 10
3.1549612639
 20
5.5530969138
 30
0
 11
3.1549612639
 21
5.5546370369
 31
0
  0
LINE
  5
1AD
100
AcDbEntity
  8
SEMA2D
100
AcDbLine
370
9
 62
9
  6
_SOLID
 10
3.1585489671
 20
5.5680265276
 30
0
 11
3.1585489671
 21
5.5689388908
 31
0
  0
LINE
  5
1AE
100
AcDbEntity
  8
SEMA2D
100
AcDbLine
370
9
 62
9
  6
_SOLID
 10
3.1549612312
 20
5.5546370369
 30
0
 11
3.1585489333
 21
5.5680265276
 31
0
  0
LINE
  5
1AF
100
AcDbEntity
  8
SEMA2D
100
AcDbLine
370
9
 62
9
  6
_SOLID
 10
3.158031401
 20
5.5545438622
 30
0
 11
3.1616815123
 21
5.5681662896
 31
0
  0
LINE
  5
1B0
100
AcDbEntity
  8
SEMA2D
100
AcDbLine
370
9
 62
9
  6
_SOLID
 10
3.1666688446
 20
5.5681662896
 30
0
 11
3.1630187417
 21
5.5545438622
 31
0
  0
LINE
  5
1B1
100
AcDbEntity
  8
SEMA2D
100
AcDbLine
370
9
 62
7
  6
_SOLID
 10
3.1684658389
 20
5.5668668134
 30
0
 11
3.1651463464
 21
5.5544782987
 31
0
  0
LINE
  5
1B2
100
AcDbEntity
  8
SEMA2D
100
AcDbLine
370
9
 62
7
  6
_SOLID
 10
3.1633460905
 20
5.5530969138
 30
0
 11
3.1475687003
 21
5.5530969138
 31
0
  0
LINE
  5
1B3
100
AcDbEntity
  8
SEMA2D
100
AcDbLine
370
9
 62
7
  6
_SOLID
 10
3.2267785853
 20
5.5530969138
 30
0
 11
3.2425559755
 21
5.5530969138
 31
0
  0
LINE
  5
1B4
100
AcDbEntity
  8
SEMA2D
100
AcDbLine
370
9
 62
9
  6
_SOLID
 10
3.1630187417
 20
5.5545438622
 30
0
 11
3.158031401
 21
5.5545438622
 31
0
  0
LINE
  5
1B5
100
AcDbEntity
  8
SEMA2D
100
AcDbLine
370
9
 62
9
  6
_SOLID
 10
3.2271059341
 20
5.5545438622
 30
0
 11
3.2320932849
 21
5.5545438622
 31
0
  0
LINE
  5
1B6
100
AcDbEntity
  8
SEMA2D
100
AcDbLine
370
9
 62
9
  6
_SOLID
 10
3.1549612312
 20
5.5546370369
 30
0
 11
3.1484900951
 21
5.5546370369
 31
0
  0
LINE
  5
1B7
100
AcDbEntity
  8
SEMA2D
100
AcDbLine
370
9
 62
9
  6
_SOLID
 10
3.2351634447
 20
5.5546370369
 30
0
 11
3.2416345807
 21
5.5546370369
 31
0
  0
LINE
  5
1B8
100
AcDbEntity
  8
SEMA2D
100
AcDbLine
370
9
 62
9
  6
_SOLID
 10
3.190046938
 20
5.5735982958
 30
0
 11
3.190046938
 21
5.5763939388
 31
0
  0
LINE
  5
1B9
100
AcDbEntity
  8
SEMA2D
100
AcDbLine
370
9
 62
9
  6
_SOLID
 10
3.1908226729
 20
5.570705111
 30
0
 11
3.1907467613
 21
5.5735982958
 31
0
  0
LINE
  5
1BA
100
AcDbEntity
  8
SEMA2D
100
AcDbLine
370
9
 62
9
  6
_SOLID
 10
3.1903968496
 20
5.5763939388
 30
0
 11
3.1904902469
 21
5.5799553568
 31
0
  0
LINE
  5
1BB
100
AcDbEntity
  8
SEMA2D
100
AcDbLine
370
9
 62
9
  6
_SOLID
 10
3.1449024132
 20
5.5680265276
 30
0
 11
3.1585489333
 21
5.5680265276
 31
0
  0
LINE
  5
1BC
100
AcDbEntity
  8
SEMA2D
100
AcDbLine
370
9
 62
9
  6
_SOLID
 10
3.2315757425
 20
5.5680265276
 30
0
 11
3.2452222626
 21
5.5680265276
 31
0
  0
LINE
  5
1BD
100
AcDbEntity
  8
SEMA2D
100
AcDbLine
370
9
 62
9
  6
_SOLID
 10
3.1616815123
 20
5.5681662896
 30
0
 11
3.1666688446
 21
5.5681662896
 31
0
  0
LINE
  5
1BE
100
AcDbEntity
  8
SEMA2D
100
AcDbLine
370
9
 62
9
  6
_SOLID
 10
3.2234558312
 20
5.5681662896
 30
0
 11
3.2284431635
 21
5.5681662896
 31
0
  0
LINE
  5
1BF
100
AcDbEntity
  8
SEMA2D
100
AcDbLine
370
9
 62
7
  6
_SOLID
 10
3.2523807401
 20
5.5689388908
 30
0
 11
3.2492365621
 21
5.5689388908
 31
0
  0
LINE
  5
1C0
100
AcDbEntity
  8
SEMA2D
100
AcDbLine
370
9
 62
7
  6
_SOLID
 10
3.276219884
 20
5.5689388908
 30
0
 11
3.1139047918
 21
5.5689388908
 31
0
  0
LINE
  5
1C1
100
AcDbEntity
  8
SEMA2D
100
AcDbLine
370
9
 62
9
  6
_SOLID
 10
3.2780810918
 20
5.570705111
 30
0
 11
3.112043584
 21
5.570705111
 31
0
  0
LINE
  5
1C2
100
AcDbEntity
  8
SEMA2D
100
AcDbLine
370
9
 62
7
  6
_SOLID
 10
3.1397522188
 20
5.5689388884
 30
0
 11
3.1399350433
 21
5.5689325474
 31
0
  0
LINE
  5
1C3
100
AcDbEntity
  8
SEMA2D
100
AcDbLine
370
9
 62
9
  6
_SOLID
 10
3.1997278262
 20
5.5763939388
 30
0
 11
3.1996344364
 21
5.5799553576
 31
0
  0
LINE
  5
1C4
100
AcDbEntity
  8
SEMA2D
100
AcDbLine
370
9
 62
9
  6
_SOLID
 10
3.2000777378
 20
5.5735982958
 30
0
 11
3.2000777378
 21
5.5763939388
 31
0
  0
LINE
  5
1C5
100
AcDbEntity
  8
SEMA2D
100
AcDbLine
370
9
 62
9
  6
_SOLID
 10
3.1993020029
 20
5.570705111
 30
0
 11
3.1993779145
 21
5.5735982958
 31
0
  0
LINE
  5
1C6
100
AcDbEntity
  8
SEMA2D
100
AcDbLine
370
9
 62
7
  6
_SOLID
 10
3.2796305387
 20
5.5735982958
 30
0
 11
3.1104941372
 21
5.5735982958
 31
0
  0
LINE
  5
1C7
100
AcDbEntity
  8
SEMA2D
100
AcDbLine
370
9
 62
7
  6
_SOLID
 10
3.2796305387
 20
5.5763939388
 30
0
 11
3.1104941372
 21
5.5763939388
 31
0
  0
LINE
  5
1C8
100
AcDbEntity
  8
SEMA2D
100
AcDbLine
370
9
 62
7
  6
_SOLID
 10
3.2435182363
 20
5.5871105703
 30
0
 11
3.2417278982
 21
5.5871105703
 31
0
  0
LINE
  5
1C9
100
AcDbEntity
  8
SEMA2D
100
AcDbLine
370
9
 62
7
  6
_SOLID
 10
3.2258813169
 20
5.5871105703
 30
0
 11
3.2249464745
 21
5.5871105703
 31
0
  0
LINE
  5
1CA
100
AcDbEntity
  8
SEMA2D
100
AcDbLine
370
9
 62
7
  6
_SOLID
 10
3.2247868631
 20
5.5871105703
 30
0
 11
3.2211569195
 21
5.5871105703
 31
0
  0
LINE
  5
1CB
100
AcDbEntity
  8
SEMA2D
100
AcDbLine
370
9
 62
7
  6
_SOLID
 10
3.164176337
 20
5.5871105703
 30
0
 11
3.1651840723
 21
5.5871105703
 31
0
  0
LINE
  5
1CC
100
AcDbEntity
  8
SEMA2D
100
AcDbLine
370
9
 62
7
  6
_SOLID
 10
3.1654804579
 20
5.5871105703
 30
0
 11
3.1689677563
 21
5.5871105703
 31
0
  0
LINE
  5
1CD
100
AcDbEntity
  8
SEMA2D
100
AcDbLine
370
9
 62
7
  6
_SOLID
 10
3.116176293
 20
5.5871105703
 30
0
 11
3.2739483828
 21
5.5871105703
 31
0
  0
LINE
  5
1CE
100
AcDbEntity
  8
SEMA2D
100
AcDbLine
370
9
 62
7
  6
_SOLID
 10
3.2389853055
 20
5.5894402728
 30
0
 11
3.2378043033
 21
5.5894402728
 31
0
  0
LINE
  5
1CF
100
AcDbEntity
  8
SEMA2D
100
AcDbLine
370
9
 62
7
  6
_SOLID
 10
3.1523203725
 20
5.5894402728
 30
0
 11
3.1511393703
 21
5.5894402728
 31
0
  0
LINE
  5
1D0
100
AcDbEntity
  8
SEMA2D
100
AcDbLine
370
9
 62
7
  6
_SOLID
 10
3.2249783294
 20
5.5544782987
 30
0
 11
3.2216588369
 21
5.5668668134
 31
0
  0
LINE
  5
1D1
100
AcDbEntity
  8
SEMA2D
100
AcDbLine
370
9
 62
9
  6
_SOLID
 10
3.2271059341
 20
5.5545438622
 30
0
 11
3.2234558312
 21
5.5681662896
 31
0
  0
LINE
  5
1D2
100
AcDbEntity
  8
SEMA2D
100
AcDbLine
370
9
 62
9
  6
_SOLID
 10
3.2284431635
 20
5.5681662896
 30
0
 11
3.2320932849
 21
5.5545438622
 31
0
  0
LINE
  5
1D3
100
AcDbEntity
  8
SEMA2D
100
AcDbLine
370
9
 62
9
  6
_SOLID
 10
3.2315757425
 20
5.5680265276
 30
0
 11
3.2351634447
 21
5.5546370369
 31
0
  0
LINE
  5
1D4
100
AcDbEntity
  8
SEMA2D
100
AcDbLine
370
9
 62
9
  6
_SOLID
 10
3.2315757087
 20
5.5680265276
 30
0
 11
3.2315757087
 21
5.5689388908
 31
0
  0
LINE
  5
1D5
100
AcDbEntity
  8
SEMA2D
100
AcDbLine
370
9
 62
9
  6
_SOLID
 10
3.2351634119
 20
5.5546370369
 30
0
 11
3.2351634119
 21
5.5530969138
 31
0
  0
LINE
  5
1D6
100
AcDbEntity
  8
SEMA2D
100
AcDbLine
370
9
 62
9
  6
_SOLID
 10
3.2416345807
 20
5.5546370372
 30
0
 11
3.2416345807
 21
5.5530969138
 31
0
  0
LINE
  5
1D7
100
AcDbEntity
  8
SEMA2D
100
AcDbLine
370
9
 62
9
  6
_SOLID
 10
3.2452222839
 20
5.5680265278
 30
0
 11
3.2452222839
 21
5.5689388908
 31
0
  0
LINE
  5
1D8
100
AcDbEntity
  8
SEMA2D
100
AcDbLine
370
9
 62
9
  6
_SOLID
 10
3.2416345807
 20
5.5546370369
 30
0
 11
3.2452222626
 21
5.5680265276
 31
0
  0
LINE
  5
1D9
100
AcDbEntity
  8
SEMA2D
100
AcDbLine
370
9
 62
7
  6
_SOLID
 10
3.2443562314
 20
5.5544782987
 30
0
 11
3.2476996605
 21
5.5669561461
 31
0
  0
LINE
  5
1DA
100
AcDbEntity
  8
SEMA2D
100
AcDbLine
370
9
 62
7
  6
_SOLID
 10
3.2789316279
 20
5.5763939388
 30
0
 11
3.2786014022
 21
5.5826950197
 31
0
  0
LINE
  5
1DB
100
AcDbEntity
  8
SEMA2D
100
AcDbLine
370
9
 62
9
  6
_SOLID
 10
3.2742783062
 20
5.5763939388
 30
0
 11
3.2741082172
 21
5.582875891
 31
0
  0
LINE
  5
1DC
100
AcDbEntity
  8
SEMA2D
100
AcDbLine
370
9
 62
9
  6
_SOLID
 10
3.2746282178
 20
5.5735982958
 30
0
 11
3.2746282178
 21
5.5763939388
 31
0
  0
LINE
  5
1DD
100
AcDbEntity
  8
SEMA2D
100
AcDbLine
370
9
 62
7
  6
_SOLID
 10
3.2796305387
 20
5.5735982958
 30
0
 11
3.2796305387
 21
5.5763939388
 31
0
  0
LINE
  5
1DE
100
AcDbEntity
  8
SEMA2D
100
AcDbLine
370
9
 62
9
  6
_SOLID
 10
3.2738524829
 20
5.570705111
 30
0
 11
3.2739283945
 21
5.5735982958
 31
0
  0
LINE
  5
1DF
100
AcDbEntity
  8
SEMA2D
100
AcDbLine
370
9
 62
7
  6
_SOLID
 10
3.2782327172
 20
5.5735982958
 30
0
 11
3.2780810918
 21
5.570705111
 31
0
  0
ARC
  5
1E0
100
AcDbEntity
  8
SEMA2D
100
AcDbCircle
370
9
 62
7
  6
_SOLID
 10
3.116176293
 20
5.5824511653
 30
0
 40
0.00465940499999995
100
AcDbArc
 50
63.6962056306776
 51
177.000000002598
  0
ARC
  5
1E1
100
AcDbEntity
  8
SEMA2D
100
AcDbCircle
370
9
 62
7
  6
_SOLID
 10
3.1139047918
 20
5.5708026528
 30
0
 40
0.00186376200000016
100
AcDbArc
 50
182.999999997403
 51
270
  0
ARC
  5
1E2
100
AcDbEntity
  8
SEMA2D
100
AcDbCircle
370
9
 62
9
  6
_SOLID
 10
3.1302652882
 20
5.6149185962
 30
0
 40
0.0350679977999999
100
AcDbArc
 50
246.026097847282
 51
292.765200108353
  0
ARC
  5
1E3
100
AcDbEntity
  8
SEMA2D
100
AcDbCircle
370
9
 62
7
  6
_SOLID
 10
3.1478622623
 20
5.5772316773
 30
0
 40
0.0093188099999999
100
AcDbArc
 50
67.2351333656224
 51
112.765692743899
  0
ARC
  5
1E4
100
AcDbEntity
  8
SEMA2D
100
AcDbCircle
370
9
 62
9
  6
_SOLID
 10
3.1459986245
 20
5.5774267663
 30
0
 40
0.00559128050000002
100
AcDbArc
 50
67.2346979013035
 51
112.765301669851
  0
ARC
  5
1E5
100
AcDbEntity
  8
SEMA2D
100
AcDbCircle
370
9
 62
9
  6
_SOLID
 10
3.1394508073
 20
5.5675677102
 30
0
 40
0.00293590149999989
100
AcDbArc
 50
16.1448174352919
 51
27.848822364442
  0
ARC
  5
1E6
100
AcDbEntity
  8
SEMA2D
100
AcDbCircle
370
9
 62
7
  6
_SOLID
 10
3.1397485681
 20
5.5661432478
 30
0
 40
0.00279564299999979
100
AcDbArc
 50
14.9999999996979
 51
90
  0
ARC
  5
1E7
100
AcDbEntity
  8
SEMA2D
100
AcDbCircle
370
9
 62
7
  6
_SOLID
 10
3.1475687003
 20
5.5549606758
 30
0
 40
0.00186376200000016
100
AcDbArc
 50
194.999999999687
 51
270
  0
ARC
  5
1E8
100
AcDbEntity
  8
SEMA2D
100
AcDbCircle
370
9
 62
7
  6
_SOLID
 10
3.1321289037
 20
5.6147234395
 30
0
 40
0.0313403932000003
100
AcDbArc
 50
243.696176932124
 51
292.765270687273
  0
ARC
  5
1E9
100
AcDbEntity
  8
SEMA2D
100
AcDbCircle
370
9
 62
9
  6
_SOLID
 10
3.1808857941
 20
5.1025621498
 30
0
 40
0.466000022299999
100
AcDbArc
 50
92.3618796446334
 51
92.7474214606877
  0
ARC
  5
1EA
100
AcDbEntity
  8
SEMA2D
100
AcDbCircle
370
9
 62
7
  6
_SOLID
 10
3.1711662227
 20
5.5661432478
 30
0
 40
0.00279564299999979
100
AcDbArc
 50
90
 51
165.000000000302
  0
ARC
  5
1EB
100
AcDbEntity
  8
SEMA2D
100
AcDbCircle
370
9
 62
9
  6
_SOLID
 10
3.1711510305
 20
5.5661506976
 30
0
 40
0.0027884052999998
100
AcDbArc
 50
90
 51
164.381087616803
  0
ARC
  5
1EC
100
AcDbEntity
  8
SEMA2D
100
AcDbCircle
370
9
 62
7
  6
_SOLID
 10
3.1633460905
 20
5.5549606758
 30
0
 40
0.00186376200000016
100
AcDbArc
 50
270
 51
345.000000000313
  0
ARC
  5
1ED
100
AcDbEntity
  8
SEMA2D
100
AcDbCircle
370
9
 62
9
  6
_SOLID
 10
3.1688553783
 20
5.5856296768
 30
0
 40
0.00177508929999992
100
AcDbArc
 50
270
 51
278.095482601824
  0
ARC
  5
1EE
100
AcDbEntity
  8
SEMA2D
100
AcDbCircle
370
9
 62
9
  6
_SOLID
 10
3.1685760316
 20
5.5852411545
 30
0
 40
0.00144039869999979
100
AcDbArc
 50
270
 51
279.584628449965
  0
ARC
  5
1EF
100
AcDbEntity
  8
SEMA2D
100
AcDbCircle
370
9
 62
9
  6
_SOLID
 10
3.161732002
 20
5.6149185865
 30
0
 40
0.0350679865999999
100
AcDbArc
 50
247.234731852693
 51
292.76521114311
  0
ARC
  5
1F0
100
AcDbEntity
  8
SEMA2D
100
AcDbCircle
370
9
 62
7
  6
_SOLID
 10
3.1635956208
 20
5.6147234395
 30
0
 40
0.0313403932000003
100
AcDbArc
 50
247.234726290572
 51
292.765589248873
  0
ARC
  5
1F1
100
AcDbEntity
  8
SEMA2D
100
AcDbCircle
370
9
 62
7
  6
_SOLID
 10
3.1793289794
 20
5.5772316773
 30
0
 40
0.0093188099999999
100
AcDbArc
 50
67.2338779347824
 51
112.764239024553
  0
ARC
  5
1F2
100
AcDbEntity
  8
SEMA2D
100
AcDbCircle
370
9
 62
9
  6
_SOLID
 10
3.1774653416
 20
5.5774267663
 30
0
 40
0.00559128050000002
100
AcDbArc
 50
67.2346978757373
 51
112.765301669851
  0
ARC
  5
1F3
100
AcDbEntity
  8
SEMA2D
100
AcDbCircle
370
9
 62
9
  6
_SOLID
 10
3.1931981786
 20
5.6149163872
 30
0
 40
0.0350657459999999
100
AcDbArc
 50
247.234155618807
 51
265.570957303273
  0
ARC
  5
1F4
100
AcDbEntity
  8
SEMA2D
100
AcDbCircle
370
9
 62
9
  6
_SOLID
 10
3.1759060931
 20
6.1941411059
 30
0
 40
0.639846965999999
100
AcDbArc
 50
268.124134915988
 51
268.399183338312
  0
ARC
  5
1F5
100
AcDbEntity
  8
SEMA2D
100
AcDbCircle
370
9
 62
9
  6
_SOLID
 10
3.2096068106
 20
5.1108086011
 30
0
 40
0.4577454147
100
AcDbArc
 50
87.249102259395
 51
87.6415966490176
  0
ARC
  5
1F6
100
AcDbEntity
  8
SEMA2D
100
AcDbCircle
370
9
 62
7
  6
_SOLID
 10
3.2107956964
 20
5.5772316773
 30
0
 40
0.0093188099999999
100
AcDbArc
 50
67.234684162616
 51
112.765317203668
  0
ARC
  5
1F7
100
AcDbEntity
  8
SEMA2D
100
AcDbCircle
370
9
 62
9
  6
_SOLID
 10
3.2126593341
 20
5.5774267663
 30
0
 40
0.00559128050000002
100
AcDbArc
 50
67.2346970691978
 51
112.765300948361
  0
ARC
  5
1F8
100
AcDbEntity
  8
SEMA2D
100
AcDbCircle
370
9
 62
9
  6
_SOLID
 10
3.1969265006
 20
5.6149163765
 30
0
 40
0.0350657347999999
100
AcDbArc
 50
274.429050868528
 51
292.765846073198
  0
ARC
  5
1F9
100
AcDbEntity
  8
SEMA2D
100
AcDbCircle
370
9
 62
7
  6
_SOLID
 10
3.1950623379
 20
5.6147234395
 30
0
 40
0.0313403932000003
100
AcDbArc
 50
247.234731311019
 51
292.765268663414
  0
ARC
  5
1FA
100
AcDbEntity
  8
SEMA2D
100
AcDbCircle
370
9
 62
7
  6
_SOLID
 10
3.2189584531
 20
5.5661432478
 30
0
 40
0.00279564299999979
100
AcDbArc
 50
14.9999999996979
 51
90
  0
ARC
  5
1FB
100
AcDbEntity
  8
SEMA2D
100
AcDbCircle
370
9
 62
9
  6
_SOLID
 10
3.2189725502
 20
5.5661499226
 30
0
 40
0.0027896691
100
AcDbArc
 50
15.6281852620427
 51
80.3061807953486
  0
ARC
  5
1FC
100
AcDbEntity
  8
SEMA2D
100
AcDbCircle
370
9
 62
9
  6
_SOLID
 10
3.2189769004
 20
5.5661688178
 30
0
 40
0.00277007519999994
100
AcDbArc
 50
81.6815932216785
 51
90
  0
ARC
  5
1FD
100
AcDbEntity
  8
SEMA2D
100
AcDbCircle
370
9
 62
7
  6
_SOLID
 10
3.2267785853
 20
5.5549606758
 30
0
 40
0.00186376200000016
100
AcDbArc
 50
194.999999999687
 51
270
  0
ARC
  5
1FE
100
AcDbEntity
  8
SEMA2D
100
AcDbCircle
370
9
 62
9
  6
_SOLID
 10
3.2212692854
 20
5.5856296768
 30
0
 40
0.00177508700000018
100
AcDbArc
 50
261.904413088597
 51
270
  0
ARC
  5
1FF
100
AcDbEntity
  8
SEMA2D
100
AcDbCircle
370
9
 62
9
  6
_SOLID
 10
3.2215487145
 20
5.5852430687
 30
0
 40
0.00144229640000026
100
AcDbArc
 50
260.425087838948
 51
270
  0
ARC
  5
200
100
AcDbEntity
  8
SEMA2D
100
AcDbCircle
370
9
 62
7
  6
_SOLID
 10
3.226529055
 20
5.6147234395
 30
0
 40
0.0313403932000003
100
AcDbArc
 50
247.234730928031
 51
292.765273827546
  0
ARC
  5
201
100
AcDbEntity
  8
SEMA2D
100
AcDbCircle
370
9
 62
7
  6
_SOLID
 10
3.2422624135
 20
5.5772316773
 30
0
 40
0.0093188099999999
100
AcDbArc
 50
67.2343566104008
 51
112.764775152123
  0
ARC
  5
202
100
AcDbEntity
  8
SEMA2D
100
AcDbCircle
370
9
 62
9
  6
_SOLID
 10
3.2506764776
 20
5.5675667418
 30
0
 40
0.00293867699999972
100
AcDbArc
 50
152.839569467693
 51
163.851017937671
  0
ARC
  5
203
100
AcDbEntity
  8
SEMA2D
100
AcDbCircle
370
9
 62
9
  6
_SOLID
 10
3.2503733948
 20
5.566133191
 30
0
 40
0.00284163209999999
100
AcDbArc
 50
98.9378427836701
 51
104.233622851103
  0
ARC
  5
204
100
AcDbEntity
  8
SEMA2D
100
AcDbCircle
370
9
 62
9
  6
_SOLID
 10
3.2503669556
 20
5.5661579247
 30
0
 40
0.00281607030000042
100
AcDbArc
 50
105.5713697796
 51
107.879672320095
  0
ARC
  5
205
100
AcDbEntity
  8
SEMA2D
100
AcDbCircle
370
9
 62
7
  6
_SOLID
 10
3.2503761077
 20
5.5661432478
 30
0
 40
0.00279564299999979
100
AcDbArc
 50
90
 51
165.000000000302
  0
ARC
  5
206
100
AcDbEntity
  8
SEMA2D
100
AcDbCircle
370
9
 62
7
  6
_SOLID
 10
3.2425559755
 20
5.5549606758
 30
0
 40
0.00186376200000016
100
AcDbArc
 50
270
 51
345.000000000313
  0
ARC
  5
207
100
AcDbEntity
  8
SEMA2D
100
AcDbCircle
370
9
 62
7
  6
_SOLID
 10
3.2579957721
 20
5.6147234395
 30
0
 40
0.0313403932000003
100
AcDbArc
 50
247.234729734066
 51
296.30379848704
  0
ARC
  5
208
100
AcDbEntity
  8
SEMA2D
100
AcDbCircle
370
9
 62
7
  6
_SOLID
 10
3.2739483828
 20
5.5824511653
 30
0
 40
0.00465940499999995
100
AcDbArc
 50
2.99999999740246
 51
116.303794369322
  0
ARC
  5
209
100
AcDbEntity
  8
SEMA2D
100
AcDbCircle
370
9
 62
7
  6
_SOLID
 10
3.276219884
 20
5.5708026528
 30
0
 40
0.00186376200000016
100
AcDbArc
 50
270
 51
-2.9999999974026
  0
ARC
  5
20A
100
AcDbEntity
  8
SEMA2D
100
AcDbCircle
370
9
 62
9
  6
_SOLID
 10
3.2598594091
 20
5.6149185196
 30
0
 40
0.0350679137999999
100
AcDbArc
 50
247.234719066445
 51
293.973895468404
  0
ARC
  5
20B
100
AcDbEntity
  8
SEMA2D
100
AcDbCircle
370
9
 62
9
  6
_SOLID
 10
3.2142179153
 20
6.194162615
 30
0
 40
0.639868485499999
100
AcDbArc
 50
271.600823505577
 51
271.875861787894
  0
ARC
  5
20C
100
AcDbEntity
  8
SEMA2D
100
AcDbCircle
370
9
 62
9
  6
_SOLID
 10
3.1950623381
 20
5.6796866473
 30
0
 40
0.0998360403999998
100
AcDbArc
 50
267.375164413016
 51
272.624839636481
  0
LINE
  5
20D
100
AcDbEntity
  8
SEMA2D
100
AcDbLine
370
9
 62
9
  6
_SOLID
 10
3.2366607203
 20
5.5871105741
 30
0
 11
3.237804012
 21
5.5894402709
 31
0
  0
LINE
  5
20E
100
AcDbEntity
  8
SEMA2D
100
AcDbLine
370
9
 62
9
  6
_SOLID
 10
3.2389855968
 20
5.5894402709
 30
0
 11
3.2401288885
 21
5.5871105741
 31
0
  0
LINE
  5
20F
100
AcDbEntity
  8
SEMA2D
100
AcDbLine
370
9
 62
9
  6
_SOLID
 10
3.1499957873
 20
5.5871105741
 30
0
 11
3.151139079
 21
5.5894402709
 31
0
  0
LINE
  5
210
100
AcDbEntity
  8
SEMA2D
100
AcDbLine
370
9
 62
9
  6
_SOLID
 10
3.1523206638
 20
5.5894402709
 30
0
 11
3.1534639555
 21
5.5871105741
 31
0
  0
ARC
  5
211
100
AcDbEntity
  8
SEMA2D
100
AcDbCircle
370
9
 62
9
  6
_SOLID
 10
3.226529055
 20
5.611582473
 30
0
 40
0.0313403931999998
100
AcDbArc
 50
247.234730928031
 51
292.765273827547
  0
ARC
  5
212
100
AcDbEntity
  8
SEMA2D
100
AcDbCircle
370
9
 62
9
  6
_SOLID
 10
3.2422624135
 20
5.5742316773
 30
0
 40
0.0093188099999999
100
AcDbArc
 50
67.2343566104008
 51
112.764775152123
  0
LINE
  5
213
100
AcDbEntity
  8
SEMA2D
100
AcDbLine
370
9
 62
7
  6
_SOLID
 10
2.9814856694
 20
5.4658508647
 30
0
 11
2.9814859939
 21
5.2236971981
 31
0
  0
LINE
  5
214
100
AcDbEntity
  8
SEMA2D
100
AcDbLine
370
9
 62
9
  6
_SOLID
 10
2.98590122
 20
5.4659924099
 30
0
 11
2.98590122
 21
5.2199515972
 31
0
  0
LINE
  5
215
100
AcDbEntity
  8
SEMA2D
100
AcDbLine
370
9
 62
7
  6
_SOLID
 10
2.9922023009
 20
5.4689389524
 30
0
 11
2.9922023009
 21
5.2189388908
 31
0
  0
LINE
  5
216
100
AcDbEntity
  8
SEMA2D
100
AcDbLine
370
9
 62
7
  6
_SOLID
 10
2.9949979439
 20
5.4689389524
 30
0
 11
2.9949979439
 21
5.2189388908
 31
0
  0
LINE
  5
217
100
AcDbEntity
  8
SEMA2D
100
AcDbLine
370
9
 62
9
  6
_SOLID
 10
2.9978911286
 20
5.4654619828
 30
0
 11
2.9978911286
 21
5.2204878595
 31
0
  0
LINE
  5
218
100
AcDbEntity
  8
SEMA2D
100
AcDbLine
370
9
 62
7
  6
_SOLID
 10
2.9996573489
 20
5.4654619828
 30
0
 11
2.9996573489
 21
5.2205827198
 31
0
  0
LINE
  5
219
100
AcDbEntity
  8
SEMA2D
100
AcDbLine
370
9
 62
9
  6
_SOLID
 10
3.0017294262
 20
5.4485223806
 30
0
 11
3.0017294262
 21
5.4622657021
 31
0
  0
LINE
  5
21A
100
AcDbEntity
  8
SEMA2D
100
AcDbLine
370
9
 62
9
  6
_SOLID
 10
3.014117941
 20
5.4498397228
 30
0
 11
3.014117941
 21
5.4548589092
 31
0
  0
LINE
  5
21B
100
AcDbEntity
  8
SEMA2D
100
AcDbLine
370
9
 62
7
  6
_SOLID
 10
3.0154993259
 20
5.4489184224
 30
0
 11
3.0154993259
 21
5.4577302798
 31
0
  0
LINE
  5
21C
100
AcDbEntity
  8
SEMA2D
100
AcDbLine
370
9
 62
7
  6
_SOLID
 10
3.0139592028
 20
5.4470472877
 30
0
 11
3.0005697121
 21
5.4446404546
 31
0
  0
LINE
  5
21D
100
AcDbEntity
  8
SEMA2D
100
AcDbLine
370
9
 62
9
  6
_SOLID
 10
3.014117941
 20
5.4498397228
 30
0
 11
3.0016400936
 21
5.447596698
 31
0
  0
LINE
  5
21E
100
AcDbEntity
  8
SEMA2D
100
AcDbLine
370
9
 62
9
  6
_SOLID
 10
3.014117941
 20
5.4548589092
 30
0
 11
3.0017294262
 21
5.4622657021
 31
0
  0
LINE
  5
21F
100
AcDbEntity
  8
SEMA2D
100
AcDbLine
370
9
 62
7
  6
_SOLID
 10
3.0145784231
 20
5.4593692156
 30
0
 11
3.0023238032
 21
5.46669596
 31
0
  0
LINE
  5
220
100
AcDbEntity
  8
SEMA2D
100
AcDbLine
370
9
 62
7
  6
_SOLID
 10
2.9922023009
 20
5.4682264524
 30
0
 11
2.9832518896
 21
5.4677482609
 31
0
  0
LINE
  5
221
100
AcDbEntity
  8
SEMA2D
100
AcDbLine
370
9
 62
9
  6
_SOLID
 10
3.0017294262
 20
5.4485223806
 30
0
 11
2.9996573489
 21
5.4485223806
 31
0
  0
LINE
  5
222
100
AcDbEntity
  8
SEMA2D
100
AcDbLine
370
9
 62
9
  6
_SOLID
 10
3.014117941
 20
5.4498397228
 30
0
 11
3.0154993259
 21
5.4498397228
 31
0
  0
LINE
  5
223
100
AcDbEntity
  8
SEMA2D
100
AcDbLine
370
9
 62
9
  6
_SOLID
 10
3.014117941
 20
5.4548589092
 30
0
 11
3.0154993259
 21
5.4548589092
 31
0
  0
LINE
  5
224
100
AcDbEntity
  8
SEMA2D
100
AcDbLine
370
9
 62
9
  6
_SOLID
 10
3.0017294262
 20
5.4622657061
 30
0
 11
2.9996573489
 21
5.4622657061
 31
0
  0
LINE
  5
225
100
AcDbEntity
  8
SEMA2D
100
AcDbLine
370
9
 62
9
  6
_SOLID
 10
2.9996573489
 20
5.4654619828
 30
0
 11
2.9978911286
 21
5.4654619828
 31
0
  0
LINE
  5
226
100
AcDbEntity
  8
SEMA2D
100
AcDbLine
370
9
 62
7
  6
_SOLID
 10
2.9949979439
 20
5.4689389524
 30
0
 11
2.9922023009
 21
5.4689389524
 31
0
  0
LINE
  5
227
100
AcDbEntity
  8
SEMA2D
100
AcDbLine
370
9
 62
9
  6
_SOLID
 10
2.9949979439
 20
5.4656165563
 30
0
 11
2.9978911286
 21
5.4654619828
 31
0
  0
LINE
  5
228
100
AcDbEntity
  8
SEMA2D
100
AcDbLine
370
9
 62
7
  6
_SOLID
 10
2.9949979439
 20
5.4675139524
 30
0
 11
3.0006331683
 21
5.4672128806
 31
0
  0
ARC
  5
229
100
AcDbEntity
  8
SEMA2D
100
AcDbCircle
370
9
 62
9
  6
_SOLID
 10
2.7882984553
 20
5.4673579595
 30
0
 40
0.2133334286
100
AcDbArc
 50
358.816524828806
 51
359.191266365231
  0
ARC
  5
22A
100
AcDbEntity
  8
SEMA2D
100
AcDbCircle
370
9
 62
9
  6
_SOLID
 10
3.0839245103
 20
5.4797612478
 30
0
 40
0.0840364567000003
100
AcDbArc
 50
191.538468276698
 51
192.016300374066
  0
ARC
  5
22B
100
AcDbEntity
  8
SEMA2D
100
AcDbCircle
370
9
 62
9
  6
_SOLID
 10
2.9968906774
 20
5.4485221905
 30
0
 40
0.00483874889999969
100
AcDbArc
 50
348.973271792485
 51
0.0022509964828017
  0
ARC
  5
22C
100
AcDbEntity
  8
SEMA2D
100
AcDbCircle
370
9
 62
7
  6
_SOLID
 10
3.0004359086
 20
5.4635452189
 30
0
 40
0.00367285090000014
100
AcDbArc
 50
59.0703521086933
 51
83.4462787530871
  0
ARC
  5
22D
100
AcDbEntity
  8
SEMA2D
100
AcDbCircle
370
9
 62
7
  6
_SOLID
 10
3.0004366912
 20
5.4635672193
 30
0
 40
0.00365090000000023
100
AcDbArc
 50
84.926723750154
 51
86.9151206646316
  0
ARC
  5
22E
100
AcDbEntity
  8
SEMA2D
100
AcDbCircle
370
9
 62
9
  6
_SOLID
 10
3.0005561452
 20
5.463703935
 30
0
 40
0.00347514389999981
100
AcDbArc
 50
59.4256567533421
 51
86.6871691420189
  0
ARC
  5
22F
100
AcDbEntity
  8
SEMA2D
100
AcDbCircle
370
9
 62
7
  6
_SOLID
 10
2.9977130894
 20
5.4654602038
 30
0
 40
0.00194432989999971
100
AcDbArc
 50
7.53071421416859
 51
11.8010700071609
  0
ARC
  5
230
100
AcDbEntity
  8
SEMA2D
100
AcDbCircle
370
9
 62
7
  6
_SOLID
 10
2.9977196414
 20
5.4654609426
 30
0
 40
0.00193773619999993
100
AcDbArc
 50
4.06559377041863
 51
7.53207982582204
  0
ARC
  5
231
100
AcDbEntity
  8
SEMA2D
100
AcDbCircle
370
9
 62
7
  6
_SOLID
 10
2.9977230508
 20
5.4654626567
 30
0
 40
0.00193408029999986
100
AcDbArc
 50
11.7929158137778
 51
19.3806657029817
  0
ARC
  5
232
100
AcDbEntity
  8
SEMA2D
100
AcDbCircle
370
9
 62
7
  6
_SOLID
 10
3.0135753057
 20
5.4577301341
 30
0
 40
0.00192402020000015
100
AcDbArc
 50
0.00433984018828736
 51
4.20882390675444
  0
ARC
  5
233
100
AcDbEntity
  8
SEMA2D
100
AcDbCircle
370
9
 62
7
  6
_SOLID
 10
2.9977342718
 20
5.4654618594
 30
0
 40
0.00192307710000028
100
AcDbArc
 50
0.00325809013678788
 51
3.84644272949165
  0
ARC
  5
234
100
AcDbEntity
  8
SEMA2D
100
AcDbCircle
370
9
 62
7
  6
_SOLID
 10
2.9977442914
 20
5.4654688697
 30
0
 40
0.00191202800000001
100
AcDbArc
 50
25.500846261534
 51
28.5628007243807
  0
ARC
  5
235
100
AcDbEntity
  8
SEMA2D
100
AcDbCircle
370
9
 62
7
  6
_SOLID
 10
2.9977540423
 20
5.4654733518
 30
0
 40
0.00190129589999977
100
AcDbArc
 50
19.3865497367935
 51
23.8456625342529
  0
ARC
  5
236
100
AcDbEntity
  8
SEMA2D
100
AcDbCircle
370
9
 62
7
  6
_SOLID
 10
3.0136175086
 20
5.4577634595
 30
0
 40
0.00187121140000013
100
AcDbArc
 50
54.8382903506967
 51
59.1029082816277
  0
LINE
  5
237
100
AcDbEntity
  8
SEMA2D
100
AcDbLine
370
9
 62
9
  6
_SOLID
 10
2.98590122
 20
5.4659924099
 30
0
 11
2.9814856694
 21
5.4658508647
 31
0
  0
LINE
  5
238
100
AcDbEntity
  8
SEMA2D
100
AcDbLine
370
9
 62
7
  6
_SOLID
 10
2.9995623741
 20
5.2205776189
 30
0
 11
2.9949273741
 21
5.220328682
 31
0
  0
LINE
  5
239
100
AcDbEntity
  8
SEMA2D
100
AcDbLine
370
9
 62
7
  6
_SOLID
 10
2.9949273741
 20
5.218903682
 30
0
 11
2.9921463741
 21
5.218903682
 31
0
  0
LINE
  5
23A
100
AcDbEntity
  8
SEMA2D
100
AcDbLine
370
9
 62
7
  6
_SOLID
 10
2.985
 20
5.22
 30
0
 11
2.9921463741
 21
5.219616182
 31
0
  0
ARC
  5
23B
100
AcDbEntity
  8
SEMA2D
100
AcDbCircle
370
9
 62
7
  6
_SOLID
 10
2.985240941
 20
5.2237475826
 30
0
 40
0.00375531990000022
100
AcDbArc
 50
179.231403157536
 51
266.321381002573
  0
LINE
  5
23C
100
AcDbEntity
  8
SEMA2D
100
AcDbLine
370
9
 62
7
  6
_DOT
 10
2.9814856251
 20
5.4989387179
 30
0
 11
2.9814856251
 21
5.4659924099
 31
0
  0
LINE
  5
23D
100
AcDbEntity
  8
SEMA2D
100
AcDbLine
370
9
 62
7
  6
_DOT
 10
2.9996406045
 20
5.4989387422
 30
0
 11
2.9996406045
 21
5.4689388908
 31
0
  0
LINE
  5
23E
100
AcDbEntity
  8
SEMA2D
100
AcDbLine
370
9
 62
7
  6
_DOT
 10
3.0154993259
 20
5.4989388908
 30
0
 11
3.0154993259
 21
5.4577302798
 31
0
  0
LINE
  5
23F
100
AcDbEntity
  8
SEMA2D
100
AcDbLine
370
9
 62
7
  6
_DOT
 10
2.9649979439
 20
5.4689389524
 30
0
 11
2.9922023009
 21
5.4689389524
 31
0
  0
LINE
  5
240
100
AcDbEntity
  8
SEMA2D
100
AcDbLine
370
9
 62
7
  6
_DOT
 10
2.9649979439
 20
5.4446404546
 30
0
 11
3.0005697121
 21
5.4446404546
 31
0
  0
LINE
  5
241
100
AcDbEntity
  8
SEMA2D
100
AcDbLine
370
9
 62
7
  6
_DOT
 10
3.0315697121
 20
5.4446404546
 30
0
 11
3.0005697121
 21
5.4446404546
 31
0
  0
LINE
  5
242
100
AcDbEntity
  8
SEMA2D
100
AcDbLine
370
9
 62
7
  6
_DOT
 10
3.0315697121
 20
5.2189388908
 30
0
 11
2.9945697121
 21
5.2189388908
 31
0
  0
LINE
  5
243
100
AcDbEntity
  8
SEMA2D
100
AcDbLine
370
9
 62
7
  6
_DOT
 10
3.3096305387
 20
5.2189388908
 30
0
 11
3.2176305387
 21
5.2189388908
 31
0
  0
LINE
  5
244
100
AcDbEntity
  8
SEMA2D
100
AcDbLine
370
9
 62
7
  6
_DOT
 10
3.3096305387
 20
5.4689388908
 30
0
 11
3.2796305387
 21
5.4689388908
 31
0
  0
LINE
  5
245
100
AcDbEntity
  8
SEMA2D
100
AcDbLine
370
9
 62
7
  6
_DOT
 10
3.2796305387
 20
5.4989388908
 30
0
 11
3.2796305387
 21
5.4689388908
 31
0
  0
LINE
  5
246
100
AcDbEntity
  8
SEMA2D
100
AcDbLine
370
9
 62
7
  6
_DOT
 10
3.1104941372
 20
5.4989388908
 30
0
 11
3.1104941372
 21
5.4682263908
 31
0
  0
ENDSEC
  0
SECTION
  2
OBJECTS
  0
DICTIONARY
  5
257
100
AcDbDictionary
  3
ACAD_GROUP
350
258
  3
ACAD_MATERIAL
350
259
  3
ACAD_WIPEOUT_VARS
350
25A
  3
ACAD_MLINESTYLE
350
25B
  3
ACAD_LAYOUT
350
25C
  0
DICTIONARY
  5
258
330
257
100
AcDbDictionary
  0
DICTIONARY
  5
259
330
257
100
AcDbDictionary
  0
WIPEOUTVARIABLES
  5
25A
330
257
100
AcDbWipeoutVariables
 70
1
  0
DICTIONARY
  5
25B
330
257
100
AcDbDictionary
  3
STANDARD
350
25D
  0
MLINESTYLE
  5
25D
100
AcDbMlineStyle
  2
STANDARD
 70
0
  3

 62
256
 51
90
 52
90
 71
2
 49
0.5
 62
256
  6
ByLayer
 49
-0.5
 62
256
  6
ByLayer
  0
DICTIONARY
  5
25C
100
AcDbDictionary
281
1
  3
Model
350
247
  0
LAYOUT
  5
247
102
{ACAD_REACTORS
330
25C
102
}
330
25C
100
AcDbPlotSettings
  1

  2
none_device
  4

  6

 40
0
 41
0
 42
0
 43
0
 44
0
 45
0
 46
0
 47
0
 48
0
 49
0
 70
1712
 72
1
 73
0
 74
5
 75
16
 76
0
 77
0
 78
100
140
0
141
0
142
1
143
1
147
1
148
0
149
0
100
AcDbLayout
  1
Model
 70
1
 71
1
 10
2.9565979439
 20
5.2175138908
 11
3.32220178343513
 21
5.624592070733
 12
0
 22
0
 32
0
 14
2.9565979439
 24
5.2175138908
 34
0
 15
3.32220178343513
 25
5.624592070733
 35
0
146
0
 13
0
 23
0
 33
0
 16
1
 26
0
 36
0
 17
0
 27
1
 37
0
 76
0
330
2A
  0
DICTIONARY
  5
25E
100
AcDbDictionary
280
1
  3
XINFO
360
25F
  0
XRECORD
  5
25F
102
{ACAD_REACTORS
330
25E
102
}
330
25E
100
AcDbXrecord
280
0
310
0000000002001400
311
F8CC670491236B08
  0
ENDSEC
  0
EOF
