999
Created by Soft Gold Ltd. www.cadsofttools.com
999

  0
SECTION
  2
HEADER
  9
$ACADVER
  1
AC1021
  9
$DWGCODEPAGE
  3
ANSI_1252
  9
$CLAYER
  8
0
  9
$CELTYPE
  6
BYLAYER
  9
$CELTSCALE
 40
1
  9
$CELWEIGHT
370
-1
  9
$DIMALT
 70
0
  9
$DIMALTF
 40
1
  9
$DIMPOST
  1

  9
$DIMAPOST
  1

  9
$DIMSCALE
 40
1
  9
$DIMASZ
 40
0.18
  9
$DIMCLRD
 70
0
  9
$DIMCLRE
 70
0
  9
$DIMCLRT
 70
0
  9
$DIMEXE
 40
0.18
  9
$DIMEXO
 40
0.0625
  9
$DIMGAP
 40
0.0625
  9
$DIMLFAC
 40
1
  9
$DIMDEC
 70
4
  9
$DIMTAD
 70
0
  9
$DIMCEN
 40
0.09
  9
$DIMTIH
 70
1
  9
$DIMTIX
 70
0
  9
$DIMTOH
 70
1
  9
$DIMSE1
 70
0
  9
$DIMSE2
 70
0
  9
$DIMSD1
 70
0
  9
$DIMSD2
 70
0
  9
$DIMLWD
 70
-1
  9
$DIMLWE
 70
-1
  9
$DIMSAH
 70
0
  9
$DIMBLK
  1

  9
$DIMBLK1
  1

  9
$DIMBLK2
  1

  9
$DIMLDRBLK
  1

  9
$DIMSTYLE
  2
STANDARD
  9
$DIMTP
 40
0
  9
$DIMTM
 40
0
  9
$DIMTXT
 40
0.18
  9
$DIMLUNIT
 70
2
  9
$DIMDSEP
 70
46
  9
$DIMTXSTY
  7
STANDARD
  9
$TEXTSIZE
 40
0.18
  9
$TEXTSTYLE
  7
STANDARD
  9
$HANDSEED
  5
0000000000000551
  9
$FILLETRAD
 40
0.5
  9
$INSUNITS
 70
4
  9
$LIMMIN
 10
4.33581145922612
 20
4.84606812370837
  9
$LIMMAX
 10
5.61426436296493
 20
5.63616584862463
  9
$FILLMODE
 70
1
  9
$LTSCALE
 40
1
  9
$MEASUREMENT
 70
0
  9
$ATTMODE
 70
1
  9
$PDMODE
 70
0
  9
$PDSIZE
 40
0
  9
$TILEMODE
 70
1
  9
$UCSORG
 10
0
 20
0
 30
0
  9
$UCSXDIR
 10
1
 20
0
 30
0
  9
$UCSYDIR
 10
0
 20
1
 30
0
  9
$INSBASE
 10
0
 20
0
 30
0
  9
$XCLIPFRAME
290
1
  9
$DIMASSOC
280
2
  9
$TDCREATE
 40
2459018.60387017
  9
$TDINDWG
 40
3.125E-7
  9
$TDUPDATE
 40
2459018.60387049
  0
ENDSEC
  0
SECTION
  2
CLASSES
  0
CLASS
  1
IMAGE
  2
AcDbRasterImage
  3
ISM
 90
2175
 91
1
280
0
281
1
  0
CLASS
  1
IMAGEDEF
  2
AcDbRasterImageDef
  3
ISM
 90
0
 91
1
280
0
281
0
  0
CLASS
  1
WIPEOUT
  2
AcDbWipeout
  3
"WipeOut"
 90
2175
 91
1
280
0
281
1
  0
CLASS
  1
WIPEOUTVARIABLES
  2
AcDbWipeoutVariables
  3
"WipeOut"
 90
0
 91
1
280
0
281
0
  0
CLASS
  1
MPOLYGON
  2
AcDbMPolygon
  3
"AcMPolygonObj15"
 90
3071
 91
1
280
0
281
1
  0
ENDSEC
  0
SECTION
  2
TABLES
  0
TABLE
  2
APPID
  5
539
100
AcDbSymbolTable
  0
APPID
  5
53A
100
AcDbSymbolTableRecord
100
AcDbRegAppTableRecord
  2
ACAD
 70
0
  0
APPID
  5
12
100
AcDbSymbolTableRecord
100
AcDbRegAppTableRecord
  2
CSTINVENTORY
 70
0
  0
APPID
  5
53B
100
AcDbSymbolTableRecord
100
AcDbRegAppTableRecord
  2
PE_URL
 70
0
  0
ENDTAB
  0
TABLE
  2
BLOCK_RECORD
  5
53C
100
AcDbSymbolTable
  0
BLOCK_RECORD
  5
2A
100
AcDbSymbolTableRecord
100
AcDbBlockTableRecord
  2
*MODEL_SPACE
  0
BLOCK_RECORD
  5
53D
100
AcDbSymbolTableRecord
100
AcDbBlockTableRecord
  2
*PAPER_SPACE
  0
BLOCK_RECORD
  5
10
100
AcDbSymbolTableRecord
100
AcDbBlockTableRecord
  2
_CLOSEDFILLED
  0
ENDTAB
  0
TABLE
  2
STYLE
  5
3
100
AcDbSymbolTable
  0
STYLE
  5
A
100
AcDbSymbolTableRecord
100
AcDbTextStyleTableRecord
  2
STANDARD
 70
0
 40
0
 41
1
 50
0
 71
0
 42
2.5
  3
txt
  4

1001
ACAD
1000
txt
1071
0
  0
ENDTAB
  0
TABLE
  2
LTYPE
  5
1
100
AcDbSymbolTable
  0
LTYPE
  5
9
100
AcDbSymbolTableRecord
100
AcDbLinetypeTableRecord
  2
CONTINUOUS
 70
0
  3

 72
65
 73
0
 40
0
  0
LTYPE
  5
7
100
AcDbSymbolTableRecord
100
AcDbLinetypeTableRecord
  2
BYLAYER
 70
0
  3

 72
65
 73
0
 40
0
  0
LTYPE
  5
8
100
AcDbSymbolTableRecord
100
AcDbLinetypeTableRecord
  2
BYBLOCK
 70
0
  3

 72
65
 73
0
 40
0
  0
LTYPE
  5
13
100
AcDbSymbolTableRecord
100
AcDbLinetypeTableRecord
  2
_SOLID
 70
0
  3
_.
 72
65
 73
2
 40
5
 49
5
 74
0
 49
0
 74
0
  0
LTYPE
  5
14
100
AcDbSymbolTableRecord
100
AcDbLinetypeTableRecord
  2
_DASH
 70
0
  3
_ 
 72
65
 73
2
 40
7
 49
5
 74
0
 49
-2
 74
0
  0
LTYPE
  5
15
100
AcDbSymbolTableRecord
100
AcDbLinetypeTableRecord
  2
_DOT
 70
0
  3
_ 
 72
65
 73
2
 40
4
 49
2
 74
0
 49
-2
 74
0
  0
LTYPE
  5
16
100
AcDbSymbolTableRecord
100
AcDbLinetypeTableRecord
  2
_DASHDOT
 70
0
  3
_ _ 
 72
65
 73
4
 40
11
 49
5
 74
0
 49
-2
 74
0
 49
2
 74
0
 49
-2
 74
0
  0
LTYPE
  5
17
100
AcDbSymbolTableRecord
100
AcDbLinetypeTableRecord
  2
_DASHDOTDOT
 70
0
  3
_ _ _ 
 72
65
 73
6
 40
15
 49
5
 74
0
 49
-2
 74
0
 49
2
 74
0
 49
-2
 74
0
 49
2
 74
0
 49
-2
 74
0
  0
LTYPE
  5
18
100
AcDbSymbolTableRecord
100
AcDbLinetypeTableRecord
  2
ISO128-20-02
 70
0
  3
_ 
 72
65
 73
2
 40
5
 49
4
 74
0
 49
-1
 74
0
  0
LTYPE
  5
19
100
AcDbSymbolTableRecord
100
AcDbLinetypeTableRecord
  2
ISO128-20-03
 70
0
  3
_ 
 72
65
 73
2
 40
10
 49
4
 74
0
 49
-6
 74
0
  0
LTYPE
  5
1A
100
AcDbSymbolTableRecord
100
AcDbLinetypeTableRecord
  2
ISO128-20-04
 70
0
  3
_ . 
 72
65
 73
4
 40
10
 49
8
 74
0
 49
-1
 74
0
 49
0
 74
0
 49
-1
 74
0
  0
LTYPE
  5
1B
100
AcDbSymbolTableRecord
100
AcDbLinetypeTableRecord
  2
ISO128-20-05
 70
0
  3
_ . . 
 72
65
 73
6
 40
11
 49
8
 74
0
 49
-1
 74
0
 49
0
 74
0
 49
-1
 74
0
 49
0
 74
0
 49
-1
 74
0
  0
LTYPE
  5
1C
100
AcDbSymbolTableRecord
100
AcDbLinetypeTableRecord
  2
ISO128-20-06
 70
0
  3
_ . . . 
 72
65
 73
8
 40
12
 49
8
 74
0
 49
-1
 74
0
 49
0
 74
0
 49
-1
 74
0
 49
0
 74
0
 49
-1
 74
0
 49
0
 74
0
 49
-1
 74
0
  0
LTYPE
  5
1D
100
AcDbSymbolTableRecord
100
AcDbLinetypeTableRecord
  2
ISO128-20-07
 70
0
  3
. 
 72
65
 73
2
 40
1
 49
0
 74
0
 49
-1
 74
0
  0
LTYPE
  5
1E
100
AcDbSymbolTableRecord
100
AcDbLinetypeTableRecord
  2
ISO128-20-08
 70
0
  3
_ _ 
 72
65
 73
4
 40
12
 49
8
 74
0
 49
-1
 74
0
 49
2
 74
0
 49
-1
 74
0
  0
LTYPE
  5
1F
100
AcDbSymbolTableRecord
100
AcDbLinetypeTableRecord
  2
ISO128-20-09
 70
0
  3
_ _ _ 
 72
65
 73
6
 40
15
 49
8
 74
0
 49
-1
 74
0
 49
2
 74
0
 49
-1
 74
0
 49
2
 74
0
 49
-1
 74
0
  0
LTYPE
  5
20
100
AcDbSymbolTableRecord
100
AcDbLinetypeTableRecord
  2
ISO128-20-10
 70
0
  3
_ . 
 72
65
 73
4
 40
10
 49
8
 74
0
 49
-1
 74
0
 49
0
 74
0
 49
-1
 74
0
  0
LTYPE
  5
21
100
AcDbSymbolTableRecord
100
AcDbLinetypeTableRecord
  2
ISO128-20-11
 70
0
  3
_ _ . 
 72
65
 73
6
 40
11
 49
4
 74
0
 49
-1
 74
0
 49
4
 74
0
 49
-1
 74
0
 49
0
 74
0
 49
-1
 74
0
  0
LTYPE
  5
22
100
AcDbSymbolTableRecord
100
AcDbLinetypeTableRecord
  2
ISO128-20-12
 70
0
  3
_ . . 
 72
65
 73
6
 40
7
 49
4
 74
0
 49
-1
 74
0
 49
0
 74
0
 49
-1
 74
0
 49
0
 74
0
 49
-1
 74
0
  0
LTYPE
  5
23
100
AcDbSymbolTableRecord
100
AcDbLinetypeTableRecord
  2
ISO128-20-13
 70
0
  3
_ _ . . 
 72
65
 73
8
 40
12
 49
4
 74
0
 49
-1
 74
0
 49
4
 74
0
 49
-1
 74
0
 49
0
 74
0
 49
-1
 74
0
 49
0
 74
0
 49
-1
 74
0
  0
LTYPE
  5
24
100
AcDbSymbolTableRecord
100
AcDbLinetypeTableRecord
  2
ISO128-20-14
 70
0
  3
_ . . . 
 72
65
 73
8
 40
8
 49
4
 74
0
 49
-1
 74
0
 49
0
 74
0
 49
-1
 74
0
 49
0
 74
0
 49
-1
 74
0
 49
0
 74
0
 49
-1
 74
0
  0
LTYPE
  5
25
100
AcDbSymbolTableRecord
100
AcDbLinetypeTableRecord
  2
ISO128-20-15
 70
0
  3
_ _ . . . 
 72
65
 73
10
 40
13
 49
4
 74
0
 49
-1
 74
0
 49
4
 74
0
 49
-1
 74
0
 49
0
 74
0
 49
-1
 74
0
 49
0
 74
0
 49
-1
 74
0
 49
0
 74
0
 49
-1
 74
0
  0
LTYPE
  5
26
100
AcDbSymbolTableRecord
100
AcDbLinetypeTableRecord
  2
kurzgestrichelt
 70
0
  3
_ 
 72
65
 73
2
 40
3
 49
2
 74
0
 49
-1
 74
0
  0
ENDTAB
  0
TABLE
  2
LAYER
  5
2
100
AcDbSymbolTable
  0
LAYER
  5
E
100
AcDbSymbolTableRecord
100
AcDbLayerTableRecord
  2
0
 70
0
 62
7
  6
CONTINUOUS
290
1
370
-3
390
0
  0
LAYER
  5
27
100
AcDbSymbolTableRecord
100
AcDbLayerTableRecord
  2
SEMA2D
 70
0
 62
7
290
1
370
-3
390
0
  0
LAYER
  5
2B
100
AcDbSymbolTableRecord
100
AcDbLayerTableRecord
  2
SEMATEXT
 70
0
 62
7
290
1
370
-3
390
0
  0
ENDTAB
  0
TABLE
  2
VPORT
  5
53E
100
AcDbSymbolTable
  0
VPORT
  5
540
100
AcDbSymbolTableRecord
100
AcDbViewportTableRecord
  2
*ACTIVE
 70
0
 10
0
 20
0
 11
1
 21
1
 12
4.97503791109552
 22
5.2411169861665
 32
0
 13
0
 23
0
 14
1
 24
1
 15
1
 25
1
 16
0
 26
0
 36
1
 17
0
 27
0
 37
0
 40
0.632078179933004
 41
1.61809465262581
 42
50
 43
0
 44
0
 50
0
 51
0
 71
0
 72
100
 73
1
 74
1
 75
0
 76
0
 77
0
 78
0
  0
ENDTAB
  0
TABLE
  2
VIEW
  5
541
100
AcDbSymbolTable
  0
ENDTAB
  0
TABLE
  2
UCS
  5
542
100
AcDbSymbolTable
  0
ENDTAB
  0
TABLE
  2
DIMSTYLE
  5
4
100
AcDbSymbolTable
 70
1
100
AcDbDimStyleTable
 71
0
  0
DIMSTYLE
105
B
100
AcDbSymbolTableRecord
100
AcDbDimStyleTableRecord
  2
STANDARD
 70
0
  3

 40
1
 41
0.18
 42
0.0625
 44
0.18
 47
0
 48
0
 73
1
 74
1
 75
0
 76
0
 77
0
140
0.18
141
0.09
144
1
147
0.0625
173
0
174
0
176
0
177
0
178
0
277
2
278
46
281
0
282
0
271
4
340
A
371
-1
372
-1
  0
ENDTAB
  0
ENDSEC
  0
SECTION
  2
BLOCKS
  0
BLOCK
  5
543
100
AcDbEntity
  8
0
100
AcDbBlockBegin
  2
*MODEL_SPACE
 70
0
 10
0
 20
0
  0
ENDBLK
  5
544
100
AcDbEntity
  8
0
100
AcDbBlockEnd
  0
BLOCK
  5
545
100
AcDbEntity
  8
0
100
AcDbBlockBegin
  2
*PAPER_SPACE
 70
0
 10
0
 20
0
  0
ENDBLK
  5
546
100
AcDbEntity
  8
0
100
AcDbBlockEnd
  0
BLOCK
  5
F
100
AcDbEntity
  8
0
100
AcDbBlockBegin
  2
_CLOSEDFILLED
 70
0
 10
0
 20
0
 30
0
  3
_CLOSEDFILLED
  1

  0
SOLID
  5
C
100
AcDbEntity
  8
0
100
AcDbTrace
370
-2
 62
0
 10
-1
 20
0.166666666666667
 30
0
 11
0
 21
0
 31
0
 12
-1
 22
0.166666666666667
 32
0
 13
-1
 23
-0.166666666666667
 33
0
  0
LINE
  5
D
100
AcDbEntity
  8
0
100
AcDbLine
370
-2
 62
0
 10
-1
 20
0
 30
0
 11
-2
 21
0
 31
0
  0
ENDBLK
  5
547
100
AcDbEntity
  8
0
100
AcDbBlockEnd
  0
ENDSEC
  0
SECTION
  2
ENTITIES
  0
LINE
  5
28
100
AcDbEntity
  8
SEMA2D
100
AcDbLine
370
9
 62
7
  6
_SOLID
 10
4.82507663570121
 20
5.40152701936616
 30
0
 11
4.82545846130121
 21
4.92668204166616
 31
0
  0
MTEXT
  5
2C
100
AcDbEntity
  8
SEMATEXT
100
AcDbMText
370
9
 62
7
 10
4.82720081684732
 20
5.15301119951291
 30
0
 40
0.010476
  1
{\fHelveticaNeueLT Com 55 Roman;475}
 50
90.0460718586114
 41
0
  7
STANDARD
 71
0
 73
1
 44
1
  0
LINE
  5
31
100
AcDbEntity
  8
SEMA2D
100
AcDbLine
370
9
 62
7
  6
_SOLID
 10
4.82507663570121
 20
5.40152701936616
 30
0
 11
4.83347663298555
 21
5.40153377385268
 31
0
  0
LINE
  5
32
100
AcDbEntity
  8
SEMA2D
100
AcDbLine
370
9
 62
7
  6
_SOLID
 10
4.82507663570121
 20
5.40152701936616
 30
0
 11
4.81667663841687
 21
5.40152026487963
 31
0
  0
LINE
  5
33
100
AcDbEntity
  8
SEMA2D
100
AcDbLine
370
9
 62
7
  6
_SOLID
 10
4.82545846130121
 20
4.92668204166616
 30
0
 11
4.83385845858555
 21
4.92668879615268
 31
0
  0
LINE
  5
34
100
AcDbEntity
  8
SEMA2D
100
AcDbLine
370
9
 62
7
  6
_SOLID
 10
4.82545846130121
 20
4.92668204166616
 30
0
 11
4.81705846401687
 21
4.92667528717963
 31
0
  0
LINE
  5
35
100
AcDbEntity
  8
SEMA2D
100
AcDbLine
370
9
 62
7
  6
_SOLID
 10
4.5404241608
 20
5.3724543984
 30
0
 11
4.5404241608
 21
4.9266820417
 31
0
  0
MTEXT
  5
36
100
AcDbEntity
  8
SEMATEXT
100
AcDbMText
370
9
 62
7
 10
4.5423485083122
 20
5.1384084460953
 30
0
 40
0.010476
  1
{\fHelveticaNeueLT Com 55 Roman;446}
 50
90
 41
0
  7
STANDARD
 71
0
 73
1
 44
1
  0
LINE
  5
3B
100
AcDbEntity
  8
SEMA2D
100
AcDbLine
370
9
 62
7
  6
_SOLID
 10
4.5404241608
 20
5.3724543984
 30
0
 11
4.5488241608
 21
5.3724543984
 31
0
  0
LINE
  5
3C
100
AcDbEntity
  8
SEMA2D
100
AcDbLine
370
9
 62
7
  6
_SOLID
 10
4.5404241608
 20
5.3724543984
 30
0
 11
4.5320241608
 21
5.3724543984
 31
0
  0
LINE
  5
3D
100
AcDbEntity
  8
SEMA2D
100
AcDbLine
370
9
 62
7
  6
_SOLID
 10
4.5404241608
 20
4.9266820417
 30
0
 11
4.5488241608
 21
4.9266820417
 31
0
  0
LINE
  5
3E
100
AcDbEntity
  8
SEMA2D
100
AcDbLine
370
9
 62
7
  6
_SOLID
 10
4.5404241608
 20
4.9266820417
 30
0
 11
4.5320241608
 21
4.9266820417
 31
0
  0
LINE
  5
3F
100
AcDbEntity
  8
SEMA2D
100
AcDbLine
370
9
 62
7
  6
_SOLID
 10
4.6240764819
 20
5.4315028962
 30
0
 11
4.7943777347
 21
5.4315028962
 31
0
  0
MTEXT
  5
40
100
AcDbEntity
  8
SEMATEXT
100
AcDbMText
370
9
 62
7
 10
4.70130097045157
 20
5.44946347298049
 30
0
 40
0.010476
  1
{\fHelveticaNeueLT Com 55 Roman;17}
 50
0
 41
0
  7
STANDARD
 71
0
 73
1
 44
1
  0
LINE
  5
45
100
AcDbEntity
  8
SEMA2D
100
AcDbLine
370
9
 62
7
  6
_SOLID
 10
4.6240764819
 20
5.4315028962
 30
0
 11
4.6240764819
 21
5.4399028962
 31
0
  0
LINE
  5
46
100
AcDbEntity
  8
SEMA2D
100
AcDbLine
370
9
 62
7
  6
_SOLID
 10
4.6240764819
 20
5.4315028962
 30
0
 11
4.6240764819
 21
5.4231028962
 31
0
  0
LINE
  5
47
100
AcDbEntity
  8
SEMA2D
100
AcDbLine
370
9
 62
7
  6
_SOLID
 10
4.7943777347
 20
5.4315028962
 30
0
 11
4.7943777347
 21
5.4399028962
 31
0
  0
LINE
  5
48
100
AcDbEntity
  8
SEMA2D
100
AcDbLine
370
9
 62
7
  6
_SOLID
 10
4.7943777347
 20
5.4315028962
 30
0
 11
4.7943777347
 21
5.4231028962
 31
0
  0
LINE
  5
49
100
AcDbEntity
  8
SEMA2D
100
AcDbLine
370
9
 62
7
  6
_SOLID
 10
5.1042913017
 20
5.3724543984
 30
0
 11
5.1042913017
 21
4.9266820417
 31
0
  0
MTEXT
  5
4A
100
AcDbEntity
  8
SEMATEXT
100
AcDbMText
370
9
 62
7
 10
5.1062156492122
 20
5.1384084460953
 30
0
 40
0.010476
  1
{\fHelveticaNeueLT Com 55 Roman;446}
 50
90
 41
0
  7
STANDARD
 71
0
 73
1
 44
1
  0
LINE
  5
4F
100
AcDbEntity
  8
SEMA2D
100
AcDbLine
370
9
 62
7
  6
_SOLID
 10
5.1042913017
 20
5.3724543984
 30
0
 11
5.1126913017
 21
5.3724543984
 31
0
  0
LINE
  5
50
100
AcDbEntity
  8
SEMA2D
100
AcDbLine
370
9
 62
7
  6
_SOLID
 10
5.1042913017
 20
5.3724543984
 30
0
 11
5.0958913017
 21
5.3724543984
 31
0
  0
LINE
  5
51
100
AcDbEntity
  8
SEMA2D
100
AcDbLine
370
9
 62
7
  6
_SOLID
 10
5.1042913017
 20
4.9266820417
 30
0
 11
5.1126913017
 21
4.9266820417
 31
0
  0
LINE
  5
52
100
AcDbEntity
  8
SEMA2D
100
AcDbLine
370
9
 62
7
  6
_SOLID
 10
5.1042913017
 20
4.9266820417
 30
0
 11
5.0958913017
 21
4.9266820417
 31
0
  0
LINE
  5
53
100
AcDbEntity
  8
SEMA2D
100
AcDbLine
370
9
 62
7
  6
_SOLID
 10
5.4742108585188
 20
5.40145434858656
 30
0
 11
5.4734415887188
 21
4.92608466208656
 31
0
  0
MTEXT
  5
54
100
AcDbEntity
  8
SEMATEXT
100
AcDbMText
370
9
 62
7
 10
5.4757326142766
 20
5.15267152381262
 30
0
 40
0.010476
  1
{\fHelveticaNeueLT Com 55 Roman;475}
 50
89.907280847677
 41
0
  7
STANDARD
 71
0
 73
1
 44
1
  0
LINE
  5
59
100
AcDbEntity
  8
SEMA2D
100
AcDbLine
370
9
 62
7
  6
_SOLID
 10
5.4742108585188
 20
5.40145434858656
 30
0
 11
5.48261084752006
 21
5.40144075525479
 31
0
  0
LINE
  5
5A
100
AcDbEntity
  8
SEMA2D
100
AcDbLine
370
9
 62
7
  6
_SOLID
 10
5.4742108585188
 20
5.40145434858656
 30
0
 11
5.46581086951753
 21
5.40146794191832
 31
0
  0
LINE
  5
5B
100
AcDbEntity
  8
SEMA2D
100
AcDbLine
370
9
 62
7
  6
_SOLID
 10
5.4734415887188
 20
4.92608466208656
 30
0
 11
5.48184157772006
 21
4.92607106875479
 31
0
  0
LINE
  5
5C
100
AcDbEntity
  8
SEMA2D
100
AcDbLine
370
9
 62
7
  6
_SOLID
 10
5.4734415887188
 20
4.92608466208656
 30
0
 11
5.46504159971753
 21
4.92609825541832
 31
0
  0
LINE
  5
5D
100
AcDbEntity
  8
SEMA2D
100
AcDbLine
370
9
 62
7
  6
_SOLID
 10
5.1879436228
 20
5.4315028962
 30
0
 11
5.4442108978
 21
5.4315028962
 31
0
  0
MTEXT
  5
5E
100
AcDbEntity
  8
SEMATEXT
100
AcDbMText
370
9
 62
7
 10
5.3049174863453
 20
5.44946347298049
 30
0
 40
0.010476
  1
{\fHelveticaNeueLT Com 55 Roman;256}
 50
0
 41
0
  7
STANDARD
 71
0
 73
1
 44
1
  0
LINE
  5
63
100
AcDbEntity
  8
SEMA2D
100
AcDbLine
370
9
 62
7
  6
_SOLID
 10
5.1879436228
 20
5.4315028962
 30
0
 11
5.1879436228
 21
5.4399028962
 31
0
  0
LINE
  5
64
100
AcDbEntity
  8
SEMA2D
100
AcDbLine
370
9
 62
7
  6
_SOLID
 10
5.1879436228
 20
5.4315028962
 30
0
 11
5.1879436228
 21
5.4231028962
 31
0
  0
LINE
  5
65
100
AcDbEntity
  8
SEMA2D
100
AcDbLine
370
9
 62
7
  6
_SOLID
 10
5.4442108978
 20
5.4315028962
 30
0
 11
5.4442108978
 21
5.4399028962
 31
0
  0
LINE
  5
66
100
AcDbEntity
  8
SEMA2D
100
AcDbLine
370
9
 62
7
  6
_SOLID
 10
5.4442108978
 20
5.4315028962
 30
0
 11
5.4442108978
 21
5.4231028962
 31
0
  0
LINE
  5
67
100
AcDbEntity
  8
SEMA2D
100
AcDbLine
370
9
 62
7
  6
_SOLID
 10
4.4913401181
 20
5.4315028962
 30
0
 11
4.5095117977
 21
5.4315028962
 31
0
  0
MTEXT
  5
68
100
AcDbEntity
  8
SEMATEXT
100
AcDbMText
370
9
 62
7
 10
4.49325216151498
 20
5.44946347298049
 30
0
 40
0.010476
  1
{\fHelveticaNeueLT Com 55 Roman;18}
 50
0
 41
0
  7
STANDARD
 71
0
 73
1
 44
1
  0
LINE
  5
6D
100
AcDbEntity
  8
SEMA2D
100
AcDbLine
370
9
 62
7
  6
_SOLID
 10
4.4913401181
 20
5.4315028962
 30
0
 11
4.4913401181
 21
5.4399028962
 31
0
  0
LINE
  5
6E
100
AcDbEntity
  8
SEMA2D
100
AcDbLine
370
9
 62
7
  6
_SOLID
 10
4.4913401181
 20
5.4315028962
 30
0
 11
4.4913401181
 21
5.4231028962
 31
0
  0
LINE
  5
6F
100
AcDbEntity
  8
SEMA2D
100
AcDbLine
370
9
 62
7
  6
_SOLID
 10
4.5095117977
 20
5.4315028962
 30
0
 11
4.5095117977
 21
5.4399028962
 31
0
  0
LINE
  5
70
100
AcDbEntity
  8
SEMA2D
100
AcDbLine
370
9
 62
7
  6
_SOLID
 10
4.5095117977
 20
5.4315028962
 30
0
 11
4.5095117977
 21
5.4231028962
 31
0
  0
LINE
  5
71
100
AcDbEntity
  8
SEMA2D
100
AcDbLine
370
9
 62
7
  6
_SOLID
 10
4.5095117977
 20
5.4315028962
 30
0
 11
4.5255117977
 21
5.4315028962
 31
0
  0
MTEXT
  5
72
100
AcDbEntity
  8
SEMATEXT
100
AcDbMText
370
9
 62
7
 10
4.51031366682021
 20
5.44946347298049
 30
0
 40
0.010476
  1
{\fHelveticaNeueLT Com 55 Roman;16}
 50
0
 41
0
  7
STANDARD
 71
0
 73
1
 44
1
  0
LINE
  5
77
100
AcDbEntity
  8
SEMA2D
100
AcDbLine
370
9
 62
7
  6
_SOLID
 10
4.5095117977
 20
5.4315028962
 30
0
 11
4.5095117977
 21
5.4399028962
 31
0
  0
LINE
  5
78
100
AcDbEntity
  8
SEMA2D
100
AcDbLine
370
9
 62
7
  6
_SOLID
 10
4.5095117977
 20
5.4315028962
 30
0
 11
4.5095117977
 21
5.4231028962
 31
0
  0
LINE
  5
79
100
AcDbEntity
  8
SEMA2D
100
AcDbLine
370
9
 62
7
  6
_SOLID
 10
4.5255117977
 20
5.4315028962
 30
0
 11
4.5255117977
 21
5.4399028962
 31
0
  0
LINE
  5
7A
100
AcDbEntity
  8
SEMA2D
100
AcDbLine
370
9
 62
7
  6
_SOLID
 10
4.5255117977
 20
5.4315028962
 30
0
 11
4.5255117977
 21
5.4231028962
 31
0
  0
LINE
  5
7B
100
AcDbEntity
  8
SEMA2D
100
AcDbLine
370
9
 62
7
  6
_SOLID
 10
5.055207259
 20
5.4315028962
 30
0
 11
5.0733745266
 21
5.4315028962
 31
0
  0
MTEXT
  5
7C
100
AcDbEntity
  8
SEMATEXT
100
AcDbMText
370
9
 62
7
 10
5.05711709641498
 20
5.44946347298049
 30
0
 40
0.010476
  1
{\fHelveticaNeueLT Com 55 Roman;18}
 50
0
 41
0
  7
STANDARD
 71
0
 73
1
 44
1
  0
LINE
  5
81
100
AcDbEntity
  8
SEMA2D
100
AcDbLine
370
9
 62
7
  6
_SOLID
 10
5.055207259
 20
5.4315028962
 30
0
 11
5.055207259
 21
5.4399028962
 31
0
  0
LINE
  5
82
100
AcDbEntity
  8
SEMA2D
100
AcDbLine
370
9
 62
7
  6
_SOLID
 10
5.055207259
 20
5.4315028962
 30
0
 11
5.055207259
 21
5.4231028962
 31
0
  0
LINE
  5
83
100
AcDbEntity
  8
SEMA2D
100
AcDbLine
370
9
 62
7
  6
_SOLID
 10
5.0733745266
 20
5.4315028962
 30
0
 11
5.0733745266
 21
5.4399028962
 31
0
  0
LINE
  5
84
100
AcDbEntity
  8
SEMA2D
100
AcDbLine
370
9
 62
7
  6
_SOLID
 10
5.0733745266
 20
5.4315028962
 30
0
 11
5.0733745266
 21
5.4231028962
 31
0
  0
LINE
  5
85
100
AcDbEntity
  8
SEMA2D
100
AcDbLine
370
9
 62
7
  6
_SOLID
 10
5.0733745266
 20
5.4315028962
 30
0
 11
5.0893745266
 21
5.4315028962
 31
0
  0
MTEXT
  5
86
100
AcDbEntity
  8
SEMATEXT
100
AcDbMText
370
9
 62
7
 10
5.07417639572021
 20
5.44946347298049
 30
0
 40
0.010476
  1
{\fHelveticaNeueLT Com 55 Roman;16}
 50
0
 41
0
  7
STANDARD
 71
0
 73
1
 44
1
  0
LINE
  5
8B
100
AcDbEntity
  8
SEMA2D
100
AcDbLine
370
9
 62
7
  6
_SOLID
 10
5.0733745266
 20
5.4315028962
 30
0
 11
5.0733745266
 21
5.4399028962
 31
0
  0
LINE
  5
8C
100
AcDbEntity
  8
SEMA2D
100
AcDbLine
370
9
 62
7
  6
_SOLID
 10
5.0733745266
 20
5.4315028962
 30
0
 11
5.0733745266
 21
5.4231028962
 31
0
  0
LINE
  5
8D
100
AcDbEntity
  8
SEMA2D
100
AcDbLine
370
9
 62
7
  6
_SOLID
 10
5.0893745266
 20
5.4315028962
 30
0
 11
5.0893745266
 21
5.4399028962
 31
0
  0
LINE
  5
8E
100
AcDbEntity
  8
SEMA2D
100
AcDbLine
370
9
 62
7
  6
_SOLID
 10
5.0893745266
 20
5.4315028962
 30
0
 11
5.0893745266
 21
5.4231028962
 31
0
  0
LINE
  5
8F
100
AcDbEntity
  8
SEMA2D
100
AcDbLine
370
9
 62
7
  6
_SOLID
 10
4.4720567496
 20
5.4015028962
 30
0
 11
4.4720567496
 21
5.3724543984
 31
0
  0
MTEXT
  5
90
100
AcDbEntity
  8
SEMATEXT
100
AcDbMText
370
9
 62
7
 10
4.4739810971122
 20
5.37983729690801
 30
0
 40
0.010476
  1
{\fHelveticaNeueLT Com 55 Roman;29}
 50
90
 41
0
  7
STANDARD
 71
0
 73
1
 44
1
  0
LINE
  5
95
100
AcDbEntity
  8
SEMA2D
100
AcDbLine
370
9
 62
7
  6
_SOLID
 10
4.4720567496
 20
5.4015028962
 30
0
 11
4.4804567496
 21
5.4015028962
 31
0
  0
LINE
  5
96
100
AcDbEntity
  8
SEMA2D
100
AcDbLine
370
9
 62
7
  6
_SOLID
 10
4.4720567496
 20
5.4015028962
 30
0
 11
4.4636567496
 21
5.4015028962
 31
0
  0
LINE
  5
97
100
AcDbEntity
  8
SEMA2D
100
AcDbLine
370
9
 62
7
  6
_SOLID
 10
4.4720567496
 20
5.3724543984
 30
0
 11
4.4804567496
 21
5.3724543984
 31
0
  0
LINE
  5
98
100
AcDbEntity
  8
SEMA2D
100
AcDbLine
370
9
 62
7
  6
_SOLID
 10
4.4720567496
 20
5.3724543984
 30
0
 11
4.4636567496
 21
5.3724543984
 31
0
  0
LINE
  5
99
100
AcDbEntity
  8
SEMA2D
100
AcDbLine
370
9
 62
7
  6
_SOLID
 10
5.0359238905
 20
5.4015028962
 30
0
 11
5.0359238905
 21
5.3724543984
 31
0
  0
MTEXT
  5
9A
100
AcDbEntity
  8
SEMATEXT
100
AcDbMText
370
9
 62
7
 10
5.0378482380122
 20
5.37983729690801
 30
0
 40
0.010476
  1
{\fHelveticaNeueLT Com 55 Roman;29}
 50
90
 41
0
  7
STANDARD
 71
0
 73
1
 44
1
  0
LINE
  5
9F
100
AcDbEntity
  8
SEMA2D
100
AcDbLine
370
9
 62
7
  6
_SOLID
 10
5.0359238905
 20
5.4015028962
 30
0
 11
5.0443238905
 21
5.4015028962
 31
0
  0
LINE
  5
A0
100
AcDbEntity
  8
SEMA2D
100
AcDbLine
370
9
 62
7
  6
_SOLID
 10
5.0359238905
 20
5.4015028962
 30
0
 11
5.0275238905
 21
5.4015028962
 31
0
  0
LINE
  5
A1
100
AcDbEntity
  8
SEMA2D
100
AcDbLine
370
9
 62
7
  6
_SOLID
 10
5.0359238905
 20
5.3724543984
 30
0
 11
5.0443238905
 21
5.3724543984
 31
0
  0
LINE
  5
A2
100
AcDbEntity
  8
SEMA2D
100
AcDbLine
370
9
 62
7
  6
_SOLID
 10
5.0359238905
 20
5.3724543984
 30
0
 11
5.0275238905
 21
5.3724543984
 31
0
  0
LINE
  5
A3
100
AcDbEntity
  8
SEMA2D
100
AcDbLine
370
9
 62
7
  6
_SOLID
 10
4.6240764819
 20
5.5392809483
 30
0
 11
4.7950766454
 21
5.5392809483
 31
0
  0
MTEXT
  5
A4
100
AcDbEntity
  8
SEMATEXT
100
AcDbMText
370
9
 62
7
 10
4.69848396304025
 20
5.55724152508049
 30
0
 40
0.010476
  1
{\fHelveticaNeueLT Com 55 Roman;171}
 50
0
 41
0
  7
STANDARD
 71
0
 73
1
 44
1
  0
LINE
  5
A9
100
AcDbEntity
  8
SEMA2D
100
AcDbLine
370
9
 62
7
  6
_SOLID
 10
4.6240764819
 20
5.5392809483
 30
0
 11
4.6240764819
 21
5.5476809483
 31
0
  0
LINE
  5
AA
100
AcDbEntity
  8
SEMA2D
100
AcDbLine
370
9
 62
7
  6
_SOLID
 10
4.6240764819
 20
5.5392809483
 30
0
 11
4.6240764819
 21
5.5308809483
 31
0
  0
LINE
  5
AB
100
AcDbEntity
  8
SEMA2D
100
AcDbLine
370
9
 62
7
  6
_SOLID
 10
4.7950766454
 20
5.5392809483
 30
0
 11
4.7950766454
 21
5.5476809483
 31
0
  0
LINE
  5
AC
100
AcDbEntity
  8
SEMA2D
100
AcDbLine
370
9
 62
7
  6
_SOLID
 10
4.7950766454
 20
5.5392809483
 30
0
 11
4.7950766454
 21
5.5308809483
 31
0
  0
LINE
  5
AD
100
AcDbEntity
  8
SEMA2D
100
AcDbLine
370
9
 62
7
  6
_SOLID
 10
5.1879436228
 20
5.5392809483
 30
0
 11
5.4442108978
 21
5.5392809483
 31
0
  0
MTEXT
  5
AE
100
AcDbEntity
  8
SEMATEXT
100
AcDbMText
370
9
 62
7
 10
5.3049174863453
 20
5.55724152508049
 30
0
 40
0.010476
  1
{\fHelveticaNeueLT Com 55 Roman;256}
 50
0
 41
0
  7
STANDARD
 71
0
 73
1
 44
1
  0
LINE
  5
B3
100
AcDbEntity
  8
SEMA2D
100
AcDbLine
370
9
 62
7
  6
_SOLID
 10
5.1879436228
 20
5.5392809483
 30
0
 11
5.1879436228
 21
5.5476809483
 31
0
  0
LINE
  5
B4
100
AcDbEntity
  8
SEMA2D
100
AcDbLine
370
9
 62
7
  6
_SOLID
 10
5.1879436228
 20
5.5392809483
 30
0
 11
5.1879436228
 21
5.5308809483
 31
0
  0
LINE
  5
B5
100
AcDbEntity
  8
SEMA2D
100
AcDbLine
370
9
 62
7
  6
_SOLID
 10
5.4442108978
 20
5.5392809483
 30
0
 11
5.4442108978
 21
5.5476809483
 31
0
  0
LINE
  5
B6
100
AcDbEntity
  8
SEMA2D
100
AcDbLine
370
9
 62
7
  6
_SOLID
 10
5.4442108978
 20
5.5392809483
 30
0
 11
5.4442108978
 21
5.5308809483
 31
0
  0
LINE
  5
B7
100
AcDbEntity
  8
SEMA2D
100
AcDbLine
370
9
 62
9
  6
_SOLID
 10
5.2192792302
 20
5.3655786869
 30
0
 11
5.2182736212
 21
5.3643594693
 31
0
  0
LINE
  5
B8
100
AcDbEntity
  8
SEMA2D
100
AcDbLine
370
9
 62
9
  6
_SOLID
 10
5.2095272356
 20
5.3439803251
 30
0
 11
5.206933294
 21
5.3413359557
 31
0
  0
LINE
  5
B9
100
AcDbEntity
  8
SEMA2D
100
AcDbLine
370
9
 62
7
  6
_SOLID
 10
5.3126964863
 20
4.9256768731
 30
0
 11
5.1945628488
 21
4.9681139531
 31
0
  0
ARC
  5
BA
100
AcDbEntity
  8
SEMA2D
100
AcDbCircle
370
9
 62
7
  6
_SOLID
 10
5.3160772603
 20
4.9350880562
 30
0
 40
0.00999999999999979
100
AcDbArc
 50
250.240217930603
 51
289.759782069397
  0
ARC
  5
BB
100
AcDbEntity
  8
SEMA2D
100
AcDbCircle
370
9
 62
7
  6
_SOLID
 10
5.1979436228
 20
4.9775251362
 30
0
 40
0.00999999999999979
100
AcDbArc
 50
180
 51
250.240217930603
  0
LINE
  5
BC
100
AcDbEntity
  8
SEMA2D
100
AcDbLine
370
9
 62
7
  6
_SOLID
 10
5.3129801749
 20
4.9263304054
 30
0
 11
5.1948642581
 21
4.9687611196
 31
0
  0
LINE
  5
BD
100
AcDbEntity
  8
SEMA2D
100
AcDbLine
370
9
 62
9
  6
_SOLID
 10
5.443511987
 20
4.9777211104
 30
0
 11
5.4431817614
 21
4.9777211104
 31
0
  0
LINE
  5
BE
100
AcDbEntity
  8
SEMA2D
100
AcDbLine
370
9
 62
9
  6
_SOLID
 10
5.1886425335
 20
4.9777211104
 30
0
 11
5.1889727592
 21
4.9777211104
 31
0
  0
LINE
  5
BF
100
AcDbEntity
  8
SEMA2D
100
AcDbLine
370
9
 62
7
  6
_SOLID
 10
5.1879436228
 20
4.9775251362
 30
0
 11
5.1879436228
 21
5.4015028962
 31
0
  0
LINE
  5
C0
100
AcDbEntity
  8
SEMA2D
100
AcDbLine
370
9
 62
7
  6
_SOLID
 10
5.1886425335
 20
4.9777211104
 30
0
 11
5.1886425335
 21
5.4007903962
 31
0
  0
LINE
  5
C1
100
AcDbEntity
  8
SEMA2D
100
AcDbLine
370
9
 62
9
  6
_SOLID
 10
5.1889727592
 20
5.3985563537
 30
0
 11
5.1889727592
 21
4.9777211104
 31
0
  0
LINE
  5
C2
100
AcDbEntity
  8
SEMA2D
100
AcDbLine
370
9
 62
9
  6
_SOLID
 10
5.1936257787
 20
5.3315431648
 30
0
 11
5.1936257787
 21
5.4003122047
 31
0
  0
LINE
  5
C3
100
AcDbEntity
  8
SEMA2D
100
AcDbLine
370
9
 62
9
  6
_SOLID
 10
5.1955086048
 20
5.3236448334
 30
0
 11
5.1955085378
 21
4.9742464738
 31
0
  0
LINE
  5
C4
100
AcDbEntity
  8
SEMA2D
100
AcDbLine
370
9
 62
9
  6
_SOLID
 10
5.2271521945
 20
5.3051398577
 30
0
 11
5.2267426829
 21
5.3042697863
 31
0
  0
LINE
  5
C5
100
AcDbEntity
  8
SEMA2D
100
AcDbLine
370
9
 62
9
  6
_SOLID
 10
5.2469818474
 20
5.3199846927
 30
0
 11
5.245840531
 21
5.3188211851
 31
0
  0
LINE
  5
C6
100
AcDbEntity
  8
SEMA2D
100
AcDbLine
370
9
 62
9
  6
_SOLID
 10
5.2013704318
 20
5.3550270169
 30
0
 11
5.2013704319
 21
5.3773800135
 31
0
  0
LINE
  5
C7
100
AcDbEntity
  8
SEMA2D
100
AcDbLine
370
9
 62
9
  6
_SOLID
 10
5.2030008238
 20
5.3550270229
 30
0
 11
5.2030008238
 21
5.3773800052
 31
0
  0
LINE
  5
C8
100
AcDbEntity
  8
SEMA2D
100
AcDbLine
370
9
 62
9
  6
_SOLID
 10
5.205038814
 20
5.3550270229
 30
0
 11
5.205038814
 21
5.3773800052
 31
0
  0
LINE
  5
C9
100
AcDbEntity
  8
SEMA2D
100
AcDbLine
370
9
 62
9
  6
_SOLID
 10
5.2415117442
 20
5.3060851801
 30
0
 11
5.2426646056
 21
5.3072604571
 31
0
  0
LINE
  5
CA
100
AcDbEntity
  8
SEMA2D
100
AcDbLine
370
9
 62
9
  6
_SOLID
 10
5.2533471869
 20
5.313495589
 30
0
 11
5.2522059587
 21
5.3123320921
 31
0
  0
LINE
  5
CB
100
AcDbEntity
  8
SEMA2D
100
AcDbLine
370
9
 62
9
  6
_SOLID
 10
5.3754957929
 20
5.3459201779
 30
0
 11
5.375323785
 21
5.345866591
 31
0
  0
LINE
  5
CC
100
AcDbEntity
  8
SEMA2D
100
AcDbLine
370
9
 62
9
  6
_SOLID
 10
5.2116064178
 20
5.3878150232
 30
0
 11
5.2116064268
 21
5.3840753152
 31
0
  0
LINE
  5
CD
100
AcDbEntity
  8
SEMA2D
100
AcDbLine
370
9
 62
9
  6
_SOLID
 10
5.2171584949
 20
5.3405569742
 30
0
 11
5.2171584934
 21
5.3481248253
 31
0
  0
LINE
  5
CE
100
AcDbEntity
  8
SEMA2D
100
AcDbLine
370
9
 62
9
  6
_SOLID
 10
5.2171584945
 20
5.3668103783
 30
0
 11
5.2171584934
 21
5.3690248254
 31
0
  0
LINE
  5
CF
100
AcDbEntity
  8
SEMA2D
100
AcDbLine
370
9
 62
9
  6
_SOLID
 10
5.2187318475
 20
5.3405569792
 30
0
 11
5.2187318448
 21
5.3481248249
 31
0
  0
LINE
  5
D0
100
AcDbEntity
  8
SEMA2D
100
AcDbLine
370
9
 62
9
  6
_SOLID
 10
5.2187318467
 20
5.3668103732
 30
0
 11
5.2187318448
 21
5.369024825
 31
0
  0
LINE
  5
D1
100
AcDbEntity
  8
SEMA2D
100
AcDbLine
370
9
 62
9
  6
_SOLID
 10
5.2198846893
 20
5.360874605
 30
0
 11
5.2198846893
 21
5.3612045365
 31
0
  0
LINE
  5
D2
100
AcDbEntity
  8
SEMA2D
100
AcDbLine
370
9
 62
9
  6
_SOLID
 10
5.2210918654
 20
5.3371862241
 30
0
 11
5.2210918719
 21
5.3481248249
 31
0
  0
LINE
  5
D3
100
AcDbEntity
  8
SEMA2D
100
AcDbLine
370
9
 62
9
  6
_SOLID
 10
5.2210918691
 20
5.363522329
 30
0
 11
5.2210918719
 21
5.369024825
 31
0
  0
LINE
  5
D4
100
AcDbEntity
  8
SEMA2D
100
AcDbLine
370
9
 62
9
  6
_SOLID
 10
5.2253884209
 20
4.9616952387
 30
0
 11
5.2253884143
 21
5.3025642322
 31
0
  0
LINE
  5
D5
100
AcDbEntity
  8
SEMA2D
100
AcDbLine
370
9
 62
9
  6
_SOLID
 10
5.4128681285
 20
5.3810386981
 30
0
 11
5.4133106426
 21
5.3813146006
 31
0
  0
LINE
  5
D6
100
AcDbEntity
  8
SEMA2D
100
AcDbLine
370
9
 62
9
  6
_SOLID
 10
5.2198847021
 20
5.360874605
 30
0
 11
5.2210755244
 21
5.348949654
 31
0
  0
LINE
  5
D7
100
AcDbEntity
  8
SEMA2D
100
AcDbLine
370
9
 62
9
  6
_SOLID
 10
5.219950083
 20
5.3811197569
 30
0
 11
5.2210755244
 21
5.3698496539
 31
0
  0
LINE
  5
D8
100
AcDbEntity
  8
SEMA2D
100
AcDbLine
370
9
 62
9
  6
_SOLID
 10
5.2303461217
 20
5.3489496593
 30
0
 11
5.2303461218
 21
5.3481248011
 31
0
  0
LINE
  5
D9
100
AcDbEntity
  8
SEMA2D
100
AcDbLine
370
9
 62
9
  6
_SOLID
 10
5.2317476375
 20
5.3827694903
 30
0
 11
5.2317476375
 21
5.3840753152
 31
0
  0
LINE
  5
DA
100
AcDbEntity
  8
SEMA2D
100
AcDbLine
370
9
 62
9
  6
_SOLID
 10
5.232117882
 20
5.2999505929
 30
0
 11
5.2321179658
 21
4.9602447729
 31
0
  0
LINE
  5
DB
100
AcDbEntity
  8
SEMA2D
100
AcDbLine
370
9
 62
9
  6
_SOLID
 10
5.2333617027
 20
5.3827694504
 30
0
 11
5.2333617027
 21
5.3840753152
 31
0
  0
LINE
  5
DC
100
AcDbEntity
  8
SEMA2D
100
AcDbLine
370
9
 62
9
  6
_SOLID
 10
5.2335337105
 20
5.3845241271
 30
0
 11
5.2335337106
 21
5.3803820601
 31
0
  0
LINE
  5
DD
100
AcDbEntity
  8
SEMA2D
100
AcDbLine
370
9
 62
9
  6
_SOLID
 10
5.2351477758
 20
5.3878150237
 30
0
 11
5.2351477758
 21
5.3757585461
 31
0
  0
LINE
  5
DE
100
AcDbEntity
  8
SEMA2D
100
AcDbLine
370
9
 62
9
  6
_SOLID
 10
5.2533539918
 20
5.3814497242
 30
0
 11
5.253247374
 21
5.3803820601
 31
0
  0
LINE
  5
DF
100
AcDbEntity
  8
SEMA2D
100
AcDbLine
370
9
 62
9
  6
_SOLID
 10
5.2549680529
 20
5.3811197513
 30
0
 11
5.2548614393
 21
5.3800521286
 31
0
  0
LINE
  5
E0
100
AcDbEntity
  8
SEMA2D
100
AcDbLine
370
9
 62
9
  6
_SOLID
 10
5.2319196453
 20
5.3800521286
 30
0
 11
5.2318130317
 21
5.3811197513
 31
0
  0
LINE
  5
E1
100
AcDbEntity
  8
SEMA2D
100
AcDbLine
370
9
 62
9
  6
_SOLID
 10
5.2335337106
 20
5.3803820601
 30
0
 11
5.2334270928
 21
5.3814497242
 31
0
  0
LINE
  5
E2
100
AcDbEntity
  8
SEMA2D
100
AcDbLine
370
9
 62
9
  6
_SOLID
 10
5.2491489605
 20
5.3406346855
 30
0
 11
5.2491489646
 21
5.3371862242
 31
0
  0
LINE
  5
E3
100
AcDbEntity
  8
SEMA2D
100
AcDbLine
370
9
 62
9
  6
_SOLID
 10
5.2527074387
 20
5.348949657
 30
0
 11
5.2527074387
 21
5.3481248263
 31
0
  0
LINE
  5
E4
100
AcDbEntity
  8
SEMA2D
100
AcDbLine
370
9
 62
9
  6
_SOLID
 10
5.253247374
 20
5.3803820601
 30
0
 11
5.2532473739
 21
5.3845241273
 31
0
  0
LINE
  5
E5
100
AcDbEntity
  8
SEMA2D
100
AcDbLine
370
9
 62
9
  6
_SOLID
 10
5.2534193819
 20
5.3840753152
 30
0
 11
5.2534193819
 21
5.3827694504
 31
0
  0
LINE
  5
E6
100
AcDbEntity
  8
SEMA2D
100
AcDbLine
370
9
 62
9
  6
_SOLID
 10
5.2550334471
 20
5.3840753152
 30
0
 11
5.2550334471
 21
5.3827694903
 31
0
  0
LINE
  5
E7
100
AcDbEntity
  8
SEMA2D
100
AcDbLine
370
9
 62
9
  6
_SOLID
 10
5.2550446625
 20
5.3481248123
 30
0
 11
5.2550446625
 21
5.3459200853
 31
0
  0
LINE
  5
E8
100
AcDbEntity
  8
SEMA2D
100
AcDbLine
370
9
 62
9
  6
_SOLID
 10
5.2562600188
 20
5.360874605
 30
0
 11
5.2562600188
 21
5.3612045449
 31
0
  0
LINE
  5
E9
100
AcDbEntity
  8
SEMA2D
100
AcDbLine
370
9
 62
9
  6
_SOLID
 10
5.2566587277
 20
5.3481248123
 30
0
 11
5.2566587277
 21
5.3459201779
 31
0
  0
LINE
  5
EA
100
AcDbEntity
  8
SEMA2D
100
AcDbLine
370
9
 62
9
  6
_SOLID
 10
5.2568307356
 20
5.3500966441
 30
0
 11
5.2568307356
 21
5.3458665911
 31
0
  0
LINE
  5
EB
100
AcDbEntity
  8
SEMA2D
100
AcDbLine
370
9
 62
9
  6
_SOLID
 10
5.2516333088
 20
5.3878150237
 30
0
 11
5.2516333088
 21
5.3757585461
 31
0
  0
LINE
  5
EC
100
AcDbEntity
  8
SEMA2D
100
AcDbLine
370
9
 62
9
  6
_SOLID
 10
5.2562600346
 20
5.360874605
 30
0
 11
5.2550691852
 21
5.3489496685
 31
0
  0
LINE
  5
ED
100
AcDbEntity
  8
SEMA2D
100
AcDbLine
370
9
 62
9
  6
_SOLID
 10
5.2568307356
 20
5.3500966441
 30
0
 11
5.2566832504
 21
5.348619737
 31
0
  0
LINE
  5
EE
100
AcDbEntity
  8
SEMA2D
100
AcDbLine
370
9
 62
9
  6
_SOLID
 10
5.1948642581
 20
4.9687611196
 30
0
 11
5.1949723171
 21
4.9690736454
 31
0
  0
LINE
  5
EF
100
AcDbEntity
  8
SEMA2D
100
AcDbLine
370
9
 62
9
  6
_SOLID
 10
5.3656051327
 20
5.3376173485
 30
0
 11
5.368361449
 21
5.3400851078
 31
0
  0
LINE
  5
F0
100
AcDbEntity
  8
SEMA2D
100
AcDbLine
370
9
 62
9
  6
_SOLID
 10
5.2584448008
 20
5.3500966441
 30
0
 11
5.2584448008
 21
5.3458665314
 31
0
  0
LINE
  5
F1
100
AcDbEntity
  8
SEMA2D
100
AcDbLine
370
9
 62
9
  6
_SOLID
 10
5.2603179867
 20
4.9491474869
 30
0
 11
5.2603182319
 21
5.3130965462
 31
0
  0
LINE
  5
F2
100
AcDbEntity
  8
SEMA2D
100
AcDbLine
370
9
 62
9
  6
_SOLID
 10
5.2670475297
 20
4.9476970183
 30
0
 11
5.2670477026
 21
5.3212420254
 31
0
  0
LINE
  5
F3
100
AcDbEntity
  8
SEMA2D
100
AcDbLine
370
9
 62
9
  6
_SOLID
 10
5.2720176231
 20
5.3401407682
 30
0
 11
5.272017613
 21
5.3438804772
 31
0
  0
LINE
  5
F4
100
AcDbEntity
  8
SEMA2D
100
AcDbLine
370
9
 62
9
  6
_SOLID
 10
5.3642986998
 20
5.3258696246
 30
0
 11
5.3632485681
 21
5.3247892017
 31
0
  0
LINE
  5
F5
100
AcDbEntity
  8
SEMA2D
100
AcDbLine
370
9
 62
9
  6
_SOLID
 10
5.3191743457
 20
4.9263304054
 30
0
 11
5.3191135295
 21
4.9265065115
 31
0
  0
LINE
  5
F6
100
AcDbEntity
  8
SEMA2D
100
AcDbLine
370
9
 62
9
  6
_SOLID
 10
5.2803525454
 20
5.3311123617
 30
0
 11
5.2803525454
 21
5.3294669134
 31
0
  0
LINE
  5
F7
100
AcDbEntity
  8
SEMA2D
100
AcDbLine
370
9
 62
9
  6
_SOLID
 10
5.2952476623
 20
4.9365997351
 30
0
 11
5.2952477435
 21
5.3274046591
 31
0
  0
LINE
  5
F8
100
AcDbEntity
  8
SEMA2D
100
AcDbLine
370
9
 62
9
  6
_SOLID
 10
5.3012755109
 20
5.3401407695
 30
0
 11
5.3012754989
 21
5.3438804772
 31
0
  0
LINE
  5
F9
100
AcDbEntity
  8
SEMA2D
100
AcDbLine
370
9
 62
9
  6
_SOLID
 10
5.3019772236
 20
4.935149266
 30
0
 11
5.3019771517
 21
5.3274046452
 31
0
  0
LINE
  5
FA
100
AcDbEntity
  8
SEMA2D
100
AcDbLine
370
9
 62
9
  6
_SOLID
 10
5.3785170566
 20
5.340221687
 30
0
 11
5.3775938041
 21
5.3387770032
 31
0
  0
LINE
  5
FB
100
AcDbEntity
  8
SEMA2D
100
AcDbLine
370
9
 62
9
  6
_SOLID
 10
5.3788073337
 20
5.313495589
 30
0
 11
5.3851726732
 21
5.3199846927
 31
0
  0
LINE
  5
FC
100
AcDbEntity
  8
SEMA2D
100
AcDbLine
370
9
 62
9
  6
_SOLID
 10
5.3799486502
 20
5.3123320813
 30
0
 11
5.3863139896
 21
5.3188211851
 31
0
  0
LINE
  5
FD
100
AcDbEntity
  8
SEMA2D
100
AcDbLine
370
9
 62
9
  6
_SOLID
 10
5.3863718618
 20
5.318826239
 30
0
 11
5.3799528819
 21
5.3122823359
 31
0
  0
LINE
  5
FE
100
AcDbEntity
  8
SEMA2D
100
AcDbLine
370
9
 62
9
  6
_SOLID
 10
5.422627285
 20
5.3439803251
 30
0
 11
5.3863911412
 21
5.3070396599
 31
0
  0
LINE
  5
FF
100
AcDbEntity
  8
SEMA2D
100
AcDbLine
370
9
 62
9
  6
_SOLID
 10
5.4240683617
 20
5.3425112289
 30
0
 11
5.389489915
 21
5.3072604571
 31
0
  0
LINE
  5
100
100
AcDbEntity
  8
SEMA2D
100
AcDbLine
370
9
 62
9
  6
_SOLID
 10
5.4252212271
 20
5.3413359564
 30
0
 11
5.3906427764
 21
5.3060851801
 31
0
  0
LINE
  5
101
100
AcDbEntity
  8
SEMA2D
100
AcDbLine
370
9
 62
9
  6
_SOLID
 10
5.2464071257
 20
5.3059089205
 30
0
 11
5.2457633579
 21
5.3070396468
 31
0
  0
LINE
  5
102
100
AcDbEntity
  8
SEMA2D
100
AcDbLine
370
9
 62
9
  6
_SOLID
 10
5.2422699839
 20
5.3046326044
 30
0
 11
5.2415117442
 21
5.3060851801
 31
0
  0
LINE
  5
103
100
AcDbEntity
  8
SEMA2D
100
AcDbLine
370
9
 62
9
  6
_SOLID
 10
5.2400752236
 20
5.3053193604
 30
0
 11
5.240812864
 21
5.3038557956
 31
0
  0
LINE
  5
104
100
AcDbEntity
  8
SEMA2D
100
AcDbLine
370
9
 62
9
  6
_SOLID
 10
5.3043403848
 20
5.3494903962
 30
0
 11
5.3043403848
 21
5.3470049552
 31
0
  0
LINE
  5
105
100
AcDbEntity
  8
SEMA2D
100
AcDbLine
370
9
 62
9
  6
_SOLID
 10
5.3063783751
 20
5.3494903962
 30
0
 11
5.306378375
 21
5.3470049552
 31
0
  0
LINE
  5
106
100
AcDbEntity
  8
SEMA2D
100
AcDbLine
370
9
 62
9
  6
_SOLID
 10
5.3080087673
 20
5.3494903962
 30
0
 11
5.3080087668
 21
5.3470049432
 31
0
  0
LINE
  5
107
100
AcDbEntity
  8
SEMA2D
100
AcDbLine
370
9
 62
9
  6
_SOLID
 10
5.3804309001
 20
5.3095597042
 30
0
 11
5.3809979952
 21
5.3104389925
 31
0
  0
LINE
  5
108
100
AcDbEntity
  8
SEMA2D
100
AcDbLine
370
9
 62
9
  6
_SOLID
 10
5.3851726732
 20
5.3199846927
 30
0
 11
5.386090019
 21
5.3213587328
 31
0
  0
LINE
  5
109
100
AcDbEntity
  8
SEMA2D
100
AcDbLine
370
9
 62
9
  6
_SOLID
 10
5.3779335128
 20
5.312227878
 30
0
 11
5.3788073337
 21
5.313495589
 31
0
  0
LINE
  5
10A
100
AcDbEntity
  8
SEMA2D
100
AcDbLine
370
9
 62
9
  6
_SOLID
 10
5.2517236496
 20
5.3095596584
 30
0
 11
5.2511565254
 21
5.3104389925
 31
0
  0
LINE
  5
10B
100
AcDbEntity
  8
SEMA2D
100
AcDbLine
370
9
 62
9
  6
_SOLID
 10
5.3241457541
 20
5.347004943
 30
0
 11
5.3241457533
 21
5.3494903962
 31
0
  0
LINE
  5
10C
100
AcDbEntity
  8
SEMA2D
100
AcDbLine
370
9
 62
9
  6
_SOLID
 10
5.3257761456
 20
5.3470049552
 30
0
 11
5.3257761455
 21
5.3494903962
 31
0
  0
LINE
  5
10D
100
AcDbEntity
  8
SEMA2D
100
AcDbLine
370
9
 62
9
  6
_SOLID
 10
5.3278141358
 20
5.3470049552
 30
0
 11
5.3278141358
 21
5.3494903962
 31
0
  0
LINE
  5
10E
100
AcDbEntity
  8
SEMA2D
100
AcDbLine
370
9
 62
9
  6
_SOLID
 10
5.3301772959
 20
4.9351492693
 30
0
 11
5.3301773748
 21
5.3274046591
 31
0
  0
LINE
  5
10F
100
AcDbEntity
  8
SEMA2D
100
AcDbLine
370
9
 62
9
  6
_SOLID
 10
5.3308790217
 20
5.3438804772
 30
0
 11
5.33087901
 21
5.3401407692
 31
0
  0
LINE
  5
110
100
AcDbEntity
  8
SEMA2D
100
AcDbLine
370
9
 62
9
  6
_SOLID
 10
5.3857472547
 20
5.3059086737
 30
0
 11
5.3863911627
 21
5.3070396468
 31
0
  0
LINE
  5
111
100
AcDbEntity
  8
SEMA2D
100
AcDbLine
370
9
 62
9
  6
_SOLID
 10
5.2415117442
 20
5.3060851801
 30
0
 11
5.206933294
 21
5.3413359557
 31
0
  0
LINE
  5
112
100
AcDbEntity
  8
SEMA2D
100
AcDbLine
370
9
 62
9
  6
_SOLID
 10
5.2426646056
 20
5.3072604571
 30
0
 11
5.2080861588
 21
5.3425112289
 31
0
  0
LINE
  5
113
100
AcDbEntity
  8
SEMA2D
100
AcDbLine
370
9
 62
9
  6
_SOLID
 10
5.2457633795
 20
5.3070396599
 30
0
 11
5.2095272356
 21
5.3439803251
 31
0
  0
LINE
  5
114
100
AcDbEntity
  8
SEMA2D
100
AcDbLine
370
9
 62
9
  6
_SOLID
 10
5.2533471869
 20
5.313495589
 30
0
 11
5.2542210079
 21
5.312227878
 31
0
  0
LINE
  5
115
100
AcDbEntity
  8
SEMA2D
100
AcDbLine
370
9
 62
9
  6
_SOLID
 10
5.2469818477
 20
5.319984693
 30
0
 11
5.2460645344
 21
5.3213586718
 31
0
  0
LINE
  5
116
100
AcDbEntity
  8
SEMA2D
100
AcDbLine
370
9
 62
9
  6
_SOLID
 10
5.2536374651
 20
5.3402216865
 30
0
 11
5.2545607165
 21
5.3387770032
 31
0
  0
LINE
  5
117
100
AcDbEntity
  8
SEMA2D
100
AcDbLine
370
9
 62
9
  6
_SOLID
 10
5.3369068576
 20
4.9365997384
 30
0
 11
5.336906783
 21
5.3274046452
 31
0
  0
LINE
  5
118
100
AcDbEntity
  8
SEMA2D
100
AcDbLine
370
9
 62
9
  6
_SOLID
 10
5.392079297
 20
5.3053193604
 30
0
 11
5.3913416566
 21
5.3038557956
 31
0
  0
LINE
  5
119
100
AcDbEntity
  8
SEMA2D
100
AcDbLine
370
9
 62
9
  6
_SOLID
 10
5.3906427764
 20
5.3060851801
 30
0
 11
5.3898845367
 21
5.3046326044
 31
0
  0
LINE
  5
11A
100
AcDbEntity
  8
SEMA2D
100
AcDbLine
370
9
 62
9
  6
_SOLID
 10
5.2511565301
 20
5.3104389955
 30
0
 11
5.2411826172
 21
5.3206068281
 31
0
  0
LINE
  5
11B
100
AcDbEntity
  8
SEMA2D
100
AcDbLine
370
9
 62
9
  6
_SOLID
 10
5.2522016387
 20
5.3122823359
 30
0
 11
5.2457826586
 21
5.318826239
 31
0
  0
LINE
  5
11C
100
AcDbEntity
  8
SEMA2D
100
AcDbLine
370
9
 62
9
  6
_SOLID
 10
5.245840531
 20
5.3188211851
 30
0
 11
5.2522058704
 21
5.3123320813
 31
0
  0
LINE
  5
11D
100
AcDbEntity
  8
SEMA2D
100
AcDbLine
370
9
 62
9
  6
_SOLID
 10
5.2469818474
 20
5.3199846927
 30
0
 11
5.2533471869
 21
5.313495589
 31
0
  0
LINE
  5
11E
100
AcDbEntity
  8
SEMA2D
100
AcDbLine
370
9
 62
9
  6
_SOLID
 10
5.3518019752
 20
5.3311123617
 30
0
 11
5.3518019752
 21
5.3294669127
 31
0
  0
LINE
  5
11F
100
AcDbEntity
  8
SEMA2D
100
AcDbLine
370
9
 62
9
  6
_SOLID
 10
5.3601369076
 20
5.3438804772
 30
0
 11
5.3601368971
 21
5.340140768
 31
0
  0
LINE
  5
120
100
AcDbEntity
  8
SEMA2D
100
AcDbLine
370
9
 62
9
  6
_SOLID
 10
5.2678558208
 20
5.3258696246
 30
0
 11
5.2689059239
 21
5.3247892312
 31
0
  0
LINE
  5
121
100
AcDbEntity
  8
SEMA2D
100
AcDbLine
370
9
 62
9
  6
_SOLID
 10
5.3651070008
 20
4.9476970213
 30
0
 11
5.3651067916
 21
5.3212420534
 31
0
  0
LINE
  5
122
100
AcDbEntity
  8
SEMA2D
100
AcDbLine
370
9
 62
9
  6
_SOLID
 10
5.3718365259
 20
4.9491474902
 30
0
 11
5.3718363146
 21
5.3130963903
 31
0
  0
LINE
  5
123
100
AcDbEntity
  8
SEMA2D
100
AcDbLine
370
9
 62
9
  6
_SOLID
 10
5.3737097198
 20
5.3458665314
 30
0
 11
5.3737097198
 21
5.3500966441
 31
0
  0
LINE
  5
124
100
AcDbEntity
  8
SEMA2D
100
AcDbLine
370
9
 62
9
  6
_SOLID
 10
5.375323785
 20
5.345866591
 30
0
 11
5.375323785
 21
5.3500966441
 31
0
  0
LINE
  5
125
100
AcDbEntity
  8
SEMA2D
100
AcDbLine
370
9
 62
9
  6
_SOLID
 10
5.3754957929
 20
5.3459201779
 30
0
 11
5.3754957929
 21
5.3481248085
 31
0
  0
LINE
  5
126
100
AcDbEntity
  8
SEMA2D
100
AcDbLine
370
9
 62
9
  6
_SOLID
 10
5.3758945018
 20
5.360874605
 30
0
 11
5.3758945018
 21
5.3612045365
 31
0
  0
LINE
  5
127
100
AcDbEntity
  8
SEMA2D
100
AcDbLine
370
9
 62
9
  6
_SOLID
 10
5.3771098581
 20
5.3459200853
 30
0
 11
5.3771098581
 21
5.3481248085
 31
0
  0
LINE
  5
128
100
AcDbEntity
  8
SEMA2D
100
AcDbLine
370
9
 62
9
  6
_SOLID
 10
5.3771210735
 20
5.3827694902
 30
0
 11
5.3771210735
 21
5.3840753152
 31
0
  0
LINE
  5
129
100
AcDbEntity
  8
SEMA2D
100
AcDbLine
370
9
 62
9
  6
_SOLID
 10
5.3787351387
 20
5.3827694504
 30
0
 11
5.3787351387
 21
5.3840753152
 31
0
  0
LINE
  5
12A
100
AcDbEntity
  8
SEMA2D
100
AcDbLine
370
9
 62
9
  6
_SOLID
 10
5.3789071465
 20
5.3845241271
 30
0
 11
5.3789071466
 21
5.3803820601
 31
0
  0
LINE
  5
12B
100
AcDbEntity
  8
SEMA2D
100
AcDbLine
370
9
 62
9
  6
_SOLID
 10
5.3129801749
 20
4.9263304054
 30
0
 11
5.3130409972
 21
4.9265065093
 31
0
  0
LINE
  5
12C
100
AcDbEntity
  8
SEMA2D
100
AcDbLine
370
9
 62
9
  6
_SOLID
 10
5.2637930716
 20
5.3400851078
 30
0
 11
5.2665493875
 21
5.3376173477
 31
0
  0
LINE
  5
12D
100
AcDbEntity
  8
SEMA2D
100
AcDbLine
370
9
 62
9
  6
_SOLID
 10
5.3754712698
 20
5.3486197403
 30
0
 11
5.375323785
 21
5.3500966441
 31
0
  0
LINE
  5
12E
100
AcDbEntity
  8
SEMA2D
100
AcDbLine
370
9
 62
9
  6
_SOLID
 10
5.3770853351
 20
5.3489496719
 30
0
 11
5.3758944853
 21
5.360874605
 31
0
  0
LINE
  5
12F
100
AcDbEntity
  8
SEMA2D
100
AcDbLine
370
9
 62
9
  6
_SOLID
 10
5.3772930813
 20
5.3800521286
 30
0
 11
5.3771864677
 21
5.3811197513
 31
0
  0
LINE
  5
130
100
AcDbEntity
  8
SEMA2D
100
AcDbLine
370
9
 62
9
  6
_SOLID
 10
5.3794470818
 20
5.3481248262
 30
0
 11
5.3794470818
 21
5.3489496571
 31
0
  0
LINE
  5
131
100
AcDbEntity
  8
SEMA2D
100
AcDbLine
370
9
 62
9
  6
_SOLID
 10
5.3805212118
 20
5.3878150237
 30
0
 11
5.3805212118
 21
5.3757585461
 31
0
  0
LINE
  5
132
100
AcDbEntity
  8
SEMA2D
100
AcDbLine
370
9
 62
9
  6
_SOLID
 10
5.383005556
 20
5.3371862242
 30
0
 11
5.3830055601
 21
5.3406346855
 31
0
  0
LINE
  5
133
100
AcDbEntity
  8
SEMA2D
100
AcDbLine
370
9
 62
9
  6
_SOLID
 10
5.3987274278
 20
5.3814497242
 30
0
 11
5.39862081
 21
5.3803820601
 31
0
  0
LINE
  5
134
100
AcDbEntity
  8
SEMA2D
100
AcDbLine
370
9
 62
9
  6
_SOLID
 10
5.4003414889
 20
5.3811197513
 30
0
 11
5.4002348753
 21
5.3800521286
 31
0
  0
LINE
  5
135
100
AcDbEntity
  8
SEMA2D
100
AcDbLine
370
9
 62
9
  6
_SOLID
 10
5.4372902625
 20
4.9687611196
 30
0
 11
5.4371822072
 21
4.9690736468
 31
0
  0
LINE
  5
136
100
AcDbEntity
  8
SEMA2D
100
AcDbLine
370
9
 62
9
  6
_SOLID
 10
5.3789071466
 20
5.3803820601
 30
0
 11
5.3788005288
 21
5.3814497242
 31
0
  0
LINE
  5
137
100
AcDbEntity
  8
SEMA2D
100
AcDbLine
370
9
 62
9
  6
_SOLID
 10
5.39862081
 20
5.3803820601
 30
0
 11
5.3986208099
 21
5.3845241273
 31
0
  0
LINE
  5
138
100
AcDbEntity
  8
SEMA2D
100
AcDbLine
370
9
 62
9
  6
_SOLID
 10
5.3987928179
 20
5.3840753152
 30
0
 11
5.3987928179
 21
5.3827694504
 31
0
  0
LINE
  5
139
100
AcDbEntity
  8
SEMA2D
100
AcDbLine
370
9
 62
9
  6
_SOLID
 10
5.4000366416
 20
5.2999505803
 30
0
 11
5.4000365546
 21
4.9602447703
 31
0
  0
LINE
  5
13A
100
AcDbEntity
  8
SEMA2D
100
AcDbLine
370
9
 62
9
  6
_SOLID
 10
5.4004068831
 20
5.3840753152
 30
0
 11
5.4004068831
 21
5.3827694903
 31
0
  0
LINE
  5
13B
100
AcDbEntity
  8
SEMA2D
100
AcDbLine
370
9
 62
9
  6
_SOLID
 10
5.4018083987
 20
5.3481248012
 30
0
 11
5.4018083987
 21
5.3489496591
 31
0
  0
LINE
  5
13C
100
AcDbEntity
  8
SEMA2D
100
AcDbLine
370
9
 62
9
  6
_SOLID
 10
5.4067661018
 20
4.9616952421
 30
0
 11
5.4067661038
 21
5.3025642331
 31
0
  0
LINE
  5
13D
100
AcDbEntity
  8
SEMA2D
100
AcDbLine
370
9
 62
9
  6
_SOLID
 10
5.3970067448
 20
5.3878150237
 30
0
 11
5.3970067448
 21
5.3757585461
 31
0
  0
LINE
  5
13E
100
AcDbEntity
  8
SEMA2D
100
AcDbLine
370
9
 62
9
  6
_SOLID
 10
5.4110789963
 20
5.3489496541
 30
0
 11
5.4122698061
 21
5.360874605
 31
0
  0
LINE
  5
13F
100
AcDbEntity
  8
SEMA2D
100
AcDbLine
370
9
 62
9
  6
_SOLID
 10
5.4110789962
 20
5.3698496539
 30
0
 11
5.4122044376
 21
5.3811197569
 31
0
  0
LINE
  5
140
100
AcDbEntity
  8
SEMA2D
100
AcDbLine
370
9
 62
9
  6
_SOLID
 10
5.2192863949
 20
5.3810387012
 30
0
 11
5.2188439393
 21
5.3813145624
 31
0
  0
LINE
  5
141
100
AcDbEntity
  8
SEMA2D
100
AcDbLine
370
9
 62
9
  6
_SOLID
 10
5.4110626487
 20
5.369024825
 30
0
 11
5.4110626515
 21
5.363522329
 31
0
  0
LINE
  5
142
100
AcDbEntity
  8
SEMA2D
100
AcDbLine
370
9
 62
9
  6
_SOLID
 10
5.4110626487
 20
5.3481248248
 30
0
 11
5.4110626552
 21
5.3371862241
 31
0
  0
LINE
  5
143
100
AcDbEntity
  8
SEMA2D
100
AcDbLine
370
9
 62
9
  6
_SOLID
 10
5.4122698313
 20
5.3608746049
 30
0
 11
5.4122698313
 21
5.3612045579
 31
0
  0
LINE
  5
144
100
AcDbEntity
  8
SEMA2D
100
AcDbLine
370
9
 62
9
  6
_SOLID
 10
5.4134226758
 20
5.369024825
 30
0
 11
5.4134226739
 21
5.3668103732
 31
0
  0
LINE
  5
145
100
AcDbEntity
  8
SEMA2D
100
AcDbLine
370
9
 62
9
  6
_SOLID
 10
5.4134226758
 20
5.3481248248
 30
0
 11
5.4134226731
 21
5.3405569792
 31
0
  0
LINE
  5
146
100
AcDbEntity
  8
SEMA2D
100
AcDbLine
370
9
 62
9
  6
_SOLID
 10
5.4149960272
 20
5.3690248254
 30
0
 11
5.4149960261
 21
5.3668103783
 31
0
  0
LINE
  5
147
100
AcDbEntity
  8
SEMA2D
100
AcDbLine
370
9
 62
9
  6
_SOLID
 10
5.4149960272
 20
5.3481248252
 30
0
 11
5.4149960257
 21
5.3405569742
 31
0
  0
LINE
  5
148
100
AcDbEntity
  8
SEMA2D
100
AcDbLine
370
9
 62
9
  6
_SOLID
 10
5.4205480938
 20
5.3840753152
 30
0
 11
5.4205481019
 21
5.3878150234
 31
0
  0
LINE
  5
149
100
AcDbEntity
  8
SEMA2D
100
AcDbLine
370
9
 62
9
  6
_SOLID
 10
5.4271157066
 20
5.3773800052
 30
0
 11
5.4271157066
 21
5.3550270229
 31
0
  0
LINE
  5
14A
100
AcDbEntity
  8
SEMA2D
100
AcDbLine
370
9
 62
9
  6
_SOLID
 10
5.4291536968
 20
5.3773800052
 30
0
 11
5.4291536968
 21
5.3550270229
 31
0
  0
LINE
  5
14B
100
AcDbEntity
  8
SEMA2D
100
AcDbLine
370
9
 62
9
  6
_SOLID
 10
5.4307840885
 20
5.3773800143
 30
0
 11
5.4307840889
 21
5.3550270177
 31
0
  0
LINE
  5
14C
100
AcDbEntity
  8
SEMA2D
100
AcDbLine
370
9
 62
9
  6
_SOLID
 10
5.4366459686
 20
4.9742464706
 30
0
 11
5.436645907
 21
5.3236447976
 31
0
  0
LINE
  5
14D
100
AcDbEntity
  8
SEMA2D
100
AcDbLine
370
9
 62
9
  6
_SOLID
 10
5.4385287419
 20
5.3315431654
 30
0
 11
5.4385287419
 21
5.4003122047
 31
0
  0
LINE
  5
14E
100
AcDbEntity
  8
SEMA2D
100
AcDbLine
370
9
 62
9
  6
_SOLID
 10
5.2803526156
 20
5.3294669134
 30
0
 11
5.2892077604
 21
5.3294669134
 31
0
  0
LINE
  5
14F
100
AcDbEntity
  8
SEMA2D
100
AcDbLine
370
9
 62
9
  6
_SOLID
 10
5.3080171289
 20
5.3294669134
 30
0
 11
5.3241373917
 21
5.3294669134
 31
0
  0
LINE
  5
150
100
AcDbEntity
  8
SEMA2D
100
AcDbLine
370
9
 62
9
  6
_SOLID
 10
5.3429467602
 20
5.3294669134
 30
0
 11
5.3518018977
 21
5.3294669134
 31
0
  0
LINE
  5
151
100
AcDbEntity
  8
SEMA2D
100
AcDbLine
370
9
 62
9
  6
_SOLID
 10
5.2803525454
 20
5.3311123617
 30
0
 11
5.3518019752
 21
5.3311123617
 31
0
  0
LINE
  5
152
100
AcDbEntity
  8
SEMA2D
100
AcDbLine
370
9
 62
9
  6
_SOLID
 10
5.2568307356
 20
5.3458665911
 30
0
 11
5.2566587277
 21
5.3459201779
 31
0
  0
LINE
  5
153
100
AcDbEntity
  8
SEMA2D
100
AcDbLine
370
9
 62
9
  6
_SOLID
 10
5.3788073337
 20
5.313495589
 30
0
 11
5.3799486502
 21
5.3123320813
 31
0
  0
LINE
  5
154
100
AcDbEntity
  8
SEMA2D
100
AcDbLine
370
9
 62
9
  6
_SOLID
 10
5.3906427767
 20
5.3060851807
 30
0
 11
5.3894899554
 21
5.3072604134
 31
0
  0
LINE
  5
155
100
AcDbEntity
  8
SEMA2D
100
AcDbLine
370
9
 62
9
  6
_SOLID
 10
5.4050021209
 20
5.3051397639
 30
0
 11
5.405411616
 21
5.3042697129
 31
0
  0
LINE
  5
156
100
AcDbEntity
  8
SEMA2D
100
AcDbLine
370
9
 62
9
  6
_SOLID
 10
5.4431817614
 20
5.3985563537
 30
0
 11
5.4431817614
 21
4.9777211104
 31
0
  0
LINE
  5
157
100
AcDbEntity
  8
SEMA2D
100
AcDbLine
370
9
 62
7
  6
_SOLID
 10
5.443511987
 20
5.4007903962
 30
0
 11
5.443511987
 21
4.9777211104
 31
0
  0
LINE
  5
158
100
AcDbEntity
  8
SEMA2D
100
AcDbLine
370
9
 62
7
  6
_SOLID
 10
5.4442108978
 20
5.4015028962
 30
0
 11
5.4442108978
 21
4.9775251362
 31
0
  0
ARC
  5
159
100
AcDbEntity
  8
SEMA2D
100
AcDbCircle
370
9
 62
7
  6
_SOLID
 10
5.4342108978
 20
4.9775251362
 30
0
 40
0.00999999999999979
100
AcDbArc
 50
289.759782069397
 51
0
  0
LINE
  5
15A
100
AcDbEntity
  8
SEMA2D
100
AcDbLine
370
9
 62
9
  6
_SOLID
 10
5.4134279811
 20
5.3484834157
 30
0
 11
5.4149939708
 21
5.3485025209
 31
0
  0
LINE
  5
15B
100
AcDbEntity
  8
SEMA2D
100
AcDbLine
370
9
 62
9
  6
_SOLID
 10
5.4110626552
 20
5.3371862241
 30
0
 11
5.383005556
 21
5.3371862242
 31
0
  0
LINE
  5
15C
100
AcDbEntity
  8
SEMA2D
100
AcDbLine
370
9
 62
9
  6
_SOLID
 10
5.2491489646
 20
5.3371862242
 30
0
 11
5.2210918654
 21
5.3371862241
 31
0
  0
LINE
  5
15D
100
AcDbEntity
  8
SEMA2D
100
AcDbLine
370
9
 62
9
  6
_SOLID
 10
5.4110626487
 20
5.3389104547
 30
0
 11
5.3830055601
 21
5.3389104547
 31
0
  0
LINE
  5
15E
100
AcDbEntity
  8
SEMA2D
100
AcDbLine
370
9
 62
9
  6
_SOLID
 10
5.2491489605
 20
5.3389104547
 30
0
 11
5.2210918719
 21
5.3389104547
 31
0
  0
LINE
  5
15F
100
AcDbEntity
  8
SEMA2D
100
AcDbLine
370
9
 62
9
  6
_SOLID
 10
5.3601368971
 20
5.340140768
 30
0
 11
5.33087901
 21
5.3401407692
 31
0
  0
LINE
  5
160
100
AcDbEntity
  8
SEMA2D
100
AcDbLine
370
9
 62
9
  6
_SOLID
 10
5.3012755109
 20
5.3401407695
 30
0
 11
5.2720176231
 21
5.3401407682
 31
0
  0
LINE
  5
161
100
AcDbEntity
  8
SEMA2D
100
AcDbLine
370
9
 62
9
  6
_SOLID
 10
5.2187318475
 20
5.3405569746
 30
0
 11
5.2171584949
 21
5.3405569742
 31
0
  0
LINE
  5
162
100
AcDbEntity
  8
SEMA2D
100
AcDbLine
370
9
 62
9
  6
_SOLID
 10
5.4134226731
 20
5.3405569746
 30
0
 11
5.4149960257
 21
5.3405569742
 31
0
  0
LINE
  5
163
100
AcDbEntity
  8
SEMA2D
100
AcDbLine
370
9
 62
9
  6
_SOLID
 10
5.4110626487
 20
5.3406346855
 30
0
 11
5.3830055601
 21
5.3406346855
 31
0
  0
LINE
  5
164
100
AcDbEntity
  8
SEMA2D
100
AcDbLine
370
9
 62
9
  6
_SOLID
 10
5.2491489605
 20
5.3406346855
 30
0
 11
5.2210918719
 21
5.3406346855
 31
0
  0
LINE
  5
165
100
AcDbEntity
  8
SEMA2D
100
AcDbLine
370
9
 62
9
  6
_SOLID
 10
5.3601369076
 20
5.3418028613
 30
0
 11
5.3308790217
 21
5.3418028615
 31
0
  0
LINE
  5
166
100
AcDbEntity
  8
SEMA2D
100
AcDbLine
370
9
 62
9
  6
_SOLID
 10
5.3012754989
 20
5.3418028615
 30
0
 11
5.272017613
 21
5.3418028613
 31
0
  0
LINE
  5
167
100
AcDbEntity
  8
SEMA2D
100
AcDbLine
370
9
 62
9
  6
_SOLID
 10
5.3601369076
 20
5.3438804772
 30
0
 11
5.3308790217
 21
5.3438804772
 31
0
  0
LINE
  5
168
100
AcDbEntity
  8
SEMA2D
100
AcDbLine
370
9
 62
9
  6
_SOLID
 10
5.3012754989
 20
5.3438804772
 30
0
 11
5.272017613
 21
5.3438804772
 31
0
  0
LINE
  5
169
100
AcDbEntity
  8
SEMA2D
100
AcDbLine
370
9
 62
9
  6
_SOLID
 10
5.375323785
 20
5.3458665314
 30
0
 11
5.3737097198
 21
5.3458665314
 31
0
  0
LINE
  5
16A
100
AcDbEntity
  8
SEMA2D
100
AcDbLine
370
9
 62
9
  6
_SOLID
 10
5.2568307356
 20
5.3458665314
 30
0
 11
5.2584448008
 21
5.3458665314
 31
0
  0
LINE
  5
16B
100
AcDbEntity
  8
SEMA2D
100
AcDbLine
370
9
 62
9
  6
_SOLID
 10
5.2566587277
 20
5.3459200853
 30
0
 11
5.2550446625
 21
5.3459200853
 31
0
  0
LINE
  5
16C
100
AcDbEntity
  8
SEMA2D
100
AcDbLine
370
9
 62
9
  6
_SOLID
 10
5.3754957929
 20
5.3459200853
 30
0
 11
5.3771098581
 21
5.3459200853
 31
0
  0
LINE
  5
16D
100
AcDbEntity
  8
SEMA2D
100
AcDbLine
370
9
 62
9
  6
_SOLID
 10
5.3278141358
 20
5.3470049552
 30
0
 11
5.3241457541
 21
5.347004943
 31
0
  0
LINE
  5
16E
100
AcDbEntity
  8
SEMA2D
100
AcDbLine
370
9
 62
9
  6
_SOLID
 10
5.3043403848
 20
5.3470049552
 30
0
 11
5.3080087668
 21
5.3470049432
 31
0
  0
LINE
  5
16F
100
AcDbEntity
  8
SEMA2D
100
AcDbLine
370
9
 62
9
  6
_SOLID
 10
5.3754957929
 20
5.3481248085
 30
0
 11
5.3771098581
 21
5.3481248085
 31
0
  0
LINE
  5
170
100
AcDbEntity
  8
SEMA2D
100
AcDbLine
370
9
 62
9
  6
_SOLID
 10
5.2566587277
 20
5.3481248123
 30
0
 11
5.2550446625
 21
5.3481248123
 31
0
  0
LINE
  5
171
100
AcDbEntity
  8
SEMA2D
100
AcDbLine
370
9
 62
9
  6
_SOLID
 10
5.2210918719
 20
5.3481248249
 30
0
 11
5.2171584934
 21
5.3481248253
 31
0
  0
LINE
  5
172
100
AcDbEntity
  8
SEMA2D
100
AcDbLine
370
9
 62
9
  6
_SOLID
 10
5.4110626487
 20
5.3481248248
 30
0
 11
5.4149960272
 21
5.3481248252
 31
0
  0
LINE
  5
173
100
AcDbEntity
  8
SEMA2D
100
AcDbLine
370
9
 62
9
  6
_SOLID
 10
5.3043403848
 20
5.3494903962
 30
0
 11
5.3080087673
 21
5.3494903962
 31
0
  0
LINE
  5
174
100
AcDbEntity
  8
SEMA2D
100
AcDbLine
370
9
 62
9
  6
_SOLID
 10
5.3241457533
 20
5.3494903962
 30
0
 11
5.3278141358
 21
5.3494903962
 31
0
  0
LINE
  5
175
100
AcDbEntity
  8
SEMA2D
100
AcDbLine
370
9
 62
9
  6
_SOLID
 10
5.375323785
 20
5.3500966441
 30
0
 11
5.3737097198
 21
5.3500966441
 31
0
  0
LINE
  5
176
100
AcDbEntity
  8
SEMA2D
100
AcDbLine
370
9
 62
9
  6
_SOLID
 10
5.2568307356
 20
5.3500966441
 30
0
 11
5.2584448008
 21
5.3500966441
 31
0
  0
LINE
  5
177
100
AcDbEntity
  8
SEMA2D
100
AcDbLine
370
9
 62
9
  6
_SOLID
 10
5.2187265396
 20
5.3484834152
 30
0
 11
5.2171605499
 21
5.3485025208
 31
0
  0
LINE
  5
178
100
AcDbEntity
  8
SEMA2D
100
AcDbLine
370
9
 62
9
  6
_SOLID
 10
5.3863139896
 20
5.3188211851
 30
0
 11
5.3851726732
 21
5.3199846927
 31
0
  0
LINE
  5
179
100
AcDbEntity
  8
SEMA2D
100
AcDbLine
370
9
 62
9
  6
_SOLID
 10
5.2013704318
 20
5.3550270169
 30
0
 11
5.205038814
 21
5.3550270229
 31
0
  0
LINE
  5
17A
100
AcDbEntity
  8
SEMA2D
100
AcDbLine
370
9
 62
9
  6
_SOLID
 10
5.4307840889
 20
5.3550270177
 30
0
 11
5.4271157066
 21
5.3550270229
 31
0
  0
LINE
  5
17B
100
AcDbEntity
  8
SEMA2D
100
AcDbLine
370
9
 62
9
  6
_SOLID
 10
5.2198847021
 20
5.360874605
 30
0
 11
5.2562600346
 21
5.360874605
 31
0
  0
LINE
  5
17C
100
AcDbEntity
  8
SEMA2D
100
AcDbLine
370
9
 62
9
  6
_SOLID
 10
5.3758944853
 20
5.360874605
 30
0
 11
5.4122698061
 21
5.360874605
 31
0
  0
LINE
  5
17D
100
AcDbEntity
  8
SEMA2D
100
AcDbLine
370
9
 62
9
  6
_SOLID
 10
5.2198846893
 20
5.3612045365
 30
0
 11
5.2562600188
 21
5.3612045365
 31
0
  0
LINE
  5
17E
100
AcDbEntity
  8
SEMA2D
100
AcDbLine
370
9
 62
9
  6
_SOLID
 10
5.3758945018
 20
5.3612045365
 30
0
 11
5.4122698313
 21
5.3612045365
 31
0
  0
LINE
  5
17F
100
AcDbEntity
  8
SEMA2D
100
AcDbLine
370
9
 62
9
  6
_SOLID
 10
5.4110626515
 20
5.363522329
 30
0
 11
5.2210918691
 21
5.363522329
 31
0
  0
LINE
  5
180
100
AcDbEntity
  8
SEMA2D
100
AcDbLine
370
9
 62
9
  6
_SOLID
 10
5.4110626487
 20
5.3652465597
 30
0
 11
5.2210918719
 21
5.3652465597
 31
0
  0
LINE
  5
181
100
AcDbEntity
  8
SEMA2D
100
AcDbLine
370
9
 62
9
  6
_SOLID
 10
5.413427981
 20
5.3693834155
 30
0
 11
5.4149939708
 21
5.3694025207
 31
0
  0
LINE
  5
182
100
AcDbEntity
  8
SEMA2D
100
AcDbLine
370
9
 62
9
  6
_SOLID
 10
5.2187318467
 20
5.366810379
 30
0
 11
5.2171584945
 21
5.3668103783
 31
0
  0
LINE
  5
183
100
AcDbEntity
  8
SEMA2D
100
AcDbLine
370
9
 62
9
  6
_SOLID
 10
5.4134226739
 20
5.366810379
 30
0
 11
5.4149960261
 21
5.3668103783
 31
0
  0
LINE
  5
184
100
AcDbEntity
  8
SEMA2D
100
AcDbLine
370
9
 62
9
  6
_SOLID
 10
5.4110626487
 20
5.3669707905
 30
0
 11
5.2210918719
 21
5.3669707905
 31
0
  0
LINE
  5
185
100
AcDbEntity
  8
SEMA2D
100
AcDbLine
370
9
 62
9
  6
_SOLID
 10
5.2171584934
 20
5.3690248254
 30
0
 11
5.4149960272
 21
5.3690248254
 31
0
  0
LINE
  5
186
100
AcDbEntity
  8
SEMA2D
100
AcDbLine
370
9
 62
9
  6
_SOLID
 10
5.4110789962
 20
5.3698496539
 30
0
 11
5.2210755244
 21
5.3698496539
 31
0
  0
LINE
  5
187
100
AcDbEntity
  8
SEMA2D
100
AcDbLine
370
9
 62
9
  6
_SOLID
 10
5.3970067448
 20
5.3757585461
 30
0
 11
5.3805212118
 21
5.3757585461
 31
0
  0
LINE
  5
188
100
AcDbEntity
  8
SEMA2D
100
AcDbLine
370
9
 62
9
  6
_SOLID
 10
5.2516333088
 20
5.3757585461
 30
0
 11
5.2351477758
 21
5.3757585461
 31
0
  0
LINE
  5
189
100
AcDbEntity
  8
SEMA2D
100
AcDbLine
370
9
 62
9
  6
_SOLID
 10
5.205038814
 20
5.3773800052
 30
0
 11
5.2013704319
 21
5.3773800135
 31
0
  0
LINE
  5
18A
100
AcDbEntity
  8
SEMA2D
100
AcDbLine
370
9
 62
9
  6
_SOLID
 10
5.4271157066
 20
5.3773800052
 30
0
 11
5.4307840885
 21
5.3773800143
 31
0
  0
LINE
  5
18B
100
AcDbEntity
  8
SEMA2D
100
AcDbLine
370
9
 62
9
  6
_SOLID
 10
5.3970067448
 20
5.3774467813
 30
0
 11
5.3805212118
 21
5.3774467813
 31
0
  0
LINE
  5
18C
100
AcDbEntity
  8
SEMA2D
100
AcDbLine
370
9
 62
9
  6
_SOLID
 10
5.2516333088
 20
5.3774467813
 30
0
 11
5.2351477758
 21
5.3774467813
 31
0
  0
LINE
  5
18D
100
AcDbEntity
  8
SEMA2D
100
AcDbLine
370
9
 62
9
  6
_SOLID
 10
5.2531605374
 20
5.3788050844
 30
0
 11
5.2336205472
 21
5.3788050844
 31
0
  0
LINE
  5
18E
100
AcDbEntity
  8
SEMA2D
100
AcDbLine
370
9
 62
9
  6
_SOLID
 10
5.3789939832
 20
5.3788050844
 30
0
 11
5.3985339734
 21
5.3788050844
 31
0
  0
LINE
  5
18F
100
AcDbEntity
  8
SEMA2D
100
AcDbLine
370
9
 62
9
  6
_SOLID
 10
5.4122044376
 20
5.3811197569
 30
0
 11
5.4003414889
 21
5.3811197513
 31
0
  0
LINE
  5
190
100
AcDbEntity
  8
SEMA2D
100
AcDbLine
370
9
 62
9
  6
_SOLID
 10
5.2318130317
 20
5.3811197513
 30
0
 11
5.219950083
 21
5.3811197569
 31
0
  0
LINE
  5
191
100
AcDbEntity
  8
SEMA2D
100
AcDbLine
370
9
 62
9
  6
_SOLID
 10
5.3771864677
 20
5.3811197513
 30
0
 11
5.2549680529
 21
5.3811197513
 31
0
  0
LINE
  5
192
100
AcDbEntity
  8
SEMA2D
100
AcDbLine
370
9
 62
9
  6
_SOLID
 10
5.2187265396
 20
5.3693834151
 30
0
 11
5.2171605499
 21
5.3694025207
 31
0
  0
LINE
  5
193
100
AcDbEntity
  8
SEMA2D
100
AcDbLine
370
9
 62
9
  6
_SOLID
 10
5.4252212271
 20
5.3413359564
 30
0
 11
5.422627285
 21
5.3439803251
 31
0
  0
LINE
  5
194
100
AcDbEntity
  8
SEMA2D
100
AcDbLine
370
9
 62
7
  6
_SOLID
 10
5.4372902625
 20
4.9687611196
 30
0
 11
5.3191743457
 21
4.9263304054
 31
0
  0
LINE
  5
195
100
AcDbEntity
  8
SEMA2D
100
AcDbLine
370
9
 62
7
  6
_SOLID
 10
5.4375916718
 20
4.9681139531
 30
0
 11
5.3194580343
 21
4.9256768731
 31
0
  0
LINE
  5
196
100
AcDbEntity
  8
SEMA2D
100
AcDbLine
370
9
 62
9
  6
_SOLID
 10
5.2187721468
 20
5.3663986852
 30
0
 11
5.2172594619
 21
5.365999473
 31
0
  0
LINE
  5
197
100
AcDbEntity
  8
SEMA2D
100
AcDbLine
370
9
 62
9
  6
_SOLID
 10
5.2333617027
 20
5.3827694504
 30
0
 11
5.2198438606
 21
5.3827695304
 31
0
  0
LINE
  5
198
100
AcDbEntity
  8
SEMA2D
100
AcDbLine
370
9
 62
9
  6
_SOLID
 10
5.3987928179
 20
5.3827694504
 30
0
 11
5.41231066
 21
5.3827695304
 31
0
  0
LINE
  5
199
100
AcDbEntity
  8
SEMA2D
100
AcDbLine
370
9
 62
9
  6
_SOLID
 10
5.3787351387
 20
5.3827694504
 30
0
 11
5.2534193819
 21
5.3827694504
 31
0
  0
LINE
  5
19A
100
AcDbEntity
  8
SEMA2D
100
AcDbLine
370
9
 62
9
  6
_SOLID
 10
5.2116064268
 20
5.3840753152
 30
0
 11
5.2333617027
 21
5.3840753152
 31
0
  0
LINE
  5
19B
100
AcDbEntity
  8
SEMA2D
100
AcDbLine
370
9
 62
9
  6
_SOLID
 10
5.2534193819
 20
5.3840753152
 30
0
 11
5.3787351387
 21
5.3840753152
 31
0
  0
LINE
  5
19C
100
AcDbEntity
  8
SEMA2D
100
AcDbLine
370
9
 62
9
  6
_SOLID
 10
5.3987928179
 20
5.3840753152
 30
0
 11
5.4205480938
 21
5.3840753152
 31
0
  0
LINE
  5
19D
100
AcDbEntity
  8
SEMA2D
100
AcDbLine
370
9
 62
9
  6
_SOLID
 10
5.2116064268
 20
5.3861529309
 30
0
 11
5.2318863098
 21
5.386152931
 31
0
  0
LINE
  5
19E
100
AcDbEntity
  8
SEMA2D
100
AcDbLine
370
9
 62
9
  6
_SOLID
 10
5.2548947748
 20
5.386152931
 30
0
 11
5.3772597458
 21
5.386152931
 31
0
  0
LINE
  5
19F
100
AcDbEntity
  8
SEMA2D
100
AcDbLine
370
9
 62
9
  6
_SOLID
 10
5.4002682108
 20
5.386152931
 30
0
 11
5.4205480939
 21
5.386152931
 31
0
  0
LINE
  5
1A0
100
AcDbEntity
  8
SEMA2D
100
AcDbLine
370
9
 62
9
  6
_SOLID
 10
5.2116064178
 20
5.3878150232
 30
0
 11
5.2351477758
 21
5.3878150237
 31
0
  0
LINE
  5
1A1
100
AcDbEntity
  8
SEMA2D
100
AcDbLine
370
9
 62
9
  6
_SOLID
 10
5.2516333088
 20
5.3878150237
 30
0
 11
5.3805212118
 21
5.3878150237
 31
0
  0
LINE
  5
1A2
100
AcDbEntity
  8
SEMA2D
100
AcDbLine
370
9
 62
9
  6
_SOLID
 10
5.3970067448
 20
5.3878150237
 30
0
 11
5.4205481019
 21
5.3878150234
 31
0
  0
LINE
  5
1A3
100
AcDbEntity
  8
SEMA2D
100
AcDbLine
370
9
 62
9
  6
_SOLID
 10
5.4133823702
 20
5.3663986892
 30
0
 11
5.4148950587
 21
5.3659994739
 31
0
  0
LINE
  5
1A4
100
AcDbEntity
  8
SEMA2D
100
AcDbLine
370
9
 62
9
  6
_SOLID
 10
5.4128752925
 20
5.3655786842
 30
0
 11
5.4138808944
 21
5.3643594724
 31
0
  0
LINE
  5
1A5
100
AcDbEntity
  8
SEMA2D
100
AcDbLine
370
9
 62
9
  6
_SOLID
 10
5.4385287419
 20
5.3984148085
 30
0
 11
5.1936257787
 21
5.3984148085
 31
0
  0
LINE
  5
1A6
100
AcDbEntity
  8
SEMA2D
100
AcDbLine
370
9
 62
9
  6
_SOLID
 10
5.4385287419
 20
5.4003122047
 30
0
 11
5.1936257787
 21
5.4003122047
 31
0
  0
LINE
  5
1A7
100
AcDbEntity
  8
SEMA2D
100
AcDbLine
370
9
 62
7
  6
_SOLID
 10
5.1886425335
 20
5.4007903962
 30
0
 11
5.443511987
 21
5.4007903962
 31
0
  0
LINE
  5
1A8
100
AcDbEntity
  8
SEMA2D
100
AcDbLine
370
9
 62
7
  6
_SOLID
 10
5.1879436228
 20
5.4015028962
 30
0
 11
5.4442108978
 21
5.4015028962
 31
0
  0
ARC
  5
1A9
100
AcDbEntity
  8
SEMA2D
100
AcDbCircle
370
9
 62
9
  6
_SOLID
 10
5.2488234554
 20
5.3878398123
 30
0
 40
0.1499828841
100
AcDbArc
 50
356.54650356299
 51
357.149848090983
  0
ARC
  5
1AA
100
AcDbEntity
  8
SEMA2D
100
AcDbCircle
370
9
 62
9
  6
_SOLID
 10
5.1034500194
 20
5.3878398123
 30
0
 40
0.1499828841
100
AcDbArc
 50
356.54650356299
 51
357.149848090983
  0
ARC
  5
1AB
100
AcDbEntity
  8
SEMA2D
100
AcDbCircle
370
9
 62
9
  6
_SOLID
 10
5.2961597351
 20
5.3994820826
 30
0
 40
0.1229996308
100
AcDbArc
 50
213.528422984627
 51
217.295462393857
  0
ARC
  5
1AC
100
AcDbEntity
  8
SEMA2D
100
AcDbCircle
370
9
 62
9
  6
_SOLID
 10
5.2717639549
 20
5.3961581252
 30
0
 40
0.1030045628
100
AcDbArc
 50
229.806573353348
 51
240.421031147595
  0
ARC
  5
1AD
100
AcDbEntity
  8
SEMA2D
100
AcDbCircle
370
9
 62
9
  6
_SOLID
 10
5.2719139146
 20
5.3964646896
 30
0
 40
0.1017046534
100
AcDbArc
 50
219.667691910819
 51
243.888893497262
  0
ARC
  5
1AE
100
AcDbEntity
  8
SEMA2D
100
AcDbCircle
370
9
 62
9
  6
_SOLID
 10
5.1830028226
 20
5.3871679077
 30
0
 40
0.0722100762000002
100
AcDbArc
 50
353.08588188128
 51
354.344738569051
  0
ARC
  5
1AF
100
AcDbEntity
  8
SEMA2D
100
AcDbCircle
370
9
 62
9
  6
_SOLID
 10
5.3037781673
 20
5.3871678973
 30
0
 40
0.0722099809000003
100
AcDbArc
 50
185.655260602001
 51
186.914118950195
  0
ARC
  5
1B0
100
AcDbEntity
  8
SEMA2D
100
AcDbCircle
370
9
 62
9
  6
_SOLID
 10
5.2811923782
 20
5.397497275
 30
0
 40
0.0718702071999999
100
AcDbArc
 50
269.45750443019
 51
277.086079848744
  0
ARC
  5
1B1
100
AcDbEntity
  8
SEMA2D
100
AcDbCircle
370
9
 62
9
  6
_SOLID
 10
5.2811848565
 20
5.3878241335
 30
0
 40
0.0589061291000004
100
AcDbArc
 50
269.40449364981
 51
277.827906606385
  0
ARC
  5
1B2
100
AcDbEntity
  8
SEMA2D
100
AcDbCircle
370
9
 62
9
  6
_SOLID
 10
5.2227539496
 20
5.3476976075
 30
0
 40
0.0509627073000001
100
AcDbArc
 50
291.995262353714
 51
295.480339079678
  0
ARC
  5
1B3
100
AcDbEntity
  8
SEMA2D
100
AcDbCircle
370
9
 62
9
  6
_SOLID
 10
5.2234357812
 20
5.3423536948
 30
0
 40
0.0426676775999999
100
AcDbArc
 50
293.99893290233
 51
297.726397793612
  0
ARC
  5
1B4
100
AcDbEntity
  8
SEMA2D
100
AcDbCircle
370
9
 62
9
  6
_SOLID
 10
5.2534351417
 20
5.3481161562
 30
0
 40
0.0362766494000004
100
AcDbArc
 50
179.389759436436
 51
179.98630787274
  0
ARC
  5
1B5
100
AcDbEntity
  8
SEMA2D
100
AcDbCircle
370
9
 62
9
  6
_SOLID
 10
5.2534350646
 20
5.3690161568
 30
0
 40
0.0362765723000003
100
AcDbArc
 50
179.389759281685
 51
179.986308611856
  0
ARC
  5
1B6
100
AcDbEntity
  8
SEMA2D
100
AcDbCircle
370
9
 62
9
  6
_SOLID
 10
5.2342313436
 20
5.3827678912
 30
0
 40
0.0208021042000004
100
AcDbArc
 50
355.455722300726
 51
0.00440434376463122
  0
ARC
  5
1B7
100
AcDbEntity
  8
SEMA2D
100
AcDbCircle
370
9
 62
9
  6
_SOLID
 10
5.2524099128
 20
5.3827623486
 30
0
 40
0.0206622770999996
100
AcDbArc
 50
179.980196400967
 51
184.55967695185
  0
ARC
  5
1B8
100
AcDbEntity
  8
SEMA2D
100
AcDbCircle
370
9
 62
9
  6
_SOLID
 10
5.2006556331
 20
5.3481323696
 30
0
 40
0.0204362401999996
100
AcDbArc
 50
-0.0211526167895122
 51
2.29197913992564
  0
ARC
  5
1B9
100
AcDbEntity
  8
SEMA2D
100
AcDbCircle
370
9
 62
9
  6
_SOLID
 10
5.2006648026
 20
5.3690325515
 30
0
 40
0.0204270707999998
100
AcDbArc
 50
-0.0216720087966888
 51
2.29249756018079
  0
ARC
  5
1BA
100
AcDbEntity
  8
SEMA2D
100
AcDbCircle
370
9
 62
9
  6
_SOLID
 10
5.238561869
 20
5.375785756
 30
0
 40
0.0199784216999999
100
AcDbArc
 50
159.539621405827
 51
164.755961935078
  0
ARC
  5
1BB
100
AcDbEntity
  8
SEMA2D
100
AcDbCircle
370
9
 62
9
  6
_SOLID
 10
5.2815811225
 20
5.3109031245
 30
0
 40
0.0188011866000002
100
AcDbArc
 50
125.091169954283
 51
132.389739660937
  0
ARC
  5
1BC
100
AcDbEntity
  8
SEMA2D
100
AcDbCircle
370
9
 62
9
  6
_SOLID
 10
5.2215005314
 20
5.3656702907
 30
0
 40
0.0155270825000002
100
AcDbArc
 50
95.7308023756879
 51
98.1982133490849
  0
ARC
  5
1BD
100
AcDbEntity
  8
SEMA2D
100
AcDbCircle
370
9
 62
9
  6
_SOLID
 10
5.268798761
 20
5.3481286995
 30
0
 40
0.0137540990999998
100
AcDbArc
 50
176.578035889422
 51
180.016193219899
  0
ARC
  5
1BE
100
AcDbEntity
  8
SEMA2D
100
AcDbCircle
370
9
 62
9
  6
_SOLID
 10
5.2400904746
 20
5.3827683921
 30
0
 40
0.0133289071
100
AcDbArc
 50
354.322273100509
 51
0.00454902133947394
  0
ARC
  5
1BF
100
AcDbEntity
  8
SEMA2D
100
AcDbCircle
370
9
 62
9
  6
_SOLID
 10
5.2466215554
 20
5.3827649706
 30
0
 40
0.0132598533000001
100
AcDbArc
 50
179.980642855436
 51
185.692535058754
  0
ARC
  5
1C0
100
AcDbEntity
  8
SEMA2D
100
AcDbCircle
370
9
 62
9
  6
_SOLID
 10
5.2326884947
 20
5.3827685588
 30
0
 40
0.0128446739000001
100
AcDbArc
 50
179.995666089937
 51
187.375100349878
  0
ARC
  5
1C1
100
AcDbEntity
  8
SEMA2D
100
AcDbCircle
370
9
 62
9
  6
_SOLID
 10
5.2060403163
 20
5.3690163968
 30
0
 40
0.0126915311000002
100
AcDbArc
 50
0.0380494195053784
 51
1.65713199335684
  0
ARC
  5
1C2
100
AcDbEntity
  8
SEMA2D
100
AcDbCircle
370
9
 62
9
  6
_SOLID
 10
5.2060404065
 20
5.3481163977
 30
0
 40
0.0126914408999999
100
AcDbArc
 50
0.0380448644915834
 51
1.65714000102523
  0
ARC
  5
1C3
100
AcDbEntity
  8
SEMA2D
100
AcDbCircle
370
9
 62
9
  6
_SOLID
 10
5.2536581309
 20
5.3134988699
 30
0
 40
0.00506367539999975
100
AcDbArc
 50
301.282310044013
 51
311.261098244947
  0
ARC
  5
1C4
100
AcDbEntity
  8
SEMA2D
100
AcDbCircle
370
9
 62
9
  6
_SOLID
 10
5.2616430358
 20
5.3481259187
 30
0
 40
0.00498430790000004
100
AcDbArc
 50
174.314117371335
 51
180.012718843821
  0
ARC
  5
1C5
100
AcDbEntity
  8
SEMA2D
100
AcDbCircle
370
9
 62
9
  6
_SOLID
 10
5.2204621505
 20
5.3668099853
 30
0
 40
0.00330365599999993
100
AcDbArc
 50
179.993184420637
 51
194.20180854112
  0
ARC
  5
1C6
100
AcDbEntity
  8
SEMA2D
100
AcDbCircle
370
9
 62
9
  6
_SOLID
 10
5.2309001868
 20
5.3881696405
 30
0
 40
0.00224489539999961
100
AcDbArc
 50
90
 51
270
  0
ARC
  5
1C7
100
AcDbEntity
  8
SEMA2D
100
AcDbCircle
370
9
 62
9
  6
_SOLID
 10
5.2309001868
 20
5.3881696405
 30
0
 40
0.00224489539999961
100
AcDbArc
 50
270
 51
90
  0
ARC
  5
1C8
100
AcDbEntity
  8
SEMA2D
100
AcDbCircle
370
9
 62
9
  6
_SOLID
 10
5.2558808978
 20
5.3881696405
 30
0
 40
0.00224489539999961
100
AcDbArc
 50
90
 51
270
  0
ARC
  5
1C9
100
AcDbEntity
  8
SEMA2D
100
AcDbCircle
370
9
 62
9
  6
_SOLID
 10
5.2558808978
 20
5.3881696405
 30
0
 40
0.00224489539999961
100
AcDbArc
 50
270
 51
90
  0
ARC
  5
1CA
100
AcDbEntity
  8
SEMA2D
100
AcDbCircle
370
9
 62
9
  6
_SOLID
 10
5.2531430075
 20
5.313337858
 30
0
 40
0.00154729890000027
100
AcDbArc
 50
303.938728659924
 51
314.162622163014
  0
ARC
  5
1CB
100
AcDbEntity
  8
SEMA2D
100
AcDbCircle
370
9
 62
9
  6
_SOLID
 10
5.1260044559
 20
5.7879420417
 30
0
 40
0.8760005942
100
AcDbArc
 50
288.685893120551
 51
290.807265537817
  0
ARC
  5
1CC
100
AcDbEntity
  8
SEMA2D
100
AcDbCircle
370
9
 62
9
  6
_SOLID
 10
5.0563087912
 20
5.7623749374
 30
0
 40
0.8755014385
100
AcDbArc
 50
288.685638991429
 51
290.833925149825
  0
ARC
  5
1CD
100
AcDbEntity
  8
SEMA2D
100
AcDbCircle
370
9
 62
9
  6
_SOLID
 10
5.0912384225
 20
5.7749226892
 30
0
 40
0.875501438500001
100
AcDbArc
 50
288.685638991429
 51
290.833925149824
  0
ARC
  5
1CE
100
AcDbEntity
  8
SEMA2D
100
AcDbCircle
370
9
 62
9
  6
_SOLID
 10
5.0248046517
 20
5.7406033735
 30
0
 40
0.8656624147
100
AcDbArc
 50
289.875723838734
 51
290.839155789135
  0
ARC
  5
1CF
100
AcDbEntity
  8
SEMA2D
100
AcDbCircle
370
9
 62
9
  6
_SOLID
 10
5.1444042332
 20
5.6697946262
 30
0
 40
0.7551413698
100
AcDbArc
 50
290.330453859747
 51
292.602436743563
  0
ARC
  5
1D0
100
AcDbEntity
  8
SEMA2D
100
AcDbCircle
370
9
 62
9
  6
_SOLID
 10
5.0746858801
 20
5.6443278555
 30
0
 40
0.7547442742
100
AcDbArc
 50
290.330215416606
 51
292.630952054309
  0
ARC
  5
1D1
100
AcDbEntity
  8
SEMA2D
100
AcDbCircle
370
9
 62
9
  6
_SOLID
 10
5.1096155115
 20
5.6568756072
 30
0
 40
0.7547442741
100
AcDbArc
 50
290.330215416606
 51
292.630952059597
  0
ARC
  5
1D2
100
AcDbEntity
  8
SEMA2D
100
AcDbCircle
370
9
 62
9
  6
_SOLID
 10
5.0424923305
 20
5.6250585635
 30
0
 40
0.7474874505
100
AcDbArc
 50
291.604844666874
 51
292.635627536371
  0
ARC
  5
1D3
100
AcDbEntity
  8
SEMA2D
100
AcDbCircle
370
9
 62
9
  6
_SOLID
 10
5.2089919438
 20
5.5459331405
 30
0
 40
0.2276141287
100
AcDbArc
 50
278.130401439957
 51
279.361437458485
  0
ARC
  5
1D4
100
AcDbEntity
  8
SEMA2D
100
AcDbCircle
370
9
 62
9
  6
_SOLID
 10
5.1879810496
 20
5.4046909588
 30
0
 40
0.1134661792
100
AcDbArc
 50
300.613696658821
 51
303.833271339123
  0
ARC
  5
1D5
100
AcDbEntity
  8
SEMA2D
100
AcDbCircle
370
9
 62
9
  6
_SOLID
 10
5.188195794
 20
5.4043096534
 30
0
 40
0.1133998836
100
AcDbArc
 50
297.645231396437
 51
298.479555831807
  0
ARC
  5
1D6
100
AcDbEntity
  8
SEMA2D
100
AcDbCircle
370
9
 62
9
  6
_SOLID
 10
5.1875060727
 20
5.4053874552
 30
0
 40
0.1130449795
100
AcDbArc
 50
305.621841760198
 51
315.298152583991
  0
ARC
  5
1D7
100
AcDbEntity
  8
SEMA2D
100
AcDbCircle
370
9
 62
9
  6
_SOLID
 10
5.1882021099
 20
5.4043528941
 30
0
 40
0.1117965148
100
AcDbArc
 50
297.645251511859
 51
298.479560590172
  0
ARC
  5
1D8
100
AcDbEntity
  8
SEMA2D
100
AcDbCircle
370
9
 62
9
  6
_SOLID
 10
5.1873776332
 20
5.4058031569
 30
0
 40
0.1044867021
100
AcDbArc
 50
304.781460980652
 51
319.263683256769
  0
ARC
  5
1D9
100
AcDbEntity
  8
SEMA2D
100
AcDbCircle
370
9
 62
9
  6
_SOLID
 10
5.1873459511
 20
5.4058882039
 30
0
 40
0.1029222429
100
AcDbArc
 50
304.785826951486
 51
319.256928155953
  0
ARC
  5
1DA
100
AcDbEntity
  8
SEMA2D
100
AcDbCircle
370
9
 62
9
  6
_SOLID
 10
5.1874795926
 20
5.4058077715
 30
0
 40
0.1007135324
100
AcDbArc
 50
302.223649707951
 51
319.264324264682
  0
ARC
  5
1DB
100
AcDbEntity
  8
SEMA2D
100
AcDbCircle
370
9
 62
9
  6
_SOLID
 10
5.5287043074
 20
5.3878398014
 30
0
 40
0.14998269
100
AcDbArc
 50
182.850151426903
 51
183.453496741162
  0
ARC
  5
1DC
100
AcDbEntity
  8
SEMA2D
100
AcDbCircle
370
9
 62
9
  6
_SOLID
 10
5.3833308714
 20
5.3878398014
 30
0
 40
0.14998269
100
AcDbArc
 50
182.850151426903
 51
183.453496741162
  0
ARC
  5
1DD
100
AcDbEntity
  8
SEMA2D
100
AcDbCircle
370
9
 62
9
  6
_SOLID
 10
5.3345771799
 20
5.4004899614
 30
0
 40
0.1247380803
100
AcDbArc
 50
322.73079915758
 51
326.445319724398
  0
ARC
  5
1DE
100
AcDbEntity
  8
SEMA2D
100
AcDbCircle
370
9
 62
9
  6
_SOLID
 10
5.3603905683
 20
5.3961581216
 30
0
 40
0.1030045583
100
AcDbArc
 50
299.57896858804
 51
310.193426841795
  0
ARC
  5
1DF
100
AcDbEntity
  8
SEMA2D
100
AcDbCircle
370
9
 62
9
  6
_SOLID
 10
5.3602406072
 20
5.3964646883
 30
0
 40
0.1017046517
100
AcDbArc
 50
296.111070395572
 51
320.332308463312
  0
ARC
  5
1E0
100
AcDbEntity
  8
SEMA2D
100
AcDbCircle
370
9
 62
9
  6
_SOLID
 10
5.3160772603
 20
5.3982835565
 30
0
 40
0.0726560222999999
100
AcDbArc
 50
262.955390927673
 51
277.044609072327
  0
ARC
  5
1E1
100
AcDbEntity
  8
SEMA2D
100
AcDbCircle
370
9
 62
9
  6
_SOLID
 10
5.3510009228
 20
5.3981756612
 30
0
 40
0.0725482097999999
100
AcDbArc
 50
262.949618765374
 51
270.506796957093
  0
ARC
  5
1E2
100
AcDbEntity
  8
SEMA2D
100
AcDbCircle
370
9
 62
9
  6
_SOLID
 10
5.3283762586
 20
5.3871679077
 30
0
 40
0.0722100762000002
100
AcDbArc
 50
353.08588188128
 51
354.344738569051
  0
ARC
  5
1E3
100
AcDbEntity
  8
SEMA2D
100
AcDbCircle
370
9
 62
9
  6
_SOLID
 10
5.4491516033
 20
5.3871678973
 30
0
 40
0.0722099809000003
100
AcDbArc
 50
185.655260602001
 51
186.914118950195
  0
ARC
  5
1E4
100
AcDbEntity
  8
SEMA2D
100
AcDbCircle
370
9
 62
9
  6
_SOLID
 10
5.3160772603
 20
5.3884156982
 30
0
 40
0.0594972675000003
100
AcDbArc
 50
262.214166311243
 51
277.78583370011
  0
ARC
  5
1E5
100
AcDbEntity
  8
SEMA2D
100
AcDbCircle
370
9
 62
9
  6
_SOLID
 10
5.351001935
 20
5.3883347595
 30
0
 40
0.0594164039999998
100
AcDbArc
 50
262.208328334982
 51
270.559272257378
  0
ARC
  5
1E6
100
AcDbEntity
  8
SEMA2D
100
AcDbCircle
370
9
 62
9
  6
_SOLID
 10
5.4096985615
 20
5.3483752336
 30
0
 40
0.0517026235999998
100
AcDbArc
 50
244.54460593711
 51
247.979792671914
  0
ARC
  5
1E7
100
AcDbEntity
  8
SEMA2D
100
AcDbCircle
370
9
 62
9
  6
_SOLID
 10
5.4085106269
 20
5.3419243909
 30
0
 40
0.0421908451999999
100
AcDbArc
 50
242.252530689045
 51
246.022142880973
  0
ARC
  5
1E8
100
AcDbEntity
  8
SEMA2D
100
AcDbCircle
370
9
 62
9
  6
_SOLID
 10
5.3787194318
 20
5.3481161566
 30
0
 40
0.0362765965
100
AcDbArc
 50
0.0136912964715438
 51
0.610240884464216
  0
ARC
  5
1E9
100
AcDbEntity
  8
SEMA2D
100
AcDbCircle
370
9
 62
9
  6
_SOLID
 10
5.3787194639
 20
5.3690161568
 30
0
 40
0.0362765643999996
100
AcDbArc
 50
0.0136913251185778
 51
0.610240798525309
  0
ARC
  5
1EA
100
AcDbEntity
  8
SEMA2D
100
AcDbCircle
370
9
 62
9
  6
_SOLID
 10
5.3796047791
 20
5.3827678912
 30
0
 40
0.0208021047000004
100
AcDbArc
 50
355.455722324025
 51
0.00440434949327243
  0
ARC
  5
1EB
100
AcDbEntity
  8
SEMA2D
100
AcDbCircle
370
9
 62
9
  6
_SOLID
 10
5.3977833485
 20
5.3827623486
 30
0
 40
0.0206622768
100
AcDbArc
 50
179.980196423884
 51
184.55967695185
  0
ARC
  5
1EC
100
AcDbEntity
  8
SEMA2D
100
AcDbCircle
370
9
 62
9
  6
_SOLID
 10
5.3935924976
 20
5.3757857063
 30
0
 40
0.0199785833000004
100
AcDbArc
 50
15.2440592766779
 51
20.4603576306308
  0
ARC
  5
1ED
100
AcDbEntity
  8
SEMA2D
100
AcDbCircle
370
9
 62
9
  6
_SOLID
 10
5.3505735006
 20
5.3109032482
 30
0
 40
0.0188010262000002
100
AcDbArc
 50
47.6102365729056
 51
54.9088619850911
  0
ARC
  5
1EE
100
AcDbEntity
  8
SEMA2D
100
AcDbCircle
370
9
 62
9
  6
_SOLID
 10
5.4106276339
 20
5.3654545391
 30
0
 40
0.0157443880999999
100
AcDbArc
 50
81.8188169473819
 51
84.252167319524
  0
ARC
  5
1EF
100
AcDbEntity
  8
SEMA2D
100
AcDbCircle
370
9
 62
9
  6
_SOLID
 10
5.363242809
 20
5.3481253393
 30
0
 40
0.0138670490999999
100
AcDbArc
 50
-0.00219302461096215
 51
3.40798104914957
  0
ARC
  5
1F0
100
AcDbEntity
  8
SEMA2D
100
AcDbCircle
370
9
 62
9
  6
_SOLID
 10
5.385463911
 20
5.3827683921
 30
0
 40
0.0133289068
100
AcDbArc
 50
354.322273025821
 51
0.0045491072804513
  0
ARC
  5
1F1
100
AcDbEntity
  8
SEMA2D
100
AcDbCircle
370
9
 62
9
  6
_SOLID
 10
5.3919949916
 20
5.3827649706
 30
0
 40
0.0132598535000001
100
AcDbArc
 50
179.980642895541
 51
185.69253502455
  0
ARC
  5
1F2
100
AcDbEntity
  8
SEMA2D
100
AcDbCircle
370
9
 62
9
  6
_SOLID
 10
5.3995106327
 20
5.3827656857
 30
0
 40
0.0128000675999997
100
AcDbArc
 50
352.612023516449
 51
0.0172096642601948
  0
ARC
  5
1F3
100
AcDbEntity
  8
SEMA2D
100
AcDbCircle
370
9
 62
9
  6
_SOLID
 10
5.4261142192
 20
5.3481163965
 30
0
 40
0.0126915459000001
100
AcDbArc
 50
178.342867937749
 51
179.961950471636
  0
ARC
  5
1F4
100
AcDbEntity
  8
SEMA2D
100
AcDbCircle
370
9
 62
9
  6
_SOLID
 10
5.4261142058
 20
5.3690163967
 30
0
 40
0.0126915325999999
100
AcDbArc
 50
178.342868063913
 51
179.961950488824
  0
ARC
  5
1F5
100
AcDbEntity
  8
SEMA2D
100
AcDbCircle
370
9
 62
9
  6
_SOLID
 10
5.3784963892
 20
5.3134988692
 30
0
 40
0.00506367459999968
100
AcDbArc
 50
228.738900878115
 51
238.717690832475
  0
ARC
  5
1F6
100
AcDbEntity
  8
SEMA2D
100
AcDbCircle
370
9
 62
9
  6
_SOLID
 10
5.3705114138
 20
5.348125913
 30
0
 40
0.00498437900000015
100
AcDbArc
 50
-0.0126957822718908
 51
5.68590620175349
  0
ARC
  5
1F7
100
AcDbEntity
  8
SEMA2D
100
AcDbCircle
370
9
 62
9
  6
_SOLID
 10
5.4116923703
 20
5.3668099853
 30
0
 40
0.00330365579999992
100
AcDbArc
 50
345.798206872694
 51
0.00681602627075613
  0
ARC
  5
1F8
100
AcDbEntity
  8
SEMA2D
100
AcDbCircle
370
9
 62
9
  6
_SOLID
 10
5.4112234324
 20
5.3671669054
 30
0
 40
0.00229139900000019
100
AcDbArc
 50
316.1245238637
 51
340.412775748906
  0
ARC
  5
1F9
100
AcDbEntity
  8
SEMA2D
100
AcDbCircle
370
9
 62
9
  6
_SOLID
 10
5.3762736228
 20
5.3881696405
 30
0
 40
0.00224489539999961
100
AcDbArc
 50
90
 51
270
  0
ARC
  5
1FA
100
AcDbEntity
  8
SEMA2D
100
AcDbCircle
370
9
 62
9
  6
_SOLID
 10
5.3762736228
 20
5.3881696405
 30
0
 40
0.00224489539999961
100
AcDbArc
 50
270
 51
90
  0
ARC
  5
1FB
100
AcDbEntity
  8
SEMA2D
100
AcDbCircle
370
9
 62
9
  6
_SOLID
 10
5.4012543338
 20
5.3881696405
 30
0
 40
0.00224489539999961
100
AcDbArc
 50
90
 51
270
  0
ARC
  5
1FC
100
AcDbEntity
  8
SEMA2D
100
AcDbCircle
370
9
 62
9
  6
_SOLID
 10
5.4012543338
 20
5.3881696405
 30
0
 40
0.00224489539999961
100
AcDbArc
 50
270
 51
90
  0
ARC
  5
1FD
100
AcDbEntity
  8
SEMA2D
100
AcDbCircle
370
9
 62
9
  6
_SOLID
 10
5.3790115118
 20
5.3133378566
 30
0
 40
0.00154729700000011
100
AcDbArc
 50
225.837376852424
 51
236.061278189128
  0
ARC
  5
1FE
100
AcDbEntity
  8
SEMA2D
100
AcDbCircle
370
9
 62
9
  6
_SOLID
 10
5.5061500593
 20
5.7879420264
 30
0
 40
0.876000578000001
100
AcDbArc
 50
249.192734690881
 51
251.31410689214
  0
ARC
  5
1FF
100
AcDbEntity
  8
SEMA2D
100
AcDbCircle
370
9
 62
9
  6
_SOLID
 10
5.5758457294
 20
5.7623749375
 30
0
 40
0.8755014385
100
AcDbArc
 50
249.166074850175
 51
251.314361008571
  0
ARC
  5
200
100
AcDbEntity
  8
SEMA2D
100
AcDbCircle
370
9
 62
9
  6
_SOLID
 10
5.5409160981
 20
5.7749226893
 30
0
 40
0.875501438500001
100
AcDbArc
 50
249.166074850175
 51
251.314361008571
  0
ARC
  5
201
100
AcDbEntity
  8
SEMA2D
100
AcDbCircle
370
9
 62
9
  6
_SOLID
 10
5.5981089878
 20
5.7156987828
 30
0
 40
0.8390996387
100
AcDbArc
 50
249.145594442999
 51
250.139526268111
  0
ARC
  5
202
100
AcDbEntity
  8
SEMA2D
100
AcDbCircle
370
9
 62
9
  6
_SOLID
 10
5.4877502933
 20
5.6697946417
 30
0
 40
0.7551413863
100
AcDbArc
 50
247.39756329478
 51
249.669546199952
  0
ARC
  5
203
100
AcDbEntity
  8
SEMA2D
100
AcDbCircle
370
9
 62
9
  6
_SOLID
 10
5.5574686401
 20
5.6443278545
 30
0
 40
0.7547442731
100
AcDbArc
 50
247.369047996817
 51
249.669784657819
  0
ARC
  5
204
100
AcDbEntity
  8
SEMA2D
100
AcDbCircle
370
9
 62
9
  6
_SOLID
 10
5.5225390087
 20
5.6568756062
 30
0
 40
0.754744273
100
AcDbArc
 50
247.369047994613
 51
249.669784657819
  0
ARC
  5
205
100
AcDbEntity
  8
SEMA2D
100
AcDbCircle
370
9
 62
9
  6
_SOLID
 10
5.5811598388
 20
5.6041409949
 30
0
 40
0.724908874
100
AcDbArc
 50
247.348319302923
 51
248.411208591775
  0
ARC
  5
206
100
AcDbEntity
  8
SEMA2D
100
AcDbCircle
370
9
 62
9
  6
_SOLID
 10
5.4227349016
 20
5.5431531738
 30
0
 40
0.2248016216
100
AcDbArc
 50
260.630861476436
 51
261.877299669383
  0
ARC
  5
207
100
AcDbEntity
  8
SEMA2D
100
AcDbCircle
370
9
 62
9
  6
_SOLID
 10
5.4439587268
 20
5.4043096537
 30
0
 40
0.113399884
100
AcDbArc
 50
241.520444173229
 51
242.354760382074
  0
ARC
  5
208
100
AcDbEntity
  8
SEMA2D
100
AcDbCircle
370
9
 62
9
  6
_SOLID
 10
5.4447658304
 20
5.4055250869
 30
0
 40
0.1132252259
100
AcDbArc
 50
224.709567723969
 51
234.37043793897
  0
ARC
  5
209
100
AcDbEntity
  8
SEMA2D
100
AcDbCircle
370
9
 62
9
  6
_SOLID
 10
5.4439524107
 20
5.4043528941
 30
0
 40
0.1117965148
100
AcDbArc
 50
241.520439409828
 51
242.354748488141
  0
LINE
  5
20A
100
AcDbEntity
  8
SEMA2D
100
AcDbLine
370
9
 62
9
  6
_SOLID
 10
5.2408128637
 20
5.3038557892
 30
0
 11
5.2407894591
 21
5.303374471
 31
0
  0
LINE
  5
20B
100
AcDbEntity
  8
SEMA2D
100
AcDbLine
370
9
 62
9
  6
_SOLID
 10
5.3913416567
 20
5.3038557918
 30
0
 11
5.3913650615
 21
5.3033744706
 31
0
  0
LINE
  5
20C
100
AcDbEntity
  8
SEMA2D
100
AcDbLine
370
9
 62
9
  6
_SOLID
 10
5.2805726239
 20
5.3289211861
 30
0
 11
5.2803526156
 21
5.3294669134
 31
0
  0
LINE
  5
20D
100
AcDbEntity
  8
SEMA2D
100
AcDbLine
370
9
 62
9
  6
_SOLID
 10
5.3515818978
 20
5.3289211861
 30
0
 11
5.3518018977
 21
5.3294669134
 31
0
  0
LINE
  5
20E
100
AcDbEntity
  8
SEMA2D
100
AcDbLine
370
9
 62
9
  6
_SOLID
 10
5.3789071425
 20
5.384524134
 30
0
 11
5.3805212024
 21
5.3878150283
 31
0
  0
LINE
  5
20F
100
AcDbEntity
  8
SEMA2D
100
AcDbLine
370
9
 62
9
  6
_SOLID
 10
5.3970067542
 20
5.3878150283
 30
0
 11
5.3986208138
 21
5.3845241345
 31
0
  0
LINE
  5
210
100
AcDbEntity
  8
SEMA2D
100
AcDbLine
370
9
 62
9
  6
_SOLID
 10
5.2335337065
 20
5.384524134
 30
0
 11
5.2351477664
 21
5.3878150283
 31
0
  0
LINE
  5
211
100
AcDbEntity
  8
SEMA2D
100
AcDbLine
370
9
 62
9
  6
_SOLID
 10
5.2516333182
 20
5.3878150283
 30
0
 11
5.2532473778
 21
5.3845241345
 31
0
  0
LINE
  5
212
100
AcDbEntity
  8
SEMA2D
100
AcDbLine
370
9
 62
7
  6
_SOLID
 10
4.7045416362
 20
4.9264611936
 30
0
 11
4.6290415544
 21
4.9704586103
 31
0
  0
ARC
  5
213
100
AcDbEntity
  8
SEMA2D
100
AcDbCircle
370
9
 62
7
  6
_SOLID
 10
4.7095765637
 20
4.9351011881
 30
0
 40
0.00999999999999979
100
AcDbArc
 50
239.768651181721
 51
300.231348818279
  0
ARC
  5
214
100
AcDbEntity
  8
SEMA2D
100
AcDbCircle
370
9
 62
7
  6
_SOLID
 10
4.6340764819
 20
4.9790986048
 30
0
 40
0.00999999999999979
100
AcDbArc
 50
180
 51
239.768651181721
  0
LINE
  5
215
100
AcDbEntity
  8
SEMA2D
100
AcDbLine
370
9
 62
7
  6
_SOLID
 10
4.7049518979
 20
4.9270428095
 30
0
 11
4.6294695369
 21
4.9710298995
 31
0
  0
LINE
  5
216
100
AcDbEntity
  8
SEMA2D
100
AcDbLine
370
9
 62
9
  6
_SOLID
 10
4.7943777347
 20
4.9792774862
 30
0
 11
4.794047509
 21
4.9792774862
 31
0
  0
LINE
  5
217
100
AcDbEntity
  8
SEMA2D
100
AcDbLine
370
9
 62
9
  6
_SOLID
 10
4.6247753927
 20
4.9792774862
 30
0
 11
4.6251056183
 21
4.9792774862
 31
0
  0
LINE
  5
218
100
AcDbEntity
  8
SEMA2D
100
AcDbLine
370
9
 62
9
  6
_SOLID
 10
4.6500537736
 20
5.3655786869
 30
0
 11
4.6490481646
 21
5.3643594693
 31
0
  0
LINE
  5
219
100
AcDbEntity
  8
SEMA2D
100
AcDbLine
370
9
 62
9
  6
_SOLID
 10
4.7317198563
 20
5.3459201634
 30
0
 11
4.7315478484
 21
5.345866591
 31
0
  0
LINE
  5
21A
100
AcDbEntity
  8
SEMA2D
100
AcDbLine
370
9
 62
9
  6
_SOLID
 10
4.6456600947
 20
5.333552366
 30
0
 11
4.6430661531
 21
5.3309079965
 31
0
  0
LINE
  5
21B
100
AcDbEntity
  8
SEMA2D
100
AcDbLine
370
9
 62
9
  6
_SOLID
 10
4.7690921919
 20
5.3810386981
 30
0
 11
4.769534706
 21
5.3813146006
 31
0
  0
LINE
  5
21C
100
AcDbEntity
  8
SEMA2D
100
AcDbLine
370
9
 62
9
  6
_SOLID
 10
4.7224060274
 20
5.344808135
 30
0
 11
4.7193479125
 21
5.3427426709
 31
0
  0
LINE
  5
21D
100
AcDbEntity
  8
SEMA2D
100
AcDbLine
370
9
 62
9
  6
_SOLID
 10
4.6753212579
 20
5.3175017139
 30
0
 11
4.6741799415
 21
5.3163382063
 31
0
  0
LINE
  5
21E
100
AcDbEntity
  8
SEMA2D
100
AcDbLine
370
9
 62
9
  6
_SOLID
 10
4.669572636
 20
5.3038861353
 30
0
 11
4.6707254974
 21
5.3050614123
 31
0
  0
LINE
  5
21F
100
AcDbEntity
  8
SEMA2D
100
AcDbLine
370
9
 62
9
  6
_SOLID
 10
4.6814936739
 20
5.3112092847
 30
0
 11
4.6803523574
 21
5.3100457771
 31
0
  0
LINE
  5
220
100
AcDbEntity
  8
SEMA2D
100
AcDbLine
370
9
 62
9
  6
_SOLID
 10
4.6610352194
 20
5.3026128305
 30
0
 11
4.6605205377
 21
5.3016852788
 31
0
  0
LINE
  5
221
100
AcDbEntity
  8
SEMA2D
100
AcDbLine
370
9
 62
9
  6
_SOLID
 10
4.7142012294
 20
4.9270428095
 30
0
 11
4.7141087517
 21
4.9272078346
 31
0
  0
LINE
  5
222
100
AcDbEntity
  8
SEMA2D
100
AcDbLine
370
9
 62
7
  6
_SOLID
 10
4.6240764819
 20
4.9790986048
 30
0
 11
4.6240764819
 21
5.4015028962
 31
0
  0
LINE
  5
223
100
AcDbEntity
  8
SEMA2D
100
AcDbLine
370
9
 62
7
  6
_SOLID
 10
4.6247753927
 20
4.9792774862
 30
0
 11
4.6247753927
 21
5.4007903962
 31
0
  0
LINE
  5
224
100
AcDbEntity
  8
SEMA2D
100
AcDbLine
370
9
 62
9
  6
_SOLID
 10
4.6251056183
 20
5.3985563537
 30
0
 11
4.6251056183
 21
4.9792774862
 31
0
  0
LINE
  5
225
100
AcDbEntity
  8
SEMA2D
100
AcDbLine
370
9
 62
9
  6
_SOLID
 10
4.7376594535
 20
5.3112092848
 30
0
 11
4.7438318694
 21
5.3175017139
 31
0
  0
LINE
  5
226
100
AcDbEntity
  8
SEMA2D
100
AcDbLine
370
9
 62
9
  6
_SOLID
 10
4.6297586378
 20
5.3310970334
 30
0
 11
4.6297586378
 21
5.4003122047
 31
0
  0
LINE
  5
227
100
AcDbEntity
  8
SEMA2D
100
AcDbLine
370
9
 62
9
  6
_SOLID
 10
4.6318021789
 20
5.3202871668
 30
0
 11
4.6318021647
 21
4.9757639287
 31
0
  0
LINE
  5
228
100
AcDbEntity
  8
SEMA2D
100
AcDbLine
370
9
 62
9
  6
_SOLID
 10
4.637503291
 20
5.3445990577
 30
0
 11
4.637503291
 21
5.3773800135
 31
0
  0
LINE
  5
229
100
AcDbEntity
  8
SEMA2D
100
AcDbLine
370
9
 62
9
  6
_SOLID
 10
4.6391336829
 20
5.3445990638
 30
0
 11
4.6391336829
 21
5.3773800052
 31
0
  0
LINE
  5
22A
100
AcDbEntity
  8
SEMA2D
100
AcDbLine
370
9
 62
9
  6
_SOLID
 10
4.6411716731
 20
5.3445990638
 30
0
 11
4.6411716731
 21
5.3773800052
 31
0
  0
LINE
  5
22B
100
AcDbEntity
  8
SEMA2D
100
AcDbLine
370
9
 62
9
  6
_SOLID
 10
4.7347411291
 20
5.3402216814
 30
0
 11
4.7338178765
 21
5.3387769981
 31
0
  0
LINE
  5
22C
100
AcDbEntity
  8
SEMA2D
100
AcDbLine
370
9
 62
9
  6
_SOLID
 10
4.7388007699
 20
5.3100457771
 30
0
 11
4.7449731858
 21
5.3163382062
 31
0
  0
LINE
  5
22D
100
AcDbEntity
  8
SEMA2D
100
AcDbLine
370
9
 62
9
  6
_SOLID
 10
4.7450311047
 20
5.3163433036
 30
0
 11
4.7386615832
 21
5.3098498165
 31
0
  0
LINE
  5
22E
100
AcDbEntity
  8
SEMA2D
100
AcDbLine
370
9
 62
9
  6
_SOLID
 10
4.7496468203
 20
5.3181398756
 30
0
 11
4.7396601102
 21
5.3079590011
 31
0
  0
LINE
  5
22F
100
AcDbEntity
  8
SEMA2D
100
AcDbLine
370
9
 62
9
  6
_SOLID
 10
4.7734930326
 20
5.333552366
 30
0
 11
4.7450864677
 21
5.3045935221
 31
0
  0
LINE
  5
230
100
AcDbEntity
  8
SEMA2D
100
AcDbLine
370
9
 62
9
  6
_SOLID
 10
4.7749341094
 20
5.3320832698
 30
0
 11
4.7484276299
 21
5.3050614123
 31
0
  0
LINE
  5
231
100
AcDbEntity
  8
SEMA2D
100
AcDbLine
370
9
 62
9
  6
_SOLID
 10
4.7760869748
 20
5.3309079972
 30
0
 11
4.7495804913
 21
5.3038861353
 31
0
  0
LINE
  5
232
100
AcDbEntity
  8
SEMA2D
100
AcDbLine
370
9
 62
9
  6
_SOLID
 10
4.647739277
 20
5.3878150232
 30
0
 11
4.6477392859
 21
5.3840753152
 31
0
  0
LINE
  5
233
100
AcDbEntity
  8
SEMA2D
100
AcDbLine
370
9
 62
9
  6
_SOLID
 10
4.6479330383
 20
5.3405569742
 30
0
 11
4.6479330367
 21
5.3481248254
 31
0
  0
LINE
  5
234
100
AcDbEntity
  8
SEMA2D
100
AcDbLine
370
9
 62
9
  6
_SOLID
 10
4.6479330379
 20
5.3668103783
 30
0
 11
4.6479330367
 21
5.3690248254
 31
0
  0
LINE
  5
235
100
AcDbEntity
  8
SEMA2D
100
AcDbLine
370
9
 62
9
  6
_SOLID
 10
4.6495063909
 20
5.3405569754
 30
0
 11
4.6495063881
 21
5.348124825
 31
0
  0
LINE
  5
236
100
AcDbEntity
  8
SEMA2D
100
AcDbLine
370
9
 62
9
  6
_SOLID
 10
4.6495063901
 20
5.3668103732
 30
0
 11
4.6495063881
 21
5.369024825
 31
0
  0
LINE
  5
237
100
AcDbEntity
  8
SEMA2D
100
AcDbLine
370
9
 62
9
  6
_SOLID
 10
4.6506592327
 20
5.360874605
 30
0
 11
4.6506592327
 21
5.3612045365
 31
0
  0
LINE
  5
238
100
AcDbEntity
  8
SEMA2D
100
AcDbLine
370
9
 62
9
  6
_SOLID
 10
4.6518664087
 20
5.3371862241
 30
0
 11
4.6518664152
 21
5.348124825
 31
0
  0
LINE
  5
239
100
AcDbEntity
  8
SEMA2D
100
AcDbLine
370
9
 62
9
  6
_SOLID
 10
4.6518664124
 20
5.363522329
 30
0
 11
4.6518664152
 21
5.369024825
 31
0
  0
LINE
  5
23A
100
AcDbEntity
  8
SEMA2D
100
AcDbLine
370
9
 62
9
  6
_SOLID
 10
4.6582368689
 20
4.9581845933
 30
0
 11
4.6582368285
 21
5.3000605096
 31
0
  0
LINE
  5
23B
100
AcDbEntity
  8
SEMA2D
100
AcDbLine
370
9
 62
9
  6
_SOLID
 10
4.6583287163
 20
5.3827694903
 30
0
 11
4.6583287163
 21
5.3840753152
 31
0
  0
LINE
  5
23C
100
AcDbEntity
  8
SEMA2D
100
AcDbLine
370
9
 62
9
  6
_SOLID
 10
4.6599427816
 20
5.3827694504
 30
0
 11
4.6599427816
 21
5.3840753152
 31
0
  0
LINE
  5
23D
100
AcDbEntity
  8
SEMA2D
100
AcDbLine
370
9
 62
9
  6
_SOLID
 10
4.6601147892
 20
5.384524127
 30
0
 11
4.6601147894
 21
5.3803820601
 31
0
  0
LINE
  5
23E
100
AcDbEntity
  8
SEMA2D
100
AcDbLine
370
9
 62
9
  6
_SOLID
 10
4.6611206651
 20
5.348949651
 30
0
 11
4.661120665
 21
5.348124801
 31
0
  0
LINE
  5
23F
100
AcDbEntity
  8
SEMA2D
100
AcDbLine
370
9
 62
9
  6
_SOLID
 10
4.6799350707
 20
5.3814497242
 30
0
 11
4.6798284529
 21
5.3803820601
 31
0
  0
LINE
  5
240
100
AcDbEntity
  8
SEMA2D
100
AcDbLine
370
9
 62
9
  6
_SOLID
 10
4.6815491318
 20
5.3811197513
 30
0
 11
4.6814425181
 21
5.3800521286
 31
0
  0
LINE
  5
241
100
AcDbEntity
  8
SEMA2D
100
AcDbLine
370
9
 62
9
  6
_SOLID
 10
4.7390521054
 20
5.3070093881
 30
0
 11
4.7396601173
 21
5.3079589965
 31
0
  0
LINE
  5
242
100
AcDbEntity
  8
SEMA2D
100
AcDbLine
370
9
 62
9
  6
_SOLID
 10
4.7438318694
 20
5.3175017139
 30
0
 11
4.7447475043
 21
5.3188769395
 31
0
  0
LINE
  5
243
100
AcDbEntity
  8
SEMA2D
100
AcDbLine
370
9
 62
9
  6
_SOLID
 10
4.6506592426
 20
5.360874605
 30
0
 11
4.6518500677
 21
5.3489496539
 31
0
  0
LINE
  5
244
100
AcDbEntity
  8
SEMA2D
100
AcDbLine
370
9
 62
9
  6
_SOLID
 10
4.6507246263
 20
5.3811197569
 30
0
 11
4.6518500677
 21
5.3698496539
 31
0
  0
LINE
  5
245
100
AcDbEntity
  8
SEMA2D
100
AcDbLine
370
9
 62
9
  6
_SOLID
 10
4.6617288547
 20
5.3878150237
 30
0
 11
4.6617288547
 21
5.3757585461
 31
0
  0
LINE
  5
246
100
AcDbEntity
  8
SEMA2D
100
AcDbLine
370
9
 62
9
  6
_SOLID
 10
4.665394731
 20
5.2977461594
 30
0
 11
4.6653948003
 21
4.9556818372
 31
0
  0
LINE
  5
247
100
AcDbEntity
  8
SEMA2D
100
AcDbLine
370
9
 62
9
  6
_SOLID
 10
4.6870345768
 20
5.360874605
 30
0
 11
4.6858437295
 21
5.3489496776
 31
0
  0
LINE
  5
248
100
AcDbEntity
  8
SEMA2D
100
AcDbLine
370
9
 62
9
  6
_SOLID
 10
4.6876052789
 20
5.3500966441
 30
0
 11
4.6874577947
 21
5.3486197461
 31
0
  0
LINE
  5
249
100
AcDbEntity
  8
SEMA2D
100
AcDbLine
370
9
 62
9
  6
_SOLID
 10
4.7444978692
 20
5.3035327786
 30
0
 11
4.7450864944
 21
5.3045935061
 31
0
  0
LINE
  5
24A
100
AcDbEntity
  8
SEMA2D
100
AcDbLine
370
9
 62
9
  6
_SOLID
 10
4.6585007242
 20
5.3800521286
 30
0
 11
4.6583941105
 21
5.3811197513
 31
0
  0
LINE
  5
24B
100
AcDbEntity
  8
SEMA2D
100
AcDbLine
370
9
 62
9
  6
_SOLID
 10
4.6601147894
 20
5.3803820601
 30
0
 11
4.6600081716
 21
5.3814497242
 31
0
  0
LINE
  5
24C
100
AcDbEntity
  8
SEMA2D
100
AcDbLine
370
9
 62
9
  6
_SOLID
 10
4.6798284529
 20
5.3803820601
 30
0
 11
4.6798284529
 21
5.3845241272
 31
0
  0
LINE
  5
24D
100
AcDbEntity
  8
SEMA2D
100
AcDbLine
370
9
 62
9
  6
_SOLID
 10
4.6799235038
 20
5.3406346855
 30
0
 11
4.6799235072
 21
5.3371862241
 31
0
  0
LINE
  5
24E
100
AcDbEntity
  8
SEMA2D
100
AcDbLine
370
9
 62
9
  6
_SOLID
 10
4.6800004608
 20
5.3840753152
 30
0
 11
4.6800004608
 21
5.3827694504
 31
0
  0
LINE
  5
24F
100
AcDbEntity
  8
SEMA2D
100
AcDbLine
370
9
 62
9
  6
_SOLID
 10
4.681614526
 20
5.3840753152
 30
0
 11
4.681614526
 21
5.3827694903
 31
0
  0
LINE
  5
250
100
AcDbEntity
  8
SEMA2D
100
AcDbLine
370
9
 62
9
  6
_SOLID
 10
4.6834819824
 20
5.3489496528
 30
0
 11
4.6834819824
 21
5.348124826
 31
0
  0
LINE
  5
251
100
AcDbEntity
  8
SEMA2D
100
AcDbLine
370
9
 62
9
  6
_SOLID
 10
4.6858192058
 20
5.3481248012
 30
0
 11
4.6858192058
 21
5.3459200853
 31
0
  0
LINE
  5
252
100
AcDbEntity
  8
SEMA2D
100
AcDbLine
370
9
 62
9
  6
_SOLID
 10
4.6870345621
 20
5.360874605
 30
0
 11
4.6870345621
 21
5.3612045449
 31
0
  0
LINE
  5
253
100
AcDbEntity
  8
SEMA2D
100
AcDbLine
370
9
 62
9
  6
_SOLID
 10
4.6874332711
 20
5.3481248012
 30
0
 11
4.6874332711
 21
5.3459201634
 31
0
  0
LINE
  5
254
100
AcDbEntity
  8
SEMA2D
100
AcDbLine
370
9
 62
9
  6
_SOLID
 10
4.6876052789
 20
5.3500966441
 30
0
 11
4.6876052789
 21
5.3458665911
 31
0
  0
LINE
  5
255
100
AcDbEntity
  8
SEMA2D
100
AcDbLine
370
9
 62
9
  6
_SOLID
 10
4.6892193442
 20
5.3500966441
 30
0
 11
4.6892193442
 21
5.3458665314
 31
0
  0
LINE
  5
256
100
AcDbEntity
  8
SEMA2D
100
AcDbLine
370
9
 62
9
  6
_SOLID
 10
4.6900773553
 20
4.9396296581
 30
0
 11
4.6900775179
 21
5.3106707915
 31
0
  0
LINE
  5
257
100
AcDbEntity
  8
SEMA2D
100
AcDbLine
370
9
 62
9
  6
_SOLID
 10
4.6782143877
 20
5.3878150237
 30
0
 11
4.6782143877
 21
5.3757585461
 31
0
  0
LINE
  5
258
100
AcDbEntity
  8
SEMA2D
100
AcDbLine
370
9
 62
9
  6
_SOLID
 10
4.7525711501
 20
5.3023953333
 30
0
 11
4.7518496112
 21
5.300824368
 31
0
  0
LINE
  5
259
100
AcDbEntity
  8
SEMA2D
100
AcDbLine
370
9
 62
9
  6
_SOLID
 10
4.7896835904
 20
4.9710298995
 30
0
 11
4.7895150578
 21
4.9713304205
 31
0
  0
LINE
  5
25A
100
AcDbEntity
  8
SEMA2D
100
AcDbLine
370
9
 62
9
  6
_SOLID
 10
4.6972352878
 20
4.9371269007
 30
0
 11
4.6972354184
 21
5.3205486101
 31
0
  0
LINE
  5
25B
100
AcDbEntity
  8
SEMA2D
100
AcDbLine
370
9
 62
9
  6
_SOLID
 10
4.6978396882
 20
5.3494903962
 30
0
 11
4.6978396882
 21
5.3485060099
 31
0
  0
LINE
  5
25C
100
AcDbEntity
  8
SEMA2D
100
AcDbLine
370
9
 62
9
  6
_SOLID
 10
4.6998776785
 20
5.3494903962
 30
0
 11
4.6998776784
 21
5.3485060099
 31
0
  0
LINE
  5
25D
100
AcDbEntity
  8
SEMA2D
100
AcDbLine
370
9
 62
9
  6
_SOLID
 10
4.7015080707
 20
5.3494903962
 30
0
 11
4.7015080704
 21
5.3485060015
 31
0
  0
LINE
  5
25E
100
AcDbEntity
  8
SEMA2D
100
AcDbLine
370
9
 62
9
  6
_SOLID
 10
4.7176450572
 20
5.3485060004
 30
0
 11
4.7176450566
 21
5.3494903962
 31
0
  0
LINE
  5
25F
100
AcDbEntity
  8
SEMA2D
100
AcDbLine
370
9
 62
9
  6
_SOLID
 10
4.7192754489
 20
5.3485060099
 30
0
 11
4.7192754488
 21
5.3494903962
 31
0
  0
LINE
  5
260
100
AcDbEntity
  8
SEMA2D
100
AcDbLine
370
9
 62
9
  6
_SOLID
 10
4.7213134391
 20
5.3485060099
 30
0
 11
4.7213134391
 21
5.3494903962
 31
0
  0
LINE
  5
261
100
AcDbEntity
  8
SEMA2D
100
AcDbLine
370
9
 62
9
  6
_SOLID
 10
4.7219178395
 20
4.9371269015
 30
0
 11
4.7219176856
 21
5.320548645
 31
0
  0
LINE
  5
262
100
AcDbEntity
  8
SEMA2D
100
AcDbLine
370
9
 62
9
  6
_SOLID
 10
4.6665819772
 20
5.3023953333
 30
0
 11
4.6673034035
 21
5.3008246135
 31
0
  0
LINE
  5
263
100
AcDbEntity
  8
SEMA2D
100
AcDbLine
370
9
 62
9
  6
_SOLID
 10
4.7290757722
 20
4.9396296588
 30
0
 11
4.7290756368
 21
5.3106705912
 31
0
  0
LINE
  5
264
100
AcDbEntity
  8
SEMA2D
100
AcDbLine
370
9
 62
9
  6
_SOLID
 10
4.7299337832
 20
5.3458665314
 30
0
 11
4.7299337832
 21
5.3500966441
 31
0
  0
LINE
  5
265
100
AcDbEntity
  8
SEMA2D
100
AcDbLine
370
9
 62
9
  6
_SOLID
 10
4.7315478484
 20
5.345866591
 30
0
 11
4.7315478484
 21
5.3500966441
 31
0
  0
LINE
  5
266
100
AcDbEntity
  8
SEMA2D
100
AcDbLine
370
9
 62
9
  6
_SOLID
 10
4.7317198563
 20
5.3459201634
 30
0
 11
4.7317198563
 21
5.3481248077
 31
0
  0
LINE
  5
267
100
AcDbEntity
  8
SEMA2D
100
AcDbLine
370
9
 62
9
  6
_SOLID
 10
4.7321185652
 20
5.360874605
 30
0
 11
4.7321185652
 21
5.3612045365
 31
0
  0
LINE
  5
268
100
AcDbEntity
  8
SEMA2D
100
AcDbLine
370
9
 62
9
  6
_SOLID
 10
4.7333339215
 20
5.3459200853
 30
0
 11
4.7333339215
 21
5.3481248077
 31
0
  0
LINE
  5
269
100
AcDbEntity
  8
SEMA2D
100
AcDbLine
370
9
 62
9
  6
_SOLID
 10
4.735671145
 20
5.348124826
 30
0
 11
4.735671145
 21
5.3489496529
 31
0
  0
LINE
  5
26A
100
AcDbEntity
  8
SEMA2D
100
AcDbLine
370
9
 62
9
  6
_SOLID
 10
4.7375386013
 20
5.3827694902
 30
0
 11
4.7375386013
 21
5.3840753152
 31
0
  0
LINE
  5
26B
100
AcDbEntity
  8
SEMA2D
100
AcDbLine
370
9
 62
9
  6
_SOLID
 10
4.7391526666
 20
5.3827694504
 30
0
 11
4.7391526666
 21
5.3840753152
 31
0
  0
LINE
  5
26C
100
AcDbEntity
  8
SEMA2D
100
AcDbLine
370
9
 62
9
  6
_SOLID
 10
4.7392296201
 20
5.3371862241
 30
0
 11
4.7392296235
 21
5.3406346855
 31
0
  0
LINE
  5
26D
100
AcDbEntity
  8
SEMA2D
100
AcDbLine
370
9
 62
9
  6
_SOLID
 10
4.7393246742
 20
5.384524127
 30
0
 11
4.7393246744
 21
5.3803820601
 31
0
  0
LINE
  5
26E
100
AcDbEntity
  8
SEMA2D
100
AcDbLine
370
9
 62
9
  6
_SOLID
 10
4.7409387397
 20
5.3878150237
 30
0
 11
4.7409387397
 21
5.3757585461
 31
0
  0
LINE
  5
26F
100
AcDbEntity
  8
SEMA2D
100
AcDbLine
370
9
 62
9
  6
_SOLID
 10
4.7591449557
 20
5.3814497242
 30
0
 11
4.7590383379
 21
5.3803820601
 31
0
  0
LINE
  5
270
100
AcDbEntity
  8
SEMA2D
100
AcDbLine
370
9
 62
9
  6
_SOLID
 10
4.7607590168
 20
5.3811197513
 30
0
 11
4.7606524031
 21
5.3800521286
 31
0
  0
LINE
  5
271
100
AcDbEntity
  8
SEMA2D
100
AcDbLine
370
9
 62
9
  6
_SOLID
 10
4.6294695369
 20
4.9710298995
 30
0
 11
4.6296380709
 21
4.9713304197
 31
0
  0
LINE
  5
272
100
AcDbEntity
  8
SEMA2D
100
AcDbLine
370
9
 62
9
  6
_SOLID
 10
4.7316953332
 20
5.3486197403
 30
0
 11
4.7315478484
 21
5.3500966441
 31
0
  0
LINE
  5
273
100
AcDbEntity
  8
SEMA2D
100
AcDbLine
370
9
 62
9
  6
_SOLID
 10
4.7333093984
 20
5.3489496718
 30
0
 11
4.7321185497
 21
5.360874605
 31
0
  0
LINE
  5
274
100
AcDbEntity
  8
SEMA2D
100
AcDbLine
370
9
 62
9
  6
_SOLID
 10
4.7377106092
 20
5.3800521286
 30
0
 11
4.7376039955
 21
5.3811197513
 31
0
  0
LINE
  5
275
100
AcDbEntity
  8
SEMA2D
100
AcDbLine
370
9
 62
9
  6
_SOLID
 10
4.7393246744
 20
5.3803820601
 30
0
 11
4.7392180566
 21
5.3814497242
 31
0
  0
LINE
  5
276
100
AcDbEntity
  8
SEMA2D
100
AcDbLine
370
9
 62
9
  6
_SOLID
 10
4.7537584106
 20
5.2977461467
 30
0
 11
4.7537583271
 21
4.9556818371
 31
0
  0
LINE
  5
277
100
AcDbEntity
  8
SEMA2D
100
AcDbLine
370
9
 62
9
  6
_SOLID
 10
4.7580324624
 20
5.3481248009
 30
0
 11
4.7580324623
 21
5.3489496509
 31
0
  0
LINE
  5
278
100
AcDbEntity
  8
SEMA2D
100
AcDbLine
370
9
 62
9
  6
_SOLID
 10
4.7590383379
 20
5.3803820601
 30
0
 11
4.7590383379
 21
5.3845241272
 31
0
  0
LINE
  5
279
100
AcDbEntity
  8
SEMA2D
100
AcDbLine
370
9
 62
9
  6
_SOLID
 10
4.7592103458
 20
5.3840753152
 30
0
 11
4.7592103458
 21
5.3827694504
 31
0
  0
LINE
  5
27A
100
AcDbEntity
  8
SEMA2D
100
AcDbLine
370
9
 62
9
  6
_SOLID
 10
4.760824411
 20
5.3840753152
 30
0
 11
4.760824411
 21
5.3827694903
 31
0
  0
LINE
  5
27B
100
AcDbEntity
  8
SEMA2D
100
AcDbLine
370
9
 62
9
  6
_SOLID
 10
4.7609162585
 20
4.9581845943
 30
0
 11
4.7609162947
 21
5.3000605104
 31
0
  0
LINE
  5
27C
100
AcDbEntity
  8
SEMA2D
100
AcDbLine
370
9
 62
9
  6
_SOLID
 10
4.7574242727
 20
5.3878150237
 30
0
 11
4.7574242727
 21
5.3757585461
 31
0
  0
LINE
  5
27D
100
AcDbEntity
  8
SEMA2D
100
AcDbLine
370
9
 62
9
  6
_SOLID
 10
4.7673030596
 20
5.3489496539
 30
0
 11
4.7684938765
 21
5.360874605
 31
0
  0
LINE
  5
27E
100
AcDbEntity
  8
SEMA2D
100
AcDbLine
370
9
 62
9
  6
_SOLID
 10
4.7673030596
 20
5.3698496539
 30
0
 11
4.768428501
 21
5.3811197569
 31
0
  0
LINE
  5
27F
100
AcDbEntity
  8
SEMA2D
100
AcDbLine
370
9
 62
9
  6
_SOLID
 10
4.6801011136
 20
5.3070092445
 30
0
 11
4.67949301
 21
5.3079589965
 31
0
  0
LINE
  5
280
100
AcDbEntity
  8
SEMA2D
100
AcDbLine
370
9
 62
9
  6
_SOLID
 10
4.6746551568
 20
5.3035329619
 30
0
 11
4.6740666329
 21
5.3045935061
 31
0
  0
LINE
  5
281
100
AcDbEntity
  8
SEMA2D
100
AcDbLine
370
9
 62
9
  6
_SOLID
 10
4.7672867121
 20
5.369024825
 30
0
 11
4.7672867149
 21
5.363522329
 31
0
  0
LINE
  5
282
100
AcDbEntity
  8
SEMA2D
100
AcDbLine
370
9
 62
9
  6
_SOLID
 10
4.7672867121
 20
5.348124825
 30
0
 11
4.7672867186
 21
5.3371862241
 31
0
  0
LINE
  5
283
100
AcDbEntity
  8
SEMA2D
100
AcDbLine
370
9
 62
9
  6
_SOLID
 10
4.7684938946
 20
5.3608746049
 30
0
 11
4.7684938946
 21
5.3612045579
 31
0
  0
LINE
  5
284
100
AcDbEntity
  8
SEMA2D
100
AcDbLine
370
9
 62
9
  6
_SOLID
 10
4.7696467392
 20
5.369024825
 30
0
 11
4.7696467373
 21
5.3668103732
 31
0
  0
LINE
  5
285
100
AcDbEntity
  8
SEMA2D
100
AcDbLine
370
9
 62
9
  6
_SOLID
 10
4.7696467392
 20
5.348124825
 30
0
 11
4.7696467365
 21
5.3405569754
 31
0
  0
LINE
  5
286
100
AcDbEntity
  8
SEMA2D
100
AcDbLine
370
9
 62
9
  6
_SOLID
 10
4.7712200906
 20
5.3690248254
 30
0
 11
4.7712200894
 21
5.3668103783
 31
0
  0
LINE
  5
287
100
AcDbEntity
  8
SEMA2D
100
AcDbLine
370
9
 62
9
  6
_SOLID
 10
4.7712200906
 20
5.3481248254
 30
0
 11
4.771220089
 21
5.3405569742
 31
0
  0
LINE
  5
288
100
AcDbEntity
  8
SEMA2D
100
AcDbLine
370
9
 62
9
  6
_SOLID
 10
4.7714138415
 20
5.3840753152
 30
0
 11
4.7714138496
 21
5.3878150234
 31
0
  0
LINE
  5
289
100
AcDbEntity
  8
SEMA2D
100
AcDbLine
370
9
 62
9
  6
_SOLID
 10
4.7779814542
 20
5.3773800052
 30
0
 11
4.7779814542
 21
5.3445990638
 31
0
  0
LINE
  5
28A
100
AcDbEntity
  8
SEMA2D
100
AcDbLine
370
9
 62
9
  6
_SOLID
 10
4.6753212582
 20
5.3175017142
 30
0
 11
4.6744056558
 21
5.3188768785
 31
0
  0
LINE
  5
28B
100
AcDbEntity
  8
SEMA2D
100
AcDbLine
370
9
 62
9
  6
_SOLID
 10
4.7800194444
 20
5.3773800052
 30
0
 11
4.7800194444
 21
5.3445990638
 31
0
  0
LINE
  5
28C
100
AcDbEntity
  8
SEMA2D
100
AcDbLine
370
9
 62
9
  6
_SOLID
 10
4.7816498361
 20
5.3773800143
 30
0
 11
4.7816498365
 21
5.3445990586
 31
0
  0
LINE
  5
28D
100
AcDbEntity
  8
SEMA2D
100
AcDbLine
370
9
 62
9
  6
_SOLID
 10
4.7873509505
 20
4.9757639257
 30
0
 11
4.7873509484
 21
5.3202871668
 31
0
  0
LINE
  5
28E
100
AcDbEntity
  8
SEMA2D
100
AcDbLine
370
9
 62
9
  6
_SOLID
 10
4.7893944896
 20
5.3310970346
 30
0
 11
4.7893944896
 21
5.4003122047
 31
0
  0
LINE
  5
28F
100
AcDbEntity
  8
SEMA2D
100
AcDbLine
370
9
 62
9
  6
_SOLID
 10
4.794047509
 20
5.3985563537
 30
0
 11
4.794047509
 21
4.9792774862
 31
0
  0
LINE
  5
290
100
AcDbEntity
  8
SEMA2D
100
AcDbLine
370
9
 62
7
  6
_SOLID
 10
4.7943777347
 20
5.4007903962
 30
0
 11
4.7943777347
 21
4.9792774862
 31
0
  0
LINE
  5
291
100
AcDbEntity
  8
SEMA2D
100
AcDbLine
370
9
 62
7
  6
_SOLID
 10
4.7950766454
 20
5.4015028962
 30
0
 11
4.7950766454
 21
4.9790986048
 31
0
  0
ARC
  5
292
100
AcDbEntity
  8
SEMA2D
100
AcDbCircle
370
9
 62
7
  6
_SOLID
 10
4.7850766454
 20
4.9790986048
 30
0
 40
0.00999999999999979
100
AcDbArc
 50
300.231348818279
 51
0
  0
LINE
  5
293
100
AcDbEntity
  8
SEMA2D
100
AcDbLine
370
9
 62
9
  6
_SOLID
 10
4.669572636
 20
5.3038861353
 30
0
 11
4.6430661531
 21
5.3309079965
 31
0
  0
LINE
  5
294
100
AcDbEntity
  8
SEMA2D
100
AcDbLine
370
9
 62
9
  6
_SOLID
 10
4.6707254974
 20
5.3050614123
 30
0
 11
4.644219018
 21
5.3320832698
 31
0
  0
LINE
  5
295
100
AcDbEntity
  8
SEMA2D
100
AcDbLine
370
9
 62
9
  6
_SOLID
 10
4.6740666597
 20
5.3045935222
 30
0
 11
4.6456600947
 21
5.333552366
 31
0
  0
LINE
  5
296
100
AcDbEntity
  8
SEMA2D
100
AcDbLine
370
9
 62
9
  6
_SOLID
 10
4.6794930171
 20
5.3079590011
 30
0
 11
4.6695063071
 21
5.3181398756
 31
0
  0
LINE
  5
297
100
AcDbEntity
  8
SEMA2D
100
AcDbLine
370
9
 62
9
  6
_SOLID
 10
4.6804915441
 20
5.3098498165
 30
0
 11
4.6741220224
 21
5.3163433037
 31
0
  0
LINE
  5
298
100
AcDbEntity
  8
SEMA2D
100
AcDbLine
370
9
 62
9
  6
_SOLID
 10
4.6741799415
 20
5.3163382062
 30
0
 11
4.6803523574
 21
5.3100457771
 31
0
  0
LINE
  5
299
100
AcDbEntity
  8
SEMA2D
100
AcDbLine
370
9
 62
9
  6
_SOLID
 10
4.6753212579
 20
5.3175017139
 30
0
 11
4.6814936738
 21
5.3112092848
 31
0
  0
LINE
  5
29A
100
AcDbEntity
  8
SEMA2D
100
AcDbLine
370
9
 62
9
  6
_SOLID
 10
4.6844119962
 20
5.34022168
 30
0
 11
4.6853352508
 21
5.3387769981
 31
0
  0
LINE
  5
29B
100
AcDbEntity
  8
SEMA2D
100
AcDbLine
370
9
 62
9
  6
_SOLID
 10
4.7049518979
 20
4.9270428095
 30
0
 11
4.705044381
 21
4.9272078315
 31
0
  0
LINE
  5
29C
100
AcDbEntity
  8
SEMA2D
100
AcDbLine
370
9
 62
9
  6
_SOLID
 10
4.7581178703
 20
5.302612809
 30
0
 11
4.7586325455
 21
5.3016852579
 31
0
  0
LINE
  5
29D
100
AcDbEntity
  8
SEMA2D
100
AcDbLine
370
9
 62
9
  6
_SOLID
 10
4.7376594534
 20
5.3112092847
 30
0
 11
4.7388007699
 21
5.3100457771
 31
0
  0
LINE
  5
29E
100
AcDbEntity
  8
SEMA2D
100
AcDbLine
370
9
 62
9
  6
_SOLID
 10
4.7495804568
 20
5.3038861704
 30
0
 11
4.7484276299
 21
5.3050614123
 31
0
  0
LINE
  5
29F
100
AcDbEntity
  8
SEMA2D
100
AcDbLine
370
9
 62
9
  6
_SOLID
 10
4.7449731858
 20
5.3163382063
 30
0
 11
4.7438318694
 21
5.3175017139
 31
0
  0
LINE
  5
2A0
100
AcDbEntity
  8
SEMA2D
100
AcDbLine
370
9
 62
9
  6
_SOLID
 10
4.6500609383
 20
5.3810387012
 30
0
 11
4.6496184827
 21
5.3813145624
 31
0
  0
LINE
  5
2A1
100
AcDbEntity
  8
SEMA2D
100
AcDbLine
370
9
 62
9
  6
_SOLID
 10
4.6998052149
 20
5.3427426715
 30
0
 11
4.6967470999
 21
5.344808135
 31
0
  0
LINE
  5
2A2
100
AcDbEntity
  8
SEMA2D
100
AcDbLine
370
9
 62
9
  6
_SOLID
 10
4.6876052789
 20
5.3458665911
 30
0
 11
4.6874332711
 21
5.3459201634
 31
0
  0
LINE
  5
2A3
100
AcDbEntity
  8
SEMA2D
100
AcDbLine
370
9
 62
9
  6
_SOLID
 10
4.7760869748
 20
5.3309079972
 30
0
 11
4.7734930326
 21
5.333552366
 31
0
  0
LINE
  5
2A4
100
AcDbEntity
  8
SEMA2D
100
AcDbLine
370
9
 62
9
  6
_SOLID
 10
4.7696520444
 20
5.3484834155
 30
0
 11
4.7712180342
 21
5.3485025207
 31
0
  0
LINE
  5
2A5
100
AcDbEntity
  8
SEMA2D
100
AcDbLine
370
9
 62
9
  6
_SOLID
 10
4.7672867186
 20
5.3371862241
 30
0
 11
4.7392296201
 21
5.3371862241
 31
0
  0
LINE
  5
2A6
100
AcDbEntity
  8
SEMA2D
100
AcDbLine
370
9
 62
9
  6
_SOLID
 10
4.6799235072
 20
5.3371862241
 30
0
 11
4.6518664087
 21
5.3371862241
 31
0
  0
LINE
  5
2A7
100
AcDbEntity
  8
SEMA2D
100
AcDbLine
370
9
 62
9
  6
_SOLID
 10
4.7672867121
 20
5.3389104547
 30
0
 11
4.7392296235
 21
5.3389104547
 31
0
  0
LINE
  5
2A8
100
AcDbEntity
  8
SEMA2D
100
AcDbLine
370
9
 62
9
  6
_SOLID
 10
4.6799235038
 20
5.3389104547
 30
0
 11
4.6518664152
 21
5.3389104547
 31
0
  0
LINE
  5
2A9
100
AcDbEntity
  8
SEMA2D
100
AcDbLine
370
9
 62
9
  6
_SOLID
 10
4.6495063909
 20
5.3405569746
 30
0
 11
4.6479330383
 21
5.3405569742
 31
0
  0
LINE
  5
2AA
100
AcDbEntity
  8
SEMA2D
100
AcDbLine
370
9
 62
9
  6
_SOLID
 10
4.7696467365
 20
5.3405569746
 30
0
 11
4.771220089
 21
5.3405569742
 31
0
  0
LINE
  5
2AB
100
AcDbEntity
  8
SEMA2D
100
AcDbLine
370
9
 62
9
  6
_SOLID
 10
4.7672867121
 20
5.3406346855
 30
0
 11
4.7392296235
 21
5.3406346855
 31
0
  0
LINE
  5
2AC
100
AcDbEntity
  8
SEMA2D
100
AcDbLine
370
9
 62
9
  6
_SOLID
 10
4.6799235038
 20
5.3406346855
 30
0
 11
4.6518664152
 21
5.3406346855
 31
0
  0
LINE
  5
2AD
100
AcDbEntity
  8
SEMA2D
100
AcDbLine
370
9
 62
9
  6
_SOLID
 10
4.637503291
 20
5.3445990577
 30
0
 11
4.6411716731
 21
5.3445990638
 31
0
  0
LINE
  5
2AE
100
AcDbEntity
  8
SEMA2D
100
AcDbLine
370
9
 62
9
  6
_SOLID
 10
4.7816498365
 20
5.3445990586
 30
0
 11
4.7779814542
 21
5.3445990638
 31
0
  0
LINE
  5
2AF
100
AcDbEntity
  8
SEMA2D
100
AcDbLine
370
9
 62
9
  6
_SOLID
 10
4.7315478484
 20
5.3458665314
 30
0
 11
4.7299337832
 21
5.3458665314
 31
0
  0
LINE
  5
2B0
100
AcDbEntity
  8
SEMA2D
100
AcDbLine
370
9
 62
9
  6
_SOLID
 10
4.6876052789
 20
5.3458665314
 30
0
 11
4.6892193442
 21
5.3458665314
 31
0
  0
LINE
  5
2B1
100
AcDbEntity
  8
SEMA2D
100
AcDbLine
370
9
 62
9
  6
_SOLID
 10
4.6874332711
 20
5.3459200853
 30
0
 11
4.6858192058
 21
5.3459200853
 31
0
  0
LINE
  5
2B2
100
AcDbEntity
  8
SEMA2D
100
AcDbLine
370
9
 62
9
  6
_SOLID
 10
4.7317198563
 20
5.3459200853
 30
0
 11
4.7333339215
 21
5.3459200853
 31
0
  0
LINE
  5
2B3
100
AcDbEntity
  8
SEMA2D
100
AcDbLine
370
9
 62
9
  6
_SOLID
 10
4.6874332711
 20
5.3481248012
 30
0
 11
4.6858192058
 21
5.3481248012
 31
0
  0
LINE
  5
2B4
100
AcDbEntity
  8
SEMA2D
100
AcDbLine
370
9
 62
9
  6
_SOLID
 10
4.7317198563
 20
5.3481248077
 30
0
 11
4.7333339215
 21
5.3481248077
 31
0
  0
LINE
  5
2B5
100
AcDbEntity
  8
SEMA2D
100
AcDbLine
370
9
 62
9
  6
_SOLID
 10
4.6518664152
 20
5.348124825
 30
0
 11
4.6479330367
 21
5.3481248254
 31
0
  0
LINE
  5
2B6
100
AcDbEntity
  8
SEMA2D
100
AcDbLine
370
9
 62
9
  6
_SOLID
 10
4.7672867121
 20
5.348124825
 30
0
 11
4.7712200906
 21
5.3481248254
 31
0
  0
LINE
  5
2B7
100
AcDbEntity
  8
SEMA2D
100
AcDbLine
370
9
 62
9
  6
_SOLID
 10
4.7213134391
 20
5.3485060099
 30
0
 11
4.7176450572
 21
5.3485060004
 31
0
  0
LINE
  5
2B8
100
AcDbEntity
  8
SEMA2D
100
AcDbLine
370
9
 62
9
  6
_SOLID
 10
4.6978396882
 20
5.3485060099
 30
0
 11
4.7015080704
 21
5.3485060015
 31
0
  0
LINE
  5
2B9
100
AcDbEntity
  8
SEMA2D
100
AcDbLine
370
9
 62
9
  6
_SOLID
 10
4.6978396882
 20
5.3494903962
 30
0
 11
4.7015080707
 21
5.3494903962
 31
0
  0
LINE
  5
2BA
100
AcDbEntity
  8
SEMA2D
100
AcDbLine
370
9
 62
9
  6
_SOLID
 10
4.7176450566
 20
5.3494903962
 30
0
 11
4.7213134391
 21
5.3494903962
 31
0
  0
LINE
  5
2BB
100
AcDbEntity
  8
SEMA2D
100
AcDbLine
370
9
 62
9
  6
_SOLID
 10
4.7315478484
 20
5.3500966441
 30
0
 11
4.7299337832
 21
5.3500966441
 31
0
  0
LINE
  5
2BC
100
AcDbEntity
  8
SEMA2D
100
AcDbLine
370
9
 62
9
  6
_SOLID
 10
4.6876052789
 20
5.3500966441
 30
0
 11
4.6892193442
 21
5.3500966441
 31
0
  0
LINE
  5
2BD
100
AcDbEntity
  8
SEMA2D
100
AcDbLine
370
9
 62
9
  6
_SOLID
 10
4.649501083
 20
5.3484834151
 30
0
 11
4.6479350933
 21
5.3485025207
 31
0
  0
LINE
  5
2BE
100
AcDbEntity
  8
SEMA2D
100
AcDbLine
370
9
 62
9
  6
_SOLID
 10
4.7690993558
 20
5.3655786842
 30
0
 11
4.7701049578
 21
5.3643594724
 31
0
  0
LINE
  5
2BF
100
AcDbEntity
  8
SEMA2D
100
AcDbLine
370
9
 62
9
  6
_SOLID
 10
4.6506592426
 20
5.360874605
 30
0
 11
4.6870345768
 21
5.360874605
 31
0
  0
LINE
  5
2C0
100
AcDbEntity
  8
SEMA2D
100
AcDbLine
370
9
 62
9
  6
_SOLID
 10
4.7321185497
 20
5.360874605
 30
0
 11
4.7684938765
 21
5.360874605
 31
0
  0
LINE
  5
2C1
100
AcDbEntity
  8
SEMA2D
100
AcDbLine
370
9
 62
9
  6
_SOLID
 10
4.6506592327
 20
5.3612045365
 30
0
 11
4.6870345621
 21
5.3612045365
 31
0
  0
LINE
  5
2C2
100
AcDbEntity
  8
SEMA2D
100
AcDbLine
370
9
 62
9
  6
_SOLID
 10
4.7321185652
 20
5.3612045365
 30
0
 11
4.7684938946
 21
5.3612045365
 31
0
  0
LINE
  5
2C3
100
AcDbEntity
  8
SEMA2D
100
AcDbLine
370
9
 62
9
  6
_SOLID
 10
4.7672867149
 20
5.363522329
 30
0
 11
4.6518664124
 21
5.363522329
 31
0
  0
LINE
  5
2C4
100
AcDbEntity
  8
SEMA2D
100
AcDbLine
370
9
 62
9
  6
_SOLID
 10
4.7672867121
 20
5.3652465597
 30
0
 11
4.6518664152
 21
5.3652465597
 31
0
  0
LINE
  5
2C5
100
AcDbEntity
  8
SEMA2D
100
AcDbLine
370
9
 62
9
  6
_SOLID
 10
4.6495063901
 20
5.366810379
 30
0
 11
4.6479330379
 21
5.3668103783
 31
0
  0
LINE
  5
2C6
100
AcDbEntity
  8
SEMA2D
100
AcDbLine
370
9
 62
9
  6
_SOLID
 10
4.7696467373
 20
5.366810379
 30
0
 11
4.7712200894
 21
5.3668103783
 31
0
  0
LINE
  5
2C7
100
AcDbEntity
  8
SEMA2D
100
AcDbLine
370
9
 62
9
  6
_SOLID
 10
4.7672867121
 20
5.3669707905
 30
0
 11
4.6518664152
 21
5.3669707905
 31
0
  0
LINE
  5
2C8
100
AcDbEntity
  8
SEMA2D
100
AcDbLine
370
9
 62
7
  6
_SOLID
 10
4.7896835904
 20
4.9710298995
 30
0
 11
4.7142012294
 21
4.9270428095
 31
0
  0
LINE
  5
2C9
100
AcDbEntity
  8
SEMA2D
100
AcDbLine
370
9
 62
7
  6
_SOLID
 10
4.7901115729
 20
4.9704586103
 30
0
 11
4.7146114912
 21
4.9264611936
 31
0
  0
LINE
  5
2CA
100
AcDbEntity
  8
SEMA2D
100
AcDbLine
370
9
 62
9
  6
_SOLID
 10
4.6495466902
 20
5.3663986852
 30
0
 11
4.6480340053
 21
5.365999473
 31
0
  0
LINE
  5
2CB
100
AcDbEntity
  8
SEMA2D
100
AcDbLine
370
9
 62
9
  6
_SOLID
 10
4.7696520444
 20
5.3693834155
 30
0
 11
4.7712180342
 21
5.3694025207
 31
0
  0
LINE
  5
2CC
100
AcDbEntity
  8
SEMA2D
100
AcDbLine
370
9
 62
9
  6
_SOLID
 10
4.6479330367
 20
5.3690248254
 30
0
 11
4.7712200906
 21
5.3690248254
 31
0
  0
LINE
  5
2CD
100
AcDbEntity
  8
SEMA2D
100
AcDbLine
370
9
 62
9
  6
_SOLID
 10
4.7673030596
 20
5.3698496539
 30
0
 11
4.6518500677
 21
5.3698496539
 31
0
  0
LINE
  5
2CE
100
AcDbEntity
  8
SEMA2D
100
AcDbLine
370
9
 62
9
  6
_SOLID
 10
4.7574242727
 20
5.3757585461
 30
0
 11
4.7409387397
 21
5.3757585461
 31
0
  0
LINE
  5
2CF
100
AcDbEntity
  8
SEMA2D
100
AcDbLine
370
9
 62
9
  6
_SOLID
 10
4.6782143877
 20
5.3757585461
 30
0
 11
4.6617288547
 21
5.3757585461
 31
0
  0
LINE
  5
2D0
100
AcDbEntity
  8
SEMA2D
100
AcDbLine
370
9
 62
9
  6
_SOLID
 10
4.6411716731
 20
5.3773800052
 30
0
 11
4.637503291
 21
5.3773800135
 31
0
  0
LINE
  5
2D1
100
AcDbEntity
  8
SEMA2D
100
AcDbLine
370
9
 62
9
  6
_SOLID
 10
4.7779814542
 20
5.3773800052
 30
0
 11
4.7816498361
 21
5.3773800143
 31
0
  0
LINE
  5
2D2
100
AcDbEntity
  8
SEMA2D
100
AcDbLine
370
9
 62
9
  6
_SOLID
 10
4.7574242727
 20
5.3774467813
 30
0
 11
4.7409387397
 21
5.3774467813
 31
0
  0
LINE
  5
2D3
100
AcDbEntity
  8
SEMA2D
100
AcDbLine
370
9
 62
9
  6
_SOLID
 10
4.6782143877
 20
5.3774467813
 30
0
 11
4.6617288547
 21
5.3774467813
 31
0
  0
LINE
  5
2D4
100
AcDbEntity
  8
SEMA2D
100
AcDbLine
370
9
 62
9
  6
_SOLID
 10
4.6797416163
 20
5.3788050844
 30
0
 11
4.660201626
 21
5.3788050844
 31
0
  0
LINE
  5
2D5
100
AcDbEntity
  8
SEMA2D
100
AcDbLine
370
9
 62
9
  6
_SOLID
 10
4.739411511
 20
5.3788050844
 30
0
 11
4.7589515013
 21
5.3788050844
 31
0
  0
LINE
  5
2D6
100
AcDbEntity
  8
SEMA2D
100
AcDbLine
370
9
 62
9
  6
_SOLID
 10
4.768428501
 20
5.3811197569
 30
0
 11
4.7607590168
 21
5.3811197513
 31
0
  0
LINE
  5
2D7
100
AcDbEntity
  8
SEMA2D
100
AcDbLine
370
9
 62
9
  6
_SOLID
 10
4.6583941105
 20
5.3811197513
 30
0
 11
4.6507246263
 21
5.3811197569
 31
0
  0
LINE
  5
2D8
100
AcDbEntity
  8
SEMA2D
100
AcDbLine
370
9
 62
9
  6
_SOLID
 10
4.7376039955
 20
5.3811197513
 30
0
 11
4.6815491318
 21
5.3811197513
 31
0
  0
LINE
  5
2D9
100
AcDbEntity
  8
SEMA2D
100
AcDbLine
370
9
 62
9
  6
_SOLID
 10
4.6599427816
 20
5.3827694504
 30
0
 11
4.650618404
 21
5.3827695304
 31
0
  0
LINE
  5
2DA
100
AcDbEntity
  8
SEMA2D
100
AcDbLine
370
9
 62
9
  6
_SOLID
 10
4.7592103458
 20
5.3827694504
 30
0
 11
4.7685347234
 21
5.3827695304
 31
0
  0
LINE
  5
2DB
100
AcDbEntity
  8
SEMA2D
100
AcDbLine
370
9
 62
9
  6
_SOLID
 10
4.7391526666
 20
5.3827694504
 30
0
 11
4.6800004608
 21
5.3827694504
 31
0
  0
LINE
  5
2DC
100
AcDbEntity
  8
SEMA2D
100
AcDbLine
370
9
 62
9
  6
_SOLID
 10
4.6477392859
 20
5.3840753152
 30
0
 11
4.6599427816
 21
5.3840753152
 31
0
  0
LINE
  5
2DD
100
AcDbEntity
  8
SEMA2D
100
AcDbLine
370
9
 62
9
  6
_SOLID
 10
4.6800004608
 20
5.3840753152
 30
0
 11
4.7391526666
 21
5.3840753152
 31
0
  0
LINE
  5
2DE
100
AcDbEntity
  8
SEMA2D
100
AcDbLine
370
9
 62
9
  6
_SOLID
 10
4.7592103458
 20
5.3840753152
 30
0
 11
4.7714138415
 21
5.3840753152
 31
0
  0
LINE
  5
2DF
100
AcDbEntity
  8
SEMA2D
100
AcDbLine
370
9
 62
9
  6
_SOLID
 10
4.6495010829
 20
5.3693834151
 30
0
 11
4.6479350933
 21
5.3694025207
 31
0
  0
LINE
  5
2E0
100
AcDbEntity
  8
SEMA2D
100
AcDbLine
370
9
 62
9
  6
_SOLID
 10
4.7696064336
 20
5.3663986892
 30
0
 11
4.7711191221
 21
5.3659994739
 31
0
  0
LINE
  5
2E1
100
AcDbEntity
  8
SEMA2D
100
AcDbLine
370
9
 62
9
  6
_SOLID
 10
4.6477392859
 20
5.3861529309
 30
0
 11
4.6584673887
 21
5.386152931
 31
0
  0
LINE
  5
2E2
100
AcDbEntity
  8
SEMA2D
100
AcDbLine
370
9
 62
9
  6
_SOLID
 10
4.6814758536
 20
5.386152931
 30
0
 11
4.7376772737
 21
5.386152931
 31
0
  0
LINE
  5
2E3
100
AcDbEntity
  8
SEMA2D
100
AcDbLine
370
9
 62
9
  6
_SOLID
 10
4.7606857386
 20
5.386152931
 30
0
 11
4.7714138415
 21
5.386152931
 31
0
  0
LINE
  5
2E4
100
AcDbEntity
  8
SEMA2D
100
AcDbLine
370
9
 62
9
  6
_SOLID
 10
4.647739277
 20
5.3878150232
 30
0
 11
4.6617288547
 21
5.3878150237
 31
0
  0
LINE
  5
2E5
100
AcDbEntity
  8
SEMA2D
100
AcDbLine
370
9
 62
9
  6
_SOLID
 10
4.6782143877
 20
5.3878150237
 30
0
 11
4.7409387397
 21
5.3878150237
 31
0
  0
LINE
  5
2E6
100
AcDbEntity
  8
SEMA2D
100
AcDbLine
370
9
 62
9
  6
_SOLID
 10
4.7574242727
 20
5.3878150237
 30
0
 11
4.7714138496
 21
5.3878150234
 31
0
  0
LINE
  5
2E7
100
AcDbEntity
  8
SEMA2D
100
AcDbLine
370
9
 62
9
  6
_SOLID
 10
4.7893944891
 20
5.3984148085
 30
0
 11
4.6297586384
 21
5.3984148085
 31
0
  0
LINE
  5
2E8
100
AcDbEntity
  8
SEMA2D
100
AcDbLine
370
9
 62
9
  6
_SOLID
 10
4.7893944896
 20
5.4003122047
 30
0
 11
4.6297586378
 21
5.4003122047
 31
0
  0
LINE
  5
2E9
100
AcDbEntity
  8
SEMA2D
100
AcDbLine
370
9
 62
7
  6
_SOLID
 10
4.6247753927
 20
5.4007903962
 30
0
 11
4.7943777347
 21
5.4007903962
 31
0
  0
LINE
  5
2EA
100
AcDbEntity
  8
SEMA2D
100
AcDbLine
370
9
 62
7
  6
_SOLID
 10
4.6240764819
 20
5.4015028962
 30
0
 11
4.7950766454
 21
5.4015028962
 31
0
  0
ARC
  5
2EB
100
AcDbEntity
  8
SEMA2D
100
AcDbCircle
370
9
 62
9
  6
_SOLID
 10
4.3382312081
 20
5.7125725384
 30
0
 40
0.86781161
100
AcDbArc
 50
299.179619686571
 51
301.333937520184
  0
ARC
  5
2EC
100
AcDbEntity
  8
SEMA2D
100
AcDbCircle
370
9
 62
9
  6
_SOLID
 10
4.2811616284
 20
5.6644551739
 30
0
 40
0.8549718422
100
AcDbArc
 50
300.423506498941
 51
301.289092530818
  0
ARC
  5
2ED
100
AcDbEntity
  8
SEMA2D
100
AcDbCircle
370
9
 62
9
  6
_SOLID
 10
4.6092409833
 20
5.3878398123
 30
0
 40
0.1499828841
100
AcDbArc
 50
356.54650356299
 51
357.149848090983
  0
ARC
  5
2EE
100
AcDbEntity
  8
SEMA2D
100
AcDbCircle
370
9
 62
9
  6
_SOLID
 10
4.6242062551
 20
5.3910436893
 30
0
 40
0.0997982534999999
100
AcDbArc
 50
299.974333307163
 51
303.640850724141
  0
ARC
  5
2EF
100
AcDbEntity
  8
SEMA2D
100
AcDbCircle
370
9
 62
9
  6
_SOLID
 10
4.6232758986
 20
5.3922577937
 30
0
 40
0.0997906316000003
100
AcDbArc
 50
305.689981612276
 51
329.86185043296
  0
ARC
  5
2F0
100
AcDbEntity
  8
SEMA2D
100
AcDbCircle
370
9
 62
9
  6
_SOLID
 10
4.6244438277
 20
5.3906727126
 30
0
 40
0.0978188086999996
100
AcDbArc
 50
295.51691733798
 51
297.474321540444
  0
ARC
  5
2F1
100
AcDbEntity
  8
SEMA2D
100
AcDbCircle
370
9
 62
9
  6
_SOLID
 10
4.6233217525
 20
5.3924370149
 30
0
 40
0.0912099112
100
AcDbArc
 50
304.757761346794
 51
326.986617346316
  0
ARC
  5
2F2
100
AcDbEntity
  8
SEMA2D
100
AcDbCircle
370
9
 62
9
  6
_SOLID
 10
4.623553601
 20
5.3922564713
 30
0
 40
0.0892772800000001
100
AcDbArc
 50
304.72196788301
 51
327.021478007317
  0
ARC
  5
2F3
100
AcDbEntity
  8
SEMA2D
100
AcDbCircle
370
9
 62
9
  6
_SOLID
 10
4.6236773304
 20
5.3921996806
 30
0
 40
0.0870927655999996
100
AcDbArc
 50
301.749652456095
 51
327.033389764389
  0
ARC
  5
2F4
100
AcDbEntity
  8
SEMA2D
100
AcDbCircle
370
9
 62
9
  6
_SOLID
 10
4.6887937864
 20
5.3871679077
 30
0
 40
0.0722100762000002
100
AcDbArc
 50
353.08588188128
 51
354.344738569051
  0
ARC
  5
2F5
100
AcDbEntity
  8
SEMA2D
100
AcDbCircle
370
9
 62
9
  6
_SOLID
 10
4.6095839014
 20
5.3871679077
 30
0
 40
0.0722100762000002
100
AcDbArc
 50
353.08588188128
 51
354.344738569051
  0
ARC
  5
2F6
100
AcDbEntity
  8
SEMA2D
100
AcDbCircle
370
9
 62
9
  6
_SOLID
 10
4.6842096583
 20
5.3481161563
 30
0
 40
0.0362766226
100
AcDbArc
 50
179.389759419248
 51
179.986307930035
  0
ARC
  5
2F7
100
AcDbEntity
  8
SEMA2D
100
AcDbCircle
370
9
 62
9
  6
_SOLID
 10
4.684209608
 20
5.3690161568
 30
0
 40
0.0362765723000003
100
AcDbArc
 50
179.389759281685
 51
179.986308611856
  0
ARC
  5
2F8
100
AcDbEntity
  8
SEMA2D
100
AcDbCircle
370
9
 62
9
  6
_SOLID
 10
4.6608124224
 20
5.3827678912
 30
0
 40
0.0208021042000004
100
AcDbArc
 50
355.455722300726
 51
0.00440434376463122
  0
ARC
  5
2F9
100
AcDbEntity
  8
SEMA2D
100
AcDbCircle
370
9
 62
9
  6
_SOLID
 10
4.6789909917
 20
5.3827623486
 30
0
 40
0.0206622770999996
100
AcDbArc
 50
179.980196400967
 51
184.55967695185
  0
ARC
  5
2FA
100
AcDbEntity
  8
SEMA2D
100
AcDbCircle
370
9
 62
9
  6
_SOLID
 10
4.6314301946
 20
5.3481323702
 30
0
 40
0.0204362219999998
100
AcDbArc
 50
-0.0211537970840346
 51
2.2919793751086
  0
ARC
  5
2FB
100
AcDbEntity
  8
SEMA2D
100
AcDbCircle
370
9
 62
9
  6
_SOLID
 10
4.6314393459
 20
5.3690325515
 30
0
 40
0.0204270707999998
100
AcDbArc
 50
-0.0216720087966888
 51
2.29249756018079
  0
ARC
  5
2FC
100
AcDbEntity
  8
SEMA2D
100
AcDbCircle
370
9
 62
9
  6
_SOLID
 10
4.6693363813
 20
5.3757857659
 30
0
 40
0.0199783891000003
100
AcDbArc
 50
159.539617161618
 51
164.755966186874
  0
ARC
  5
2FD
100
AcDbEntity
  8
SEMA2D
100
AcDbCircle
370
9
 62
9
  6
_SOLID
 10
4.6522750748
 20
5.3656702907
 30
0
 40
0.0155270825000002
100
AcDbArc
 50
95.7308023756879
 51
98.1982133434145
  0
ARC
  5
2FE
100
AcDbEntity
  8
SEMA2D
100
AcDbCircle
370
9
 62
9
  6
_SOLID
 10
4.699560282
 20
5.3481290806
 30
0
 40
0.0137410768999997
100
AcDbArc
 50
176.576342798548
 51
180.017843487391
  0
ARC
  5
2FF
100
AcDbEntity
  8
SEMA2D
100
AcDbCircle
370
9
 62
9
  6
_SOLID
 10
4.6666715535
 20
5.3827683921
 30
0
 40
0.0133289071
100
AcDbArc
 50
354.322273100509
 51
0.00454902133947394
  0
ARC
  5
300
100
AcDbEntity
  8
SEMA2D
100
AcDbCircle
370
9
 62
9
  6
_SOLID
 10
4.6732026343
 20
5.3827649706
 30
0
 40
0.0132598533000001
100
AcDbArc
 50
179.980642855436
 51
185.692535058754
  0
ARC
  5
301
100
AcDbEntity
  8
SEMA2D
100
AcDbCircle
370
9
 62
9
  6
_SOLID
 10
4.6634630381
 20
5.3827685588
 30
0
 40
0.0128446739000001
100
AcDbArc
 50
179.995666089937
 51
187.375100349878
  0
ARC
  5
302
100
AcDbEntity
  8
SEMA2D
100
AcDbCircle
370
9
 62
9
  6
_SOLID
 10
4.6368148596
 20
5.3690163968
 30
0
 40
0.0126915311000002
100
AcDbArc
 50
0.0380494195053784
 51
1.65713199335684
  0
ARC
  5
303
100
AcDbEntity
  8
SEMA2D
100
AcDbCircle
370
9
 62
9
  6
_SOLID
 10
4.636814956
 20
5.3481163978
 30
0
 40
0.0126914346999998
100
AcDbArc
 50
0.0380449332465806
 51
1.65713982331606
  0
ARC
  5
304
100
AcDbEntity
  8
SEMA2D
100
AcDbCircle
370
9
 62
9
  6
_SOLID
 10
4.6909449381
 20
5.3484937946
 30
0
 40
0.0105631388000003
100
AcDbArc
 50
327.012773671032
 51
0.0662113326662127
  0
ARC
  5
305
100
AcDbEntity
  8
SEMA2D
100
AcDbCircle
370
9
 62
9
  6
_SOLID
 10
4.6909998181
 20
5.3484949208
 30
0
 40
0.00887786660000023
100
AcDbArc
 50
327.007411806384
 51
0.0715664120902189
  0
ARC
  5
306
100
AcDbEntity
  8
SEMA2D
100
AcDbCircle
370
9
 62
9
  6
_SOLID
 10
4.6697205155
 20
5.3044539698
 30
0
 40
0.00608513759999996
100
AcDbArc
 50
288.031527062085
 51
291.865044604846
  0
ARC
  5
307
100
AcDbEntity
  8
SEMA2D
100
AcDbCircle
370
9
 62
9
  6
_SOLID
 10
4.6924177818
 20
5.3481259086
 30
0
 40
0.00498451049999993
100
AcDbArc
 50
174.314127775918
 51
180.012729357603
  0
ARC
  5
308
100
AcDbEntity
  8
SEMA2D
100
AcDbCircle
370
9
 62
9
  6
_SOLID
 10
4.6512366938
 20
5.3668099853
 30
0
 40
0.00330365599999993
100
AcDbArc
 50
179.993184420637
 51
194.20180854112
  0
ARC
  5
309
100
AcDbEntity
  8
SEMA2D
100
AcDbCircle
370
9
 62
9
  6
_SOLID
 10
4.6702446109
 20
5.3036906615
 30
0
 40
0.00153283249999969
100
AcDbArc
 50
287.307026903953
 51
291.551237343046
  0
ARC
  5
30A
100
AcDbEntity
  8
SEMA2D
100
AcDbCircle
370
9
 62
9
  6
_SOLID
 10
4.6427919422
 20
5.5124495119
 30
0
 40
0.1961374427
100
AcDbArc
 50
277.828147499278
 51
279.26117662249
  0
ARC
  5
30B
100
AcDbEntity
  8
SEMA2D
100
AcDbCircle
370
9
 62
9
  6
_SOLID
 10
4.8891218353
 20
5.3878398014
 30
0
 40
0.14998269
100
AcDbArc
 50
182.850151426903
 51
183.453496741162
  0
ARC
  5
30C
100
AcDbEntity
  8
SEMA2D
100
AcDbCircle
370
9
 62
9
  6
_SOLID
 10
4.8099119503
 20
5.3878398014
 30
0
 40
0.14998269
100
AcDbArc
 50
182.850151426903
 51
183.453496741162
  0
ARC
  5
30D
100
AcDbEntity
  8
SEMA2D
100
AcDbCircle
370
9
 62
9
  6
_SOLID
 10
4.7367003667
 20
5.3922439455
 30
0
 40
0.1231887924
100
AcDbArc
 50
209.759964768167
 51
214.82962653017
  0
ARC
  5
30E
100
AcDbEntity
  8
SEMA2D
100
AcDbCircle
370
9
 62
9
  6
_SOLID
 10
4.710548324
 20
5.3882718966
 30
0
 40
0.1009890653
100
AcDbArc
 50
229.468276438905
 51
234.416687498704
  0
ARC
  5
30F
100
AcDbEntity
  8
SEMA2D
100
AcDbCircle
370
9
 62
9
  6
_SOLID
 10
4.7086249805
 20
5.3882461243
 30
0
 40
0.1009563647
100
AcDbArc
 50
305.582510556971
 51
310.532525440816
  0
ARC
  5
310
100
AcDbEntity
  8
SEMA2D
100
AcDbCircle
370
9
 62
9
  6
_SOLID
 10
4.7949468723
 20
5.3910436893
 30
0
 40
0.0997982534999999
100
AcDbArc
 50
236.359149242487
 51
240.02566676747
  0
ARC
  5
311
100
AcDbEntity
  8
SEMA2D
100
AcDbCircle
370
9
 62
9
  6
_SOLID
 10
4.7958772288
 20
5.3922577937
 30
0
 40
0.0997906316000003
100
AcDbArc
 50
210.138149567041
 51
234.310018387724
  0
ARC
  5
312
100
AcDbEntity
  8
SEMA2D
100
AcDbCircle
370
9
 62
9
  6
_SOLID
 10
4.7106917565
 20
5.3885507747
 30
0
 40
0.0992527175999998
100
AcDbArc
 50
215.370622424809
 51
239.979876343107
  0
ARC
  5
313
100
AcDbEntity
  8
SEMA2D
100
AcDbCircle
370
9
 62
9
  6
_SOLID
 10
4.7084613717
 20
5.3885507739
 30
0
 40
0.0992527164000001
100
AcDbArc
 50
300.020098661732
 51
324.629378239894
  0
ARC
  5
314
100
AcDbEntity
  8
SEMA2D
100
AcDbCircle
370
9
 62
9
  6
_SOLID
 10
4.7947092996
 20
5.3906727126
 30
0
 40
0.0978188086999996
100
AcDbArc
 50
242.525678459556
 51
244.48308266202
  0
ARC
  5
315
100
AcDbEntity
  8
SEMA2D
100
AcDbCircle
370
9
 62
9
  6
_SOLID
 10
4.7958313748
 20
5.3924370149
 30
0
 40
0.0912099111
100
AcDbArc
 50
213.013383043042
 51
235.242238656473
  0
ARC
  5
316
100
AcDbEntity
  8
SEMA2D
100
AcDbCircle
370
9
 62
9
  6
_SOLID
 10
4.7955995263
 20
5.3922564713
 30
0
 40
0.0892772800000001
100
AcDbArc
 50
212.978521987877
 51
235.27803211699
  0
ARC
  5
317
100
AcDbEntity
  8
SEMA2D
100
AcDbCircle
370
9
 62
9
  6
_SOLID
 10
4.7954757969
 20
5.3921996806
 30
0
 40
0.0870927655999996
100
AcDbArc
 50
212.966610235611
 51
238.250347543905
  0
ARC
  5
318
100
AcDbEntity
  8
SEMA2D
100
AcDbCircle
370
9
 62
9
  6
_SOLID
 10
4.8095691312
 20
5.3871678973
 30
0
 40
0.0722099809000003
100
AcDbArc
 50
185.655260602001
 51
186.914118950195
  0
ARC
  5
319
100
AcDbEntity
  8
SEMA2D
100
AcDbCircle
370
9
 62
9
  6
_SOLID
 10
4.7303592462
 20
5.3871678973
 30
0
 40
0.0722099809000003
100
AcDbArc
 50
185.655260602001
 51
186.914118950195
  0
ARC
  5
31A
100
AcDbEntity
  8
SEMA2D
100
AcDbCircle
370
9
 62
9
  6
_SOLID
 10
4.7349435194
 20
5.3481161568
 30
0
 40
0.0362765722000002
100
AcDbArc
 50
0.0136913824152964
 51
0.610240741232496
  0
ARC
  5
31B
100
AcDbEntity
  8
SEMA2D
100
AcDbCircle
370
9
 62
9
  6
_SOLID
 10
4.7349435272
 20
5.3690161568
 30
0
 40
0.0362765643999996
100
AcDbArc
 50
0.0136913251185778
 51
0.610240798525309
  0
ARC
  5
31C
100
AcDbEntity
  8
SEMA2D
100
AcDbCircle
370
9
 62
9
  6
_SOLID
 10
4.7400223069
 20
5.3827678912
 30
0
 40
0.0208021047000004
100
AcDbArc
 50
355.455722324025
 51
0.00440434949327243
  0
ARC
  5
31D
100
AcDbEntity
  8
SEMA2D
100
AcDbCircle
370
9
 62
9
  6
_SOLID
 10
4.7582008764
 20
5.3827623486
 30
0
 40
0.0206622768
100
AcDbArc
 50
179.980196423884
 51
184.55967695185
  0
ARC
  5
31E
100
AcDbEntity
  8
SEMA2D
100
AcDbCircle
370
9
 62
9
  6
_SOLID
 10
4.7498165879
 20
5.375785715
 30
0
 40
0.0199785550999998
100
AcDbArc
 50
15.2440555836782
 51
20.4603613437218
  0
ARC
  5
31F
100
AcDbEntity
  8
SEMA2D
100
AcDbCircle
370
9
 62
9
  6
_SOLID
 10
4.7668516972
 20
5.3654545391
 30
0
 40
0.0157443880999999
100
AcDbArc
 50
81.8188169530543
 51
84.252167319524
  0
ARC
  5
320
100
AcDbEntity
  8
SEMA2D
100
AcDbCircle
370
9
 62
9
  6
_SOLID
 10
4.7194730597
 20
5.3481255233
 30
0
 40
0.0138608618
100
AcDbArc
 50
-0.00295775137912594
 51
3.40874199399491
  0
ARC
  5
321
100
AcDbEntity
  8
SEMA2D
100
AcDbCircle
370
9
 62
9
  6
_SOLID
 10
4.7458814389
 20
5.3827683921
 30
0
 40
0.0133289068
100
AcDbArc
 50
354.322273025821
 51
0.0045491072804513
  0
ARC
  5
322
100
AcDbEntity
  8
SEMA2D
100
AcDbCircle
370
9
 62
9
  6
_SOLID
 10
4.7524125194
 20
5.3827649706
 30
0
 40
0.0132598535000001
100
AcDbArc
 50
179.980642895541
 51
185.69253502455
  0
ARC
  5
323
100
AcDbEntity
  8
SEMA2D
100
AcDbCircle
370
9
 62
9
  6
_SOLID
 10
4.755734696
 20
5.3827656857
 30
0
 40
0.0128000675999997
100
AcDbArc
 50
352.612023516449
 51
0.0172096642601948
  0
ARC
  5
324
100
AcDbEntity
  8
SEMA2D
100
AcDbCircle
370
9
 62
9
  6
_SOLID
 10
4.7823382692
 20
5.3690163967
 30
0
 40
0.0126915325999999
100
AcDbArc
 50
178.342868063913
 51
179.961950488824
  0
ARC
  5
325
100
AcDbEntity
  8
SEMA2D
100
AcDbCircle
370
9
 62
9
  6
_SOLID
 10
4.7823382681
 20
5.3481163968
 30
0
 40
0.0126915314999998
100
AcDbArc
 50
178.342867972277
 51
179.96195056331
  0
ARC
  5
326
100
AcDbEntity
  8
SEMA2D
100
AcDbCircle
370
9
 62
9
  6
_SOLID
 10
4.7282081899
 20
5.3484937927
 30
0
 40
0.0105631388000003
100
AcDbArc
 50
179.933783676866
 51
212.987219091604
  0
ARC
  5
327
100
AcDbEntity
  8
SEMA2D
100
AcDbCircle
370
9
 62
9
  6
_SOLID
 10
4.7281533102
 20
5.3484949195
 30
0
 40
0.00887786720000028
100
AcDbArc
 50
179.928425320123
 51
212.992577580779
  0
ARC
  5
328
100
AcDbEntity
  8
SEMA2D
100
AcDbCircle
370
9
 62
9
  6
_SOLID
 10
4.7494328044
 20
5.3044545005
 30
0
 40
0.00608570190000002
100
AcDbArc
 50
248.135133852589
 51
251.968295203544
  0
ARC
  5
329
100
AcDbEntity
  8
SEMA2D
100
AcDbCircle
370
9
 62
9
  6
_SOLID
 10
4.7267354699
 20
5.3481259126
 30
0
 40
0.0049843862000003
100
AcDbArc
 50
-0.0127006008508727
 51
5.68590143959407
  0
ARC
  5
32A
100
AcDbEntity
  8
SEMA2D
100
AcDbCircle
370
9
 62
9
  6
_SOLID
 10
4.7679164337
 20
5.3668099853
 30
0
 40
0.00330365579999992
100
AcDbArc
 50
345.79820687825
 51
0.00681602627075613
  0
ARC
  5
32B
100
AcDbEntity
  8
SEMA2D
100
AcDbCircle
370
9
 62
9
  6
_SOLID
 10
4.7674474957
 20
5.3671669054
 30
0
 40
0.00229139900000019
100
AcDbArc
 50
316.1245238637
 51
340.412775754304
  0
ARC
  5
32C
100
AcDbEntity
  8
SEMA2D
100
AcDbCircle
370
9
 62
9
  6
_SOLID
 10
4.7489085123
 20
5.3036906513
 30
0
 40
0.00153282159999968
100
AcDbArc
 50
248.448763045292
 51
252.692986394067
  0
ARC
  5
32D
100
AcDbEntity
  8
SEMA2D
100
AcDbCircle
370
9
 62
9
  6
_SOLID
 10
4.7759462453
 20
5.5096878129
 30
0
 40
0.1933449673
100
AcDbArc
 50
260.728474253428
 51
262.182201673467
  0
ARC
  5
32E
100
AcDbEntity
  8
SEMA2D
100
AcDbCircle
370
9
 62
9
  6
_SOLID
 10
5.1133286101
 20
5.6950131555
 30
0
 40
0.868956875000001
100
AcDbArc
 50
238.717513586723
 51
240.81978877694
  0
ARC
  5
32F
100
AcDbEntity
  8
SEMA2D
100
AcDbCircle
370
9
 62
9
  6
_SOLID
 10
5.0809219167
 20
5.712572534
 30
0
 40
0.8678116049
100
AcDbArc
 50
238.666062570253
 51
240.820380318431
  0
ARC
  5
330
100
AcDbEntity
  8
SEMA2D
100
AcDbCircle
370
9
 62
9
  6
_SOLID
 10
5.1234665938
 20
5.6401437635
 30
0
 40
0.826652763400001
100
AcDbArc
 50
238.696080702975
 51
239.59132059531
  0
LINE
  5
331
100
AcDbEntity
  8
SEMA2D
100
AcDbLine
370
9
 62
9
  6
_SOLID
 10
4.7393246702
 20
5.3845241337
 30
0
 11
4.7409387303
 21
5.3878150283
 31
0
  0
LINE
  5
332
100
AcDbEntity
  8
SEMA2D
100
AcDbLine
370
9
 62
9
  6
_SOLID
 10
4.757424282
 20
5.3878150283
 30
0
 11
4.7590383419
 21
5.3845241341
 31
0
  0
LINE
  5
333
100
AcDbEntity
  8
SEMA2D
100
AcDbLine
370
9
 62
9
  6
_SOLID
 10
4.6601147852
 20
5.3845241337
 30
0
 11
4.6617288453
 21
5.3878150283
 31
0
  0
LINE
  5
334
100
AcDbEntity
  8
SEMA2D
100
AcDbLine
370
9
 62
9
  6
_SOLID
 10
4.678214397
 20
5.3878150283
 30
0
 11
4.6798284569
 21
5.3845241341
 31
0
  0
LINE
  5
335
100
AcDbEntity
  8
SEMA2D
100
AcDbLine
370
9
 62
7
  6
_SOLID
 10
5.1893414443
 20
5.5063793918
 30
0
 11
5.1894930697
 21
5.503486207
 31
0
  0
LINE
  5
336
100
AcDbEntity
  8
SEMA2D
100
AcDbLine
370
9
 62
9
  6
_SOLID
 10
5.1951469319
 20
5.503486207
 30
0
 11
5.1950965395
 21
5.5063793918
 31
0
  0
LINE
  5
337
100
AcDbEntity
  8
SEMA2D
100
AcDbLine
370
9
 62
7
  6
_SOLID
 10
5.1879436228
 20
5.5063793918
 30
0
 11
5.1879436228
 21
5.5091750348
 31
0
  0
LINE
  5
338
100
AcDbEntity
  8
SEMA2D
100
AcDbLine
370
9
 62
9
  6
_SOLID
 10
5.1946319767
 20
5.5063793918
 30
0
 11
5.1946319767
 21
5.5091750348
 31
0
  0
LINE
  5
339
100
AcDbEntity
  8
SEMA2D
100
AcDbLine
370
9
 62
9
  6
_SOLID
 10
5.1948642581
 20
5.5091750348
 30
0
 11
5.1949723171
 21
5.5153774
 31
0
  0
LINE
  5
33A
100
AcDbEntity
  8
SEMA2D
100
AcDbLine
370
9
 62
7
  6
_SOLID
 10
5.1889727592
 20
5.5154761157
 30
0
 11
5.1886425335
 21
5.5091750348
 31
0
  0
LINE
  5
33B
100
AcDbEntity
  8
SEMA2D
100
AcDbLine
370
9
 62
9
  6
_SOLID
 10
5.2318367517
 20
5.5017199868
 30
0
 11
5.2318367517
 21
5.5008076238
 31
0
  0
LINE
  5
33C
100
AcDbEntity
  8
SEMA2D
100
AcDbLine
370
9
 62
9
  6
_SOLID
 10
5.236423242
 20
5.4821504858
 30
0
 11
5.236423242
 21
5.4836906092
 31
0
  0
LINE
  5
33D
100
AcDbEntity
  8
SEMA2D
100
AcDbLine
370
9
 62
7
  6
_SOLID
 10
5.2293074559
 20
5.4999310074
 30
0
 11
5.2337015913
 21
5.4835318707
 31
0
  0
LINE
  5
33E
100
AcDbEntity
  8
SEMA2D
100
AcDbLine
370
9
 62
9
  6
_SOLID
 10
5.2318367753
 20
5.5008076236
 30
0
 11
5.236423242
 21
5.4836906089
 31
0
  0
LINE
  5
33F
100
AcDbEntity
  8
SEMA2D
100
AcDbLine
370
9
 62
9
  6
_SOLID
 10
5.2418453637
 20
5.4821504858
 30
0
 11
5.2418453637
 21
5.4836906089
 31
0
  0
LINE
  5
340
100
AcDbEntity
  8
SEMA2D
100
AcDbLine
370
9
 62
9
  6
_SOLID
 10
5.2464318539
 20
5.5017199868
 30
0
 11
5.2464318539
 21
5.5008076236
 31
0
  0
LINE
  5
341
100
AcDbEntity
  8
SEMA2D
100
AcDbLine
370
9
 62
9
  6
_SOLID
 10
5.2418453371
 20
5.4836906089
 30
0
 11
5.246431826
 21
5.5008076236
 31
0
  0
LINE
  5
342
100
AcDbEntity
  8
SEMA2D
100
AcDbLine
370
9
 62
9
  6
_SOLID
 10
5.246978864
 20
5.4835974342
 30
0
 11
5.2516277709
 21
5.5009473856
 31
0
  0
LINE
  5
343
100
AcDbEntity
  8
SEMA2D
100
AcDbLine
370
9
 62
9
  6
_SOLID
 10
5.2556007837
 20
5.5009473856
 30
0
 11
5.2509518886
 21
5.4835974342
 31
0
  0
LINE
  5
344
100
AcDbEntity
  8
SEMA2D
100
AcDbLine
370
9
 62
7
  6
_SOLID
 10
5.2573988637
 20
5.4996519805
 30
0
 11
5.2530794933
 21
5.4835318707
 31
0
  0
LINE
  5
345
100
AcDbEntity
  8
SEMA2D
100
AcDbLine
370
9
 62
7
  6
_SOLID
 10
5.3966526734
 20
5.4821504858
 30
0
 11
5.3808752832
 21
5.4821504858
 31
0
  0
LINE
  5
346
100
AcDbEntity
  8
SEMA2D
100
AcDbLine
370
9
 62
7
  6
_SOLID
 10
5.2512792374
 20
5.4821504858
 30
0
 11
5.2355018472
 21
5.4821504858
 31
0
  0
LINE
  5
347
100
AcDbEntity
  8
SEMA2D
100
AcDbLine
370
9
 62
9
  6
_SOLID
 10
5.3851756566
 20
5.4835974342
 30
0
 11
5.381202632
 21
5.4835974342
 31
0
  0
LINE
  5
348
100
AcDbEntity
  8
SEMA2D
100
AcDbLine
370
9
 62
9
  6
_SOLID
 10
5.2509518886
 20
5.4835974342
 30
0
 11
5.246978864
 21
5.4835974342
 31
0
  0
LINE
  5
349
100
AcDbEntity
  8
SEMA2D
100
AcDbLine
370
9
 62
9
  6
_SOLID
 10
5.3957312786
 20
5.4836906089
 30
0
 11
5.3903091835
 21
5.4836906089
 31
0
  0
LINE
  5
34A
100
AcDbEntity
  8
SEMA2D
100
AcDbLine
370
9
 62
9
  6
_SOLID
 10
5.2418453371
 20
5.4836906089
 30
0
 11
5.236423242
 21
5.4836906089
 31
0
  0
LINE
  5
34B
100
AcDbEntity
  8
SEMA2D
100
AcDbLine
370
9
 62
9
  6
_SOLID
 10
5.3132628486
 20
5.503486207
 30
0
 11
5.3132124563
 21
5.5063793918
 31
0
  0
LINE
  5
34C
100
AcDbEntity
  8
SEMA2D
100
AcDbLine
370
9
 62
9
  6
_SOLID
 10
5.3127478935
 20
5.5063793918
 30
0
 11
5.3127478935
 21
5.5091750348
 31
0
  0
LINE
  5
34D
100
AcDbEntity
  8
SEMA2D
100
AcDbLine
370
9
 62
9
  6
_SOLID
 10
5.3129801749
 20
5.5091750348
 30
0
 11
5.3130409972
 21
5.5126695529
 31
0
  0
LINE
  5
34E
100
AcDbEntity
  8
SEMA2D
100
AcDbLine
370
9
 62
9
  6
_SOLID
 10
5.4003177453
 20
5.5008076236
 30
0
 11
5.3857226946
 21
5.5008076236
 31
0
  0
LINE
  5
34F
100
AcDbEntity
  8
SEMA2D
100
AcDbLine
370
9
 62
9
  6
_SOLID
 10
5.246431826
 20
5.5008076236
 30
0
 11
5.2318367753
 21
5.5008076236
 31
0
  0
LINE
  5
350
100
AcDbEntity
  8
SEMA2D
100
AcDbLine
370
9
 62
9
  6
_SOLID
 10
5.3805267498
 20
5.5009473856
 30
0
 11
5.3765537368
 21
5.5009473856
 31
0
  0
LINE
  5
351
100
AcDbEntity
  8
SEMA2D
100
AcDbLine
370
9
 62
9
  6
_SOLID
 10
5.2556007837
 20
5.5009473856
 30
0
 11
5.2516277709
 21
5.5009473856
 31
0
  0
LINE
  5
352
100
AcDbEntity
  8
SEMA2D
100
AcDbLine
370
9
 62
7
  6
_SOLID
 10
5.4408002431
 20
5.5017199868
 30
0
 11
5.1913542775
 21
5.5017199868
 31
0
  0
LINE
  5
353
100
AcDbEntity
  8
SEMA2D
100
AcDbLine
370
9
 62
7
  6
_SOLID
 10
5.2210325498
 20
5.5017199868
 30
0
 11
5.2396503194
 21
5.5017199868
 31
0
  0
LINE
  5
354
100
AcDbEntity
  8
SEMA2D
100
AcDbLine
370
9
 62
7
  6
_SOLID
 10
5.2512755826
 20
5.5017199868
 30
0
 11
5.259734408
 21
5.5017199868
 31
0
  0
LINE
  5
355
100
AcDbEntity
  8
SEMA2D
100
AcDbLine
370
9
 62
7
  6
_SOLID
 10
5.265409688
 20
5.5017199868
 30
0
 11
5.2855552617
 21
5.5017199868
 31
0
  0
LINE
  5
356
100
AcDbEntity
  8
SEMA2D
100
AcDbLine
370
9
 62
7
  6
_SOLID
 10
5.3465991629
 20
5.5017199868
 30
0
 11
5.3667448314
 21
5.5017199868
 31
0
  0
LINE
  5
357
100
AcDbEntity
  8
SEMA2D
100
AcDbLine
370
9
 62
7
  6
_SOLID
 10
5.3724201127
 20
5.5017199868
 30
0
 11
5.380878938
 21
5.5017199868
 31
0
  0
LINE
  5
358
100
AcDbEntity
  8
SEMA2D
100
AcDbLine
370
9
 62
7
  6
_SOLID
 10
5.3925041666
 20
5.5017199868
 30
0
 11
5.4111219708
 21
5.5017199868
 31
0
  0
LINE
  5
359
100
AcDbEntity
  8
SEMA2D
100
AcDbLine
370
9
 62
9
  6
_SOLID
 10
5.3191743457
 20
5.5091750348
 30
0
 11
5.3191135295
 21
5.5126695534
 31
0
  0
LINE
  5
35A
100
AcDbEntity
  8
SEMA2D
100
AcDbLine
370
9
 62
9
  6
_SOLID
 10
5.3194066271
 20
5.5063793918
 30
0
 11
5.3194066271
 21
5.5091750348
 31
0
  0
LINE
  5
35B
100
AcDbEntity
  8
SEMA2D
100
AcDbLine
370
9
 62
9
  6
_SOLID
 10
5.3188916719
 20
5.503486207
 30
0
 11
5.3189420643
 21
5.5063793918
 31
0
  0
LINE
  5
35C
100
AcDbEntity
  8
SEMA2D
100
AcDbLine
370
9
 62
9
  6
_SOLID
 10
5.4426614509
 20
5.503486207
 30
0
 11
5.1894930697
 21
5.503486207
 31
0
  0
LINE
  5
35D
100
AcDbEntity
  8
SEMA2D
100
AcDbLine
370
9
 62
7
  6
_SOLID
 10
5.4442108978
 20
5.5063793918
 30
0
 11
5.1879436228
 21
5.5063793918
 31
0
  0
LINE
  5
35E
100
AcDbEntity
  8
SEMA2D
100
AcDbLine
370
9
 62
7
  6
_SOLID
 10
5.4442108978
 20
5.5091750348
 30
0
 11
5.1879436228
 21
5.5091750348
 31
0
  0
LINE
  5
35F
100
AcDbEntity
  8
SEMA2D
100
AcDbLine
370
9
 62
7
  6
_SOLID
 10
5.3906277196
 20
5.5198916663
 30
0
 11
5.3842894198
 21
5.5198916663
 31
0
  0
LINE
  5
360
100
AcDbEntity
  8
SEMA2D
100
AcDbLine
370
9
 62
7
  6
_SOLID
 10
5.3841714793
 20
5.5198916663
 30
0
 11
5.383080654
 21
5.5198916663
 31
0
  0
LINE
  5
361
100
AcDbEntity
  8
SEMA2D
100
AcDbLine
370
9
 62
7
  6
_SOLID
 10
5.3829384455
 20
5.5198916663
 30
0
 11
5.3794470818
 21
5.5198916663
 31
0
  0
LINE
  5
362
100
AcDbEntity
  8
SEMA2D
100
AcDbLine
370
9
 62
7
  6
_SOLID
 10
5.2415267596
 20
5.5198916663
 30
0
 11
5.2469414076
 21
5.5198916663
 31
0
  0
LINE
  5
363
100
AcDbEntity
  8
SEMA2D
100
AcDbLine
370
9
 62
7
  6
_SOLID
 10
5.2470455661
 20
5.5198916663
 30
0
 11
5.2490820996
 21
5.5198916663
 31
0
  0
LINE
  5
364
100
AcDbEntity
  8
SEMA2D
100
AcDbLine
370
9
 62
7
  6
_SOLID
 10
5.2492219129
 20
5.5198916663
 30
0
 11
5.2527074387
 21
5.5198916663
 31
0
  0
LINE
  5
365
100
AcDbEntity
  8
SEMA2D
100
AcDbLine
370
9
 62
7
  6
_SOLID
 10
5.1936257787
 20
5.5198916663
 30
0
 11
5.4385287419
 21
5.5198916663
 31
0
  0
LINE
  5
366
100
AcDbEntity
  8
SEMA2D
100
AcDbLine
370
9
 62
7
  6
_SOLID
 10
5.3747556569
 20
5.4996519805
 30
0
 11
5.3790750273
 21
5.4835318707
 31
0
  0
LINE
  5
367
100
AcDbEntity
  8
SEMA2D
100
AcDbLine
370
9
 62
9
  6
_SOLID
 10
5.381202632
 20
5.4835974342
 30
0
 11
5.3765537368
 21
5.5009473856
 31
0
  0
LINE
  5
368
100
AcDbEntity
  8
SEMA2D
100
AcDbLine
370
9
 62
9
  6
_SOLID
 10
5.3857226666
 20
5.5017199868
 30
0
 11
5.3857226666
 21
5.5008076236
 31
0
  0
LINE
  5
369
100
AcDbEntity
  8
SEMA2D
100
AcDbLine
370
9
 62
9
  6
_SOLID
 10
5.3805267498
 20
5.5009473856
 30
0
 11
5.3851756566
 21
5.4835974342
 31
0
  0
LINE
  5
36A
100
AcDbEntity
  8
SEMA2D
100
AcDbLine
370
9
 62
9
  6
_SOLID
 10
5.3857226946
 20
5.5008076236
 30
0
 11
5.3903091835
 21
5.4836906089
 31
0
  0
LINE
  5
36B
100
AcDbEntity
  8
SEMA2D
100
AcDbLine
370
9
 62
9
  6
_SOLID
 10
5.3903091569
 20
5.4821504858
 30
0
 11
5.3903091569
 21
5.4836906089
 31
0
  0
LINE
  5
36C
100
AcDbEntity
  8
SEMA2D
100
AcDbLine
370
9
 62
9
  6
_SOLID
 10
5.3957312786
 20
5.4821504858
 30
0
 11
5.3957312786
 21
5.4836906089
 31
0
  0
LINE
  5
36D
100
AcDbEntity
  8
SEMA2D
100
AcDbLine
370
9
 62
9
  6
_SOLID
 10
5.4003177689
 20
5.5017199868
 30
0
 11
5.4003177689
 21
5.5008076236
 31
0
  0
LINE
  5
36E
100
AcDbEntity
  8
SEMA2D
100
AcDbLine
370
9
 62
9
  6
_SOLID
 10
5.3957312786
 20
5.4836906089
 30
0
 11
5.4003177453
 21
5.5008076236
 31
0
  0
LINE
  5
36F
100
AcDbEntity
  8
SEMA2D
100
AcDbLine
370
9
 62
7
  6
_SOLID
 10
5.3984529293
 20
5.4835318707
 30
0
 11
5.4028470647
 21
5.4999310072
 31
0
  0
LINE
  5
370
100
AcDbEntity
  8
SEMA2D
100
AcDbLine
370
9
 62
7
  6
_SOLID
 10
5.443511987
 20
5.5091750348
 30
0
 11
5.4431817614
 21
5.5154761157
 31
0
  0
LINE
  5
371
100
AcDbEntity
  8
SEMA2D
100
AcDbLine
370
9
 62
9
  6
_SOLID
 10
5.4372902625
 20
5.5091750348
 30
0
 11
5.4371822072
 21
5.5153774012
 31
0
  0
LINE
  5
372
100
AcDbEntity
  8
SEMA2D
100
AcDbLine
370
9
 62
9
  6
_SOLID
 10
5.4375225439
 20
5.5063793918
 30
0
 11
5.4375225439
 21
5.5091750348
 31
0
  0
LINE
  5
373
100
AcDbEntity
  8
SEMA2D
100
AcDbLine
370
9
 62
7
  6
_SOLID
 10
5.4442108978
 20
5.5063793918
 30
0
 11
5.4442108978
 21
5.5091750348
 31
0
  0
LINE
  5
374
100
AcDbEntity
  8
SEMA2D
100
AcDbLine
370
9
 62
9
  6
_SOLID
 10
5.4370075887
 20
5.503486207
 30
0
 11
5.4370579811
 21
5.5063793918
 31
0
  0
LINE
  5
375
100
AcDbEntity
  8
SEMA2D
100
AcDbLine
370
9
 62
7
  6
_SOLID
 10
5.4428130763
 20
5.5063793918
 30
0
 11
5.4426614509
 21
5.503486207
 31
0
  0
ARC
  5
376
100
AcDbEntity
  8
SEMA2D
100
AcDbCircle
370
9
 62
9
  6
_SOLID
 10
5.2100512313
 20
5.5554100082
 30
0
 40
0.0427783048999992
100
AcDbArc
 50
249.36032459079
 51
291.165929727371
  0
ARC
  5
377
100
AcDbEntity
  8
SEMA2D
100
AcDbCircle
370
9
 62
7
  6
_SOLID
 10
5.2112883663
 20
5.5552149104
 30
0
 40
0.0390507680999996
100
AcDbArc
 50
246.166229797343
 51
291.165910182384
  0
ARC
  5
378
100
AcDbEntity
  8
SEMA2D
100
AcDbCircle
370
9
 62
7
  6
_SOLID
 10
5.1936257787
 20
5.5152322613
 30
0
 40
0.00465940499999995
100
AcDbArc
 50
66.166444522591
 51
177.000000002598
  0
ARC
  5
379
100
AcDbEntity
  8
SEMA2D
100
AcDbCircle
370
9
 62
7
  6
_SOLID
 10
5.1913542775
 20
5.5035837488
 30
0
 40
0.00186376200000016
100
AcDbArc
 50
182.999999997402
 51
270
  0
ARC
  5
37A
100
AcDbEntity
  8
SEMA2D
100
AcDbCircle
370
9
 62
7
  6
_SOLID
 10
5.2462179977
 20
5.5552149104
 30
0
 40
0.0390507680999996
100
AcDbArc
 50
248.834085825368
 51
291.165910697401
  0
ARC
  5
37B
100
AcDbEntity
  8
SEMA2D
100
AcDbCircle
370
9
 62
9
  6
_SOLID
 10
5.228809488
 20
5.4950653303
 30
0
 40
0.0246547229999998
100
AcDbArc
 50
94.8087492603144
 51
98.5901678159039
  0
ARC
  5
37C
100
AcDbEntity
  8
SEMA2D
100
AcDbCircle
370
9
 62
9
  6
_SOLID
 10
5.2509712196
 20
5.5304219935
 30
0
 40
0.0117727779000001
100
AcDbArc
 50
284.942745326895
 51
286.024148554058
  0
ARC
  5
37D
100
AcDbEntity
  8
SEMA2D
100
AcDbCircle
370
9
 62
7
  6
_SOLID
 10
5.228753182
 20
5.5101084109
 30
0
 40
0.0093188099999999
100
AcDbArc
 50
68.8343587192085
 51
111.166087468584
  0
ARC
  5
37E
100
AcDbEntity
  8
SEMA2D
100
AcDbCircle
370
9
 62
9
  6
_SOLID
 10
5.2275160456
 20
5.5103035009
 30
0
 40
0.00559127949999993
100
AcDbArc
 50
68.8340372304949
 51
111.165961976816
  0
ARC
  5
37F
100
AcDbEntity
  8
SEMA2D
100
AcDbCircle
370
9
 62
9
  6
_SOLID
 10
5.2263443402
 20
5.5003315559
 30
0
 40
0.00286455230000016
100
AcDbArc
 50
16.4288756678157
 51
29.0066504856909
  0
ARC
  5
380
100
AcDbEntity
  8
SEMA2D
100
AcDbCircle
370
9
 62
7
  6
_SOLID
 10
5.226682928
 20
5.4989243438
 30
0
 40
0.00279564299999979
100
AcDbArc
 50
14.9999999996979
 51
90
  0
ARC
  5
381
100
AcDbEntity
  8
SEMA2D
100
AcDbCircle
370
9
 62
7
  6
_SOLID
 10
5.2512792374
 20
5.4840142478
 30
0
 40
0.00186376200000016
100
AcDbArc
 50
270
 51
345.000000000313
  0
ARC
  5
382
100
AcDbEntity
  8
SEMA2D
100
AcDbCircle
370
9
 62
7
  6
_SOLID
 10
5.2355018472
 20
5.4840142478
 30
0
 40
0.00186376200000016
100
AcDbArc
 50
194.999999999687
 51
270
  0
ARC
  5
383
100
AcDbEntity
  8
SEMA2D
100
AcDbCircle
370
9
 62
9
  6
_SOLID
 10
5.2532142092
 20
5.5186677112
 30
0
 40
0.00183986270000025
100
AcDbArc
 50
276.694818557933
 51
280.791012373489
  0
ARC
  5
384
100
AcDbEntity
  8
SEMA2D
100
AcDbCircle
370
9
 62
9
  6
_SOLID
 10
5.2826741136
 20
4.25009473640002
 30
0
 40
1.25123787809999
100
AcDbArc
 50
91.4217975656214
 51
91.6598127655654
  0
ARC
  5
385
100
AcDbEntity
  8
SEMA2D
100
AcDbCircle
370
9
 62
9
  6
_SOLID
 10
5.3148399268
 20
5.555409071
 30
0
 40
0.0427773601999997
100
AcDbArc
 50
248.833861560532
 51
267.589812082466
  0
ARC
  5
386
100
AcDbEntity
  8
SEMA2D
100
AcDbCircle
370
9
 62
7
  6
_SOLID
 10
5.2636828133
 20
5.5101084109
 30
0
 40
0.0093188099999999
100
AcDbArc
 50
68.8331106658737
 51
111.164859427164
  0
ARC
  5
387
100
AcDbEntity
  8
SEMA2D
100
AcDbCircle
370
9
 62
7
  6
_SOLID
 10
5.2986124446
 20
5.5101084109
 30
0
 40
0.0093188099999999
100
AcDbArc
 50
68.8343120235869
 51
111.165648795945
  0
ARC
  5
388
100
AcDbEntity
  8
SEMA2D
100
AcDbCircle
370
9
 62
9
  6
_SOLID
 10
5.2973753082
 20
5.5103035009
 30
0
 40
0.00559127949999993
100
AcDbArc
 50
68.8340372358335
 51
111.165961969407
  0
ARC
  5
389
100
AcDbEntity
  8
SEMA2D
100
AcDbCircle
370
9
 62
9
  6
_SOLID
 10
5.2603500963
 20
5.5003769433
 30
0
 40
0.00306304340000008
100
AcDbArc
 50
153.990690010985
 51
164.88010701933
  0
ARC
  5
38A
100
AcDbEntity
  8
SEMA2D
100
AcDbCircle
370
9
 62
7
  6
_SOLID
 10
5.2600981566
 20
5.4989243438
 30
0
 40
0.00279564299999979
100
AcDbArc
 50
90
 51
165.000000000302
  0
ARC
  5
38B
100
AcDbEntity
  8
SEMA2D
100
AcDbCircle
370
9
 62
9
  6
_SOLID
 10
5.2600969833
 20
5.4989277662
 30
0
 40
0.00279363240000041
100
AcDbArc
 50
97.4125927983866
 51
164.975146375532
  0
ARC
  5
38C
100
AcDbEntity
  8
SEMA2D
100
AcDbCircle
370
9
 62
9
  6
_SOLID
 10
5.2600990657
 20
5.4989306131
 30
0
 40
0.00279101789999991
100
AcDbArc
 50
90
 51
97.462525074781
  0
ARC
  5
38D
100
AcDbEntity
  8
SEMA2D
100
AcDbCircle
370
9
 62
9
  6
_SOLID
 10
5.2560054123
 20
5.518561766
 30
0
 40
0.00111367169999976
100
AcDbArc
 50
270
 51
278.265260618576
  0
ARC
  5
38E
100
AcDbEntity
  8
SEMA2D
100
AcDbCircle
370
9
 62
9
  6
_SOLID
 10
5.2772391855
 20
7.29225660699997
 30
0
 40
1.80891229509998
100
AcDbArc
 50
268.878858005279
 51
269.041484992107
  0
ARC
  5
38F
100
AcDbEntity
  8
SEMA2D
100
AcDbCircle
370
9
 62
9
  6
_SOLID
 10
5.3488893182
 20
4.22812003940002
 30
0
 40
1.27322047679999
100
AcDbArc
 50
88.3422419486547
 51
88.5761477184597
  0
ARC
  5
390
100
AcDbEntity
  8
SEMA2D
100
AcDbCircle
370
9
 62
9
  6
_SOLID
 10
5.3173145965
 20
5.5554090611
 30
0
 40
0.0427773499999993
100
AcDbArc
 50
272.410193044401
 51
291.166139865247
  0
ARC
  5
391
100
AcDbEntity
  8
SEMA2D
100
AcDbCircle
370
9
 62
7
  6
_SOLID
 10
5.3160772603
 20
5.5552149104
 30
0
 40
0.0390507680999996
100
AcDbArc
 50
248.834087673606
 51
291.165913286107
  0
ARC
  5
392
100
AcDbEntity
  8
SEMA2D
100
AcDbCircle
370
9
 62
7
  6
_SOLID
 10
5.333542076
 20
5.5101084109
 30
0
 40
0.0093188099999999
100
AcDbArc
 50
68.8339401119197
 51
111.166043009529
  0
ARC
  5
393
100
AcDbEntity
  8
SEMA2D
100
AcDbCircle
370
9
 62
9
  6
_SOLID
 10
5.3347792123
 20
5.5103035008
 30
0
 40
0.00559127949999993
100
AcDbArc
 50
68.8340367463228
 51
111.165961379922
  0
ARC
  5
394
100
AcDbEntity
  8
SEMA2D
100
AcDbCircle
370
9
 62
9
  6
_SOLID
 10
5.352244028
 20
5.5554100161
 30
0
 40
0.0427783127999999
100
AcDbArc
 50
248.834072449561
 51
291.165927550439
  0
ARC
  5
395
100
AcDbEntity
  8
SEMA2D
100
AcDbCircle
370
9
 62
7
  6
_SOLID
 10
5.3684717073
 20
5.5101084109
 30
0
 40
0.0093188099999999
100
AcDbArc
 50
68.8339401172668
 51
111.166034906966
  0
ARC
  5
396
100
AcDbEntity
  8
SEMA2D
100
AcDbCircle
370
9
 62
9
  6
_SOLID
 10
5.3697088436
 20
5.5103035008
 30
0
 40
0.00559127949999993
100
AcDbArc
 50
68.8340367261611
 51
111.165961430949
  0
ARC
  5
397
100
AcDbEntity
  8
SEMA2D
100
AcDbCircle
370
9
 62
9
  6
_SOLID
 10
5.3718044581
 20
5.5003769554
 30
0
 40
0.00306300759999978
100
AcDbArc
 50
15.1198333869854
 51
26.0131756824935
  0
ARC
  5
398
100
AcDbEntity
  8
SEMA2D
100
AcDbCircle
370
9
 62
7
  6
_SOLID
 10
5.372056364
 20
5.4989243438
 30
0
 40
0.00279564299999979
100
AcDbArc
 50
14.9999999996979
 51
90
  0
ARC
  5
399
100
AcDbEntity
  8
SEMA2D
100
AcDbCircle
370
9
 62
9
  6
_SOLID
 10
5.3720575368
 20
5.4989277592
 30
0
 40
0.00279363749999995
100
AcDbArc
 50
15.0249877197686
 51
82.5874143083773
  0
ARC
  5
39A
100
AcDbEntity
  8
SEMA2D
100
AcDbCircle
370
9
 62
9
  6
_SOLID
 10
5.3720554528
 20
5.4989306052
 30
0
 40
0.00279102439999956
100
AcDbArc
 50
82.537453082501
 51
90
  0
ARC
  5
39B
100
AcDbEntity
  8
SEMA2D
100
AcDbCircle
370
9
 62
9
  6
_SOLID
 10
5.3761492191
 20
5.5185628416
 30
0
 40
0.00111473319999966
100
AcDbArc
 50
261.737365889129
 51
270
  0
ARC
  5
39C
100
AcDbEntity
  8
SEMA2D
100
AcDbCircle
370
9
 62
9
  6
_SOLID
 10
5.3871736593
 20
5.5554100161
 30
0
 40
0.0427783127999999
100
AcDbArc
 50
248.834072449561
 51
291.165927550439
  0
ARC
  5
39D
100
AcDbEntity
  8
SEMA2D
100
AcDbCircle
370
9
 62
7
  6
_SOLID
 10
5.4034013386
 20
5.5101084109
 30
0
 40
0.0093188099999999
100
AcDbArc
 50
68.8339289545874
 51
111.165621287836
  0
ARC
  5
39E
100
AcDbEntity
  8
SEMA2D
100
AcDbCircle
370
9
 62
9
  6
_SOLID
 10
5.4046384749
 20
5.5103035008
 30
0
 40
0.00559127949999993
100
AcDbArc
 50
68.8340367389171
 51
111.165961379922
  0
ARC
  5
39F
100
AcDbEntity
  8
SEMA2D
100
AcDbCircle
370
9
 62
9
  6
_SOLID
 10
5.405810182
 20
5.5003315552
 30
0
 40
0.0028645540000003
100
AcDbArc
 50
150.991693593436
 51
163.571495480243
  0
ARC
  5
3A0
100
AcDbEntity
  8
SEMA2D
100
AcDbCircle
370
9
 62
7
  6
_SOLID
 10
5.4054715926
 20
5.4989243438
 30
0
 40
0.00279564299999979
100
AcDbArc
 50
90
 51
165.000000000302
  0
ARC
  5
3A1
100
AcDbEntity
  8
SEMA2D
100
AcDbCircle
370
9
 62
7
  6
_SOLID
 10
5.3966526734
 20
5.4840142478
 30
0
 40
0.00186376200000016
100
AcDbArc
 50
270
 51
345.000000000313
  0
ARC
  5
3A2
100
AcDbEntity
  8
SEMA2D
100
AcDbCircle
370
9
 62
7
  6
_SOLID
 10
5.3808752832
 20
5.4840142478
 30
0
 40
0.00186376200000016
100
AcDbArc
 50
194.999999999687
 51
270
  0
ARC
  5
3A3
100
AcDbEntity
  8
SEMA2D
100
AcDbCircle
370
9
 62
9
  6
_SOLID
 10
5.4221032895
 20
5.5554100092
 30
0
 40
0.0427783058999993
100
AcDbArc
 50
248.834070512039
 51
290.639679909589
  0
ARC
  5
3A4
100
AcDbEntity
  8
SEMA2D
100
AcDbCircle
370
9
 62
7
  6
_SOLID
 10
5.4385287419
 20
5.5152322613
 30
0
 40
0.00465940499999995
100
AcDbArc
 50
2.99999999740246
 51
113.83432876715
  0
ARC
  5
3A5
100
AcDbEntity
  8
SEMA2D
100
AcDbCircle
370
9
 62
7
  6
_SOLID
 10
5.4408002431
 20
5.5035837488
 30
0
 40
0.00186376200000016
100
AcDbArc
 50
270
 51
-2.99999999740189
  0
ARC
  5
3A6
100
AcDbEntity
  8
SEMA2D
100
AcDbCircle
370
9
 62
9
  6
_SOLID
 10
5.354379907
 20
7.32175608729997
 30
0
 40
1.83841660499998
100
AcDbArc
 50
270.959819993292
 51
271.119837017141
  0
ARC
  5
3A7
100
AcDbEntity
  8
SEMA2D
100
AcDbCircle
370
9
 62
7
  6
_SOLID
 10
5.2812179977
 20
5.5552149104
 30
0
 40
0.0390507680999996
100
AcDbArc
 50
248.834085825368
 51
291.165910697401
  0
ARC
  5
3A8
100
AcDbEntity
  8
SEMA2D
100
AcDbCircle
370
9
 62
7
  6
_SOLID
 10
5.3510772603
 20
5.5552149104
 30
0
 40
0.0390507680999996
100
AcDbArc
 50
248.834087673606
 51
291.165913286107
  0
ARC
  5
3A9
100
AcDbEntity
  8
SEMA2D
100
AcDbCircle
370
9
 62
7
  6
_SOLID
 10
5.3860772603
 20
5.5552149097
 30
0
 40
0.0390507680999996
100
AcDbArc
 50
248.834087673606
 51
291.165913286107
  0
ARC
  5
3AA
100
AcDbEntity
  8
SEMA2D
100
AcDbCircle
370
9
 62
7
  6
_SOLID
 10
5.4208661579
 20
5.555214909
 30
0
 40
0.0390507680999996
100
AcDbArc
 50
248.834087673606
 51
291.165913286107
  0
LINE
  5
3AB
100
AcDbEntity
  8
SEMA2D
100
AcDbLine
370
9
 62
7
  6
_SOLID
 10
4.5020567496
 20
4.9250778962
 30
0
 11
4.5048523926
 21
4.9250778962
 31
0
  0
LINE
  5
3AC
100
AcDbEntity
  8
SEMA2D
100
AcDbLine
370
9
 62
9
  6
_SOLID
 10
4.5048523926
 20
4.9264242405
 30
0
 11
4.5020567496
 21
4.9264242405
 31
0
  0
LINE
  5
3AD
100
AcDbEntity
  8
SEMA2D
100
AcDbLine
370
9
 62
7
  6
_SOLID
 10
4.4986025477
 20
4.925974943
 30
0
 11
4.5020567496
 21
4.9257903962
 31
0
  0
LINE
  5
3AE
100
AcDbEntity
  8
SEMA2D
100
AcDbLine
370
9
 62
7
  6
_SOLID
 10
4.5048523926
 20
4.9265028962
 30
0
 11
4.5077455774
 21
4.9266574697
 31
0
  0
LINE
  5
3AF
100
AcDbEntity
  8
SEMA2D
100
AcDbLine
370
9
 62
9
  6
_SOLID
 10
4.5077455774
 20
4.9277955742
 30
0
 11
4.5048523926
 21
4.9276613785
 31
0
  0
LINE
  5
3B0
100
AcDbEntity
  8
SEMA2D
100
AcDbLine
370
9
 62
9
  6
_SOLID
 10
4.5020567496
 20
4.9270428095
 30
0
 11
4.4984994356
 21
4.9272078346
 31
0
  0
LINE
  5
3B1
100
AcDbEntity
  8
SEMA2D
100
AcDbLine
370
9
 62
9
  6
_SOLID
 10
4.5077455774
 20
4.9717826642
 30
0
 11
4.5048523926
 21
4.9716484685
 31
0
  0
LINE
  5
3B2
100
AcDbEntity
  8
SEMA2D
100
AcDbLine
370
9
 62
9
  6
_SOLID
 10
4.5048523926
 20
4.9704113305
 30
0
 11
4.5020567496
 21
4.9704113305
 31
0
  0
LINE
  5
3B3
100
AcDbEntity
  8
SEMA2D
100
AcDbLine
370
9
 62
9
  6
_SOLID
 10
4.5020567496
 20
4.9710298995
 30
0
 11
4.4955774766
 21
4.9713304205
 31
0
  0
LINE
  5
3B4
100
AcDbEntity
  8
SEMA2D
100
AcDbLine
370
9
 62
9
  6
_SOLID
 10
4.5095117976
 20
4.9792774862
 30
0
 11
4.4957556687
 21
4.9792774862
 31
0
  0
LINE
  5
3B5
100
AcDbEntity
  8
SEMA2D
100
AcDbLine
370
9
 62
7
  6
_SOLID
 10
4.4928445157
 20
4.9351717085
 30
0
 11
4.4933497355
 21
4.9343983542
 31
0
  0
LINE
  5
3B6
100
AcDbEntity
  8
SEMA2D
100
AcDbLine
370
9
 62
7
  6
_SOLID
 10
4.492988127
 20
4.9349527353
 30
0
 11
4.4933518048
 21
4.9343950203
 31
0
  0
LINE
  5
3B7
100
AcDbEntity
  8
SEMA2D
100
AcDbLine
370
9
 62
7
  6
_SOLID
 10
4.4928445158
 20
4.9537266432
 30
0
 11
4.4933539579
 21
4.9529464826
 31
0
  0
LINE
  5
3B8
100
AcDbEntity
  8
SEMA2D
100
AcDbLine
370
9
 62
7
  6
_SOLID
 10
4.4933539579
 20
4.9529464826
 30
0
 11
4.4937074749
 21
4.9523434152
 31
0
  0
LINE
  5
3B9
100
AcDbEntity
  8
SEMA2D
100
AcDbLine
370
9
 62
7
  6
_SOLID
 10
4.4937074749
 20
4.9523434152
 30
0
 11
4.4940217997
 21
4.9517373258
 31
0
  0
LINE
  5
3BA
100
AcDbEntity
  8
SEMA2D
100
AcDbLine
370
9
 62
7
  6
_SOLID
 10
4.4940217997
 20
4.9517373258
 30
0
 11
4.4942974914
 21
4.9511260421
 31
0
  0
LINE
  5
3BB
100
AcDbEntity
  8
SEMA2D
100
AcDbLine
370
9
 62
7
  6
_SOLID
 10
4.4942974914
 20
4.9511260421
 30
0
 11
4.4945343022
 21
4.9505077024
 31
0
  0
LINE
  5
3BC
100
AcDbEntity
  8
SEMA2D
100
AcDbLine
370
9
 62
7
  6
_SOLID
 10
4.4945343022
 20
4.9505077024
 30
0
 11
4.4947302611
 21
4.9498834233
 31
0
  0
LINE
  5
3BD
100
AcDbEntity
  8
SEMA2D
100
AcDbLine
370
9
 62
7
  6
_SOLID
 10
4.4947302611
 20
4.9498834233
 30
0
 11
4.4948829829
 21
4.949255566
 31
0
  0
LINE
  5
3BE
100
AcDbEntity
  8
SEMA2D
100
AcDbLine
370
9
 62
7
  6
_SOLID
 10
4.4948829829
 20
4.949255566
 30
0
 11
4.4949917107
 21
4.9486184122
 31
0
  0
LINE
  5
3BF
100
AcDbEntity
  8
SEMA2D
100
AcDbLine
370
9
 62
7
  6
_SOLID
 10
4.4949917107
 20
4.9486184122
 30
0
 11
4.4950539901
 21
4.9479655235
 31
0
  0
LINE
  5
3C0
100
AcDbEntity
  8
SEMA2D
100
AcDbLine
370
9
 62
7
  6
_SOLID
 10
4.4950539901
 20
4.9479655235
 30
0
 11
4.4950676417
 21
4.9474826324
 31
0
  0
LINE
  5
3C1
100
AcDbEntity
  8
SEMA2D
100
AcDbLine
370
9
 62
7
  6
_SOLID
 10
4.4926634582
 20
4.9354776978
 30
0
 11
4.4928445157
 21
4.9351717085
 31
0
  0
LINE
  5
3C2
100
AcDbEntity
  8
SEMA2D
100
AcDbLine
370
9
 62
7
  6
_SOLID
 10
4.4933497355
 20
4.9343983542
 30
0
 11
4.4937097978
 21
4.9337842743
 31
0
  0
LINE
  5
3C3
100
AcDbEntity
  8
SEMA2D
100
AcDbLine
370
9
 62
7
  6
_SOLID
 10
4.4931028784
 20
4.9718923961
 30
0
 11
4.4934354802
 21
4.9713683603
 31
0
  0
LINE
  5
3C4
100
AcDbEntity
  8
SEMA2D
100
AcDbLine
370
9
 62
7
  6
_SOLID
 10
4.4934354802
 20
4.9713683603
 30
0
 11
4.4937384355
 21
4.9708419869
 31
0
  0
LINE
  5
3C5
100
AcDbEntity
  8
SEMA2D
100
AcDbLine
370
9
 62
7
  6
_SOLID
 10
4.4937384355
 20
4.9708419869
 30
0
 11
4.4940125189
 21
4.9703113494
 31
0
  0
LINE
  5
3C6
100
AcDbEntity
  8
SEMA2D
100
AcDbLine
370
9
 62
7
  6
_SOLID
 10
4.4940125189
 20
4.9703113494
 30
0
 11
4.4942579508
 21
4.969774589
 31
0
  0
LINE
  5
3C7
100
AcDbEntity
  8
SEMA2D
100
AcDbLine
370
9
 62
7
  6
_SOLID
 10
4.4942579508
 20
4.969774589
 30
0
 11
4.4944733499
 21
4.9692328101
 31
0
  0
LINE
  5
3C8
100
AcDbEntity
  8
SEMA2D
100
AcDbLine
370
9
 62
7
  6
_SOLID
 10
4.4944733499
 20
4.9692328101
 30
0
 11
4.494657495
 21
4.9686868568
 31
0
  0
LINE
  5
3C9
100
AcDbEntity
  8
SEMA2D
100
AcDbLine
370
9
 62
7
  6
_SOLID
 10
4.494657495
 20
4.9686868568
 30
0
 11
4.49480941
 21
4.9681360212
 31
0
  0
LINE
  5
3CA
100
AcDbEntity
  8
SEMA2D
100
AcDbLine
370
9
 62
7
  6
_SOLID
 10
4.49480941
 20
4.9681360212
 30
0
 11
4.4949275533
 21
4.9675810581
 31
0
  0
LINE
  5
3CB
100
AcDbEntity
  8
SEMA2D
100
AcDbLine
370
9
 62
7
  6
_SOLID
 10
4.4949275533
 20
4.9675810581
 30
0
 11
4.4950110825
 21
4.9670178954
 31
0
  0
LINE
  5
3CC
100
AcDbEntity
  8
SEMA2D
100
AcDbLine
370
9
 62
7
  6
_SOLID
 10
4.4950110825
 20
4.9670178954
 30
0
 11
4.4950581073
 21
4.96644169
 31
0
  0
LINE
  5
3CD
100
AcDbEntity
  8
SEMA2D
100
AcDbLine
370
9
 62
7
  6
_SOLID
 10
4.4950581073
 20
4.96644169
 30
0
 11
4.4950676418
 21
4.966038403
 31
0
  0
LINE
  5
3CE
100
AcDbEntity
  8
SEMA2D
100
AcDbLine
370
9
 62
7
  6
_SOLID
 10
4.4925049144
 20
4.9357815894
 30
0
 11
4.4926665972
 21
4.9354720571
 31
0
  0
LINE
  5
3CF
100
AcDbEntity
  8
SEMA2D
100
AcDbLine
370
9
 62
7
  6
_SOLID
 10
4.4937079545
 20
4.9337876129
 30
0
 11
4.4940342449
 21
4.9331566475
 31
0
  0
LINE
  5
3D0
100
AcDbEntity
  8
SEMA2D
100
AcDbLine
370
9
 62
7
  6
_SOLID
 10
4.4923649673
 20
4.9360887071
 30
0
 11
4.4925074976
 21
4.9357763051
 31
0
  0
LINE
  5
3D1
100
AcDbEntity
  8
SEMA2D
100
AcDbLine
370
9
 62
7
  6
_SOLID
 10
4.49403263
 20
4.9331599966
 30
0
 11
4.4943189821
 21
4.9325192331
 31
0
  0
LINE
  5
3D2
100
AcDbEntity
  8
SEMA2D
100
AcDbLine
370
9
 62
7
  6
_SOLID
 10
4.4922435339
 20
4.9363981714
 30
0
 11
4.4923670532
 21
4.9360837894
 31
0
  0
LINE
  5
3D3
100
AcDbEntity
  8
SEMA2D
100
AcDbLine
370
9
 62
7
  6
_SOLID
 10
4.4943176066
 20
4.932522575
 30
0
 11
4.4945604822
 21
4.9318767808
 31
0
  0
LINE
  5
3D4
100
AcDbEntity
  8
SEMA2D
100
AcDbLine
370
9
 62
7
  6
_SOLID
 10
4.4917177553
 20
4.9743118066
 30
0
 11
4.4918428248
 21
4.9740164331
 31
0
  0
LINE
  5
3D5
100
AcDbEntity
  8
SEMA2D
100
AcDbLine
370
9
 62
7
  6
_SOLID
 10
4.4918428248
 20
4.9740164331
 30
0
 11
4.4920089031
 21
4.9736583676
 31
0
  0
LINE
  5
3D6
100
AcDbEntity
  8
SEMA2D
100
AcDbLine
370
9
 62
7
  6
_SOLID
 10
4.4920089031
 20
4.9736583676
 30
0
 11
4.4921903649
 21
4.9733044838
 31
0
  0
LINE
  5
3D7
100
AcDbEntity
  8
SEMA2D
100
AcDbLine
370
9
 62
7
  6
_SOLID
 10
4.4921903649
 20
4.9733044838
 30
0
 11
4.4923857536
 21
4.9729601144
 31
0
  0
LINE
  5
3D8
100
AcDbEntity
  8
SEMA2D
100
AcDbLine
370
9
 62
7
  6
_SOLID
 10
4.4923857536
 20
4.9729601144
 30
0
 11
4.4925935437
 21
4.9726295041
 31
0
  0
LINE
  5
3D9
100
AcDbEntity
  8
SEMA2D
100
AcDbLine
370
9
 62
7
  6
_SOLID
 10
4.4925935437
 20
4.9726295041
 30
0
 11
4.4931028784
 21
4.9718923961
 31
0
  0
LINE
  5
3DA
100
AcDbEntity
  8
SEMA2D
100
AcDbLine
370
9
 62
7
  6
_SOLID
 10
4.4921403179
 20
4.9367096483
 30
0
 11
4.4922451775
 21
4.9363936313
 31
0
  0
LINE
  5
3DB
100
AcDbEntity
  8
SEMA2D
100
AcDbLine
370
9
 62
7
  6
_SOLID
 10
4.494559361
 20
4.9318800737
 30
0
 11
4.4947557402
 21
4.9312353682
 31
0
  0
LINE
  5
3DC
100
AcDbEntity
  8
SEMA2D
100
AcDbLine
370
9
 62
7
  6
_SOLID
 10
4.4920551761
 20
4.9370225139
 30
0
 11
4.4921415728
 21
4.9367054916
 31
0
  0
LINE
  5
3DD
100
AcDbEntity
  8
SEMA2D
100
AcDbLine
370
9
 62
7
  6
_SOLID
 10
4.4947548779
 20
4.9312385795
 30
0
 11
4.4949027302
 21
4.9306027681
 31
0
  0
LINE
  5
3DE
100
AcDbEntity
  8
SEMA2D
100
AcDbLine
370
9
 62
7
  6
_SOLID
 10
4.4949027302
 20
4.9306027681
 30
0
 11
4.4949983359
 21
4.9300127915
 31
0
  0
LINE
  5
3DF
100
AcDbEntity
  8
SEMA2D
100
AcDbLine
370
9
 62
7
  6
_SOLID
 10
4.4919877956
 20
4.9373366628
 30
0
 11
4.4920560952
 21
4.9370187382
 31
0
  0
LINE
  5
3E0
100
AcDbEntity
  8
SEMA2D
100
AcDbLine
370
9
 62
7
  6
_SOLID
 10
4.4951086906
 20
4.9292107504
 30
0
 11
4.4951486613
 21
4.9289851436
 31
0
  0
LINE
  5
3E1
100
AcDbEntity
  8
SEMA2D
100
AcDbLine
370
9
 62
7
  6
_SOLID
 10
4.4951486613
 20
4.9289851436
 30
0
 11
4.4952017139
 21
4.9287626009
 31
0
  0
LINE
  5
3E2
100
AcDbEntity
  8
SEMA2D
100
AcDbLine
370
9
 62
7
  6
_SOLID
 10
4.4952017139
 20
4.9287626009
 30
0
 11
4.4952675869
 21
4.9285439471
 31
0
  0
LINE
  5
3E3
100
AcDbEntity
  8
SEMA2D
100
AcDbLine
370
9
 62
7
  6
_SOLID
 10
4.4952675869
 20
4.9285439471
 30
0
 11
4.4953460572
 21
4.9283298915
 31
0
  0
LINE
  5
3E4
100
AcDbEntity
  8
SEMA2D
100
AcDbLine
370
9
 62
7
  6
_SOLID
 10
4.4953460572
 20
4.9283298915
 30
0
 11
4.4954369178
 21
4.9281211555
 31
0
  0
LINE
  5
3E5
100
AcDbEntity
  8
SEMA2D
100
AcDbLine
370
9
 62
7
  6
_SOLID
 10
4.4954369178
 20
4.9281211555
 30
0
 11
4.4955399435
 21
4.9279185305
 31
0
  0
LINE
  5
3E6
100
AcDbEntity
  8
SEMA2D
100
AcDbLine
370
9
 62
7
  6
_SOLID
 10
4.4955399435
 20
4.9279185305
 30
0
 11
4.4956548846
 21
4.9277227694
 31
0
  0
LINE
  5
3E7
100
AcDbEntity
  8
SEMA2D
100
AcDbLine
370
9
 62
7
  6
_SOLID
 10
4.4956548846
 20
4.9277227694
 30
0
 11
4.4957812594
 21
4.9275344977
 31
0
  0
LINE
  5
3E8
100
AcDbEntity
  8
SEMA2D
100
AcDbLine
370
9
 62
7
  6
_SOLID
 10
4.4957812594
 20
4.9275344977
 30
0
 11
4.4959184937
 21
4.9273542929
 31
0
  0
LINE
  5
3E9
100
AcDbEntity
  8
SEMA2D
100
AcDbLine
370
9
 62
7
  6
_SOLID
 10
4.4959184937
 20
4.9273542929
 30
0
 11
4.4960660302
 21
4.9271827184
 31
0
  0
LINE
  5
3EA
100
AcDbEntity
  8
SEMA2D
100
AcDbLine
370
9
 62
7
  6
_SOLID
 10
4.4960660302
 20
4.9271827184
 30
0
 11
4.4962233397
 21
4.9270203216
 31
0
  0
LINE
  5
3EB
100
AcDbEntity
  8
SEMA2D
100
AcDbLine
370
9
 62
7
  6
_SOLID
 10
4.4962233397
 20
4.9270203216
 30
0
 11
4.4963897971
 21
4.9268677534
 31
0
  0
LINE
  5
3EC
100
AcDbEntity
  8
SEMA2D
100
AcDbLine
370
9
 62
7
  6
_SOLID
 10
4.4963897971
 20
4.9268677534
 30
0
 11
4.4965648259
 21
4.9267256048
 31
0
  0
LINE
  5
3ED
100
AcDbEntity
  8
SEMA2D
100
AcDbLine
370
9
 62
7
  6
_SOLID
 10
4.4965648259
 20
4.9267256048
 30
0
 11
4.4967477138
 21
4.926594558
 31
0
  0
LINE
  5
3EE
100
AcDbEntity
  8
SEMA2D
100
AcDbLine
370
9
 62
7
  6
_SOLID
 10
4.4967477138
 20
4.926594558
 30
0
 11
4.4969377639
 21
4.9264752387
 31
0
  0
LINE
  5
3EF
100
AcDbEntity
  8
SEMA2D
100
AcDbLine
370
9
 62
7
  6
_SOLID
 10
4.4969377639
 20
4.9264752387
 30
0
 11
4.497134207
 21
4.9263681413
 31
0
  0
LINE
  5
3F0
100
AcDbEntity
  8
SEMA2D
100
AcDbLine
370
9
 62
7
  6
_SOLID
 10
4.497134207
 20
4.9263681413
 30
0
 11
4.497336139
 21
4.9262734982
 31
0
  0
LINE
  5
3F1
100
AcDbEntity
  8
SEMA2D
100
AcDbLine
370
9
 62
7
  6
_SOLID
 10
4.497336139
 20
4.9262734982
 30
0
 11
4.497542637
 21
4.9261914802
 31
0
  0
LINE
  5
3F2
100
AcDbEntity
  8
SEMA2D
100
AcDbLine
370
9
 62
7
  6
_SOLID
 10
4.497542637
 20
4.9261914802
 30
0
 11
4.4977527795
 21
4.9261222274
 31
0
  0
LINE
  5
3F3
100
AcDbEntity
  8
SEMA2D
100
AcDbLine
370
9
 62
7
  6
_SOLID
 10
4.4977527795
 20
4.9261222274
 30
0
 11
4.4979656565
 21
4.9260658463
 31
0
  0
LINE
  5
3F4
100
AcDbEntity
  8
SEMA2D
100
AcDbLine
370
9
 62
7
  6
_SOLID
 10
4.4979656565
 20
4.9260658463
 30
0
 11
4.4981803669
 21
4.9260224117
 31
0
  0
LINE
  5
3F5
100
AcDbEntity
  8
SEMA2D
100
AcDbLine
370
9
 62
7
  6
_SOLID
 10
4.4981803669
 20
4.9260224117
 30
0
 11
4.4983960272
 21
4.9259919646
 31
0
  0
LINE
  5
3F6
100
AcDbEntity
  8
SEMA2D
100
AcDbLine
370
9
 62
7
  6
_SOLID
 10
4.4983960272
 20
4.9259919646
 30
0
 11
4.4986025504
 21
4.9259749936
 31
0
  0
LINE
  5
3F7
100
AcDbEntity
  8
SEMA2D
100
AcDbLine
370
9
 62
7
  6
_SOLID
 10
4.4919378968
 20
4.9376520938
 30
0
 11
4.4919884278
 21
4.9373332723
 31
0
  0
LINE
  5
3F8
100
AcDbEntity
  8
SEMA2D
100
AcDbLine
370
9
 62
7
  6
_SOLID
 10
4.4950773816
 20
4.9294277348
 30
0
 11
4.4951086906
 21
4.9292107504
 31
0
  0
LINE
  5
3F9
100
AcDbEntity
  8
SEMA2D
100
AcDbLine
370
9
 62
7
  6
_SOLID
 10
4.4950425163
 20
4.9296790526
 30
0
 11
4.4950790352
 21
4.929416077
 31
0
  0
LINE
  5
3FA
100
AcDbEntity
  8
SEMA2D
100
AcDbLine
370
9
 62
7
  6
_SOLID
 10
4.4950258928
 20
4.9298028662
 30
0
 11
4.4950542264
 21
4.9295934288
 31
0
  0
LINE
  5
3FB
100
AcDbEntity
  8
SEMA2D
100
AcDbLine
370
9
 62
7
  6
_SOLID
 10
4.4919054099
 20
4.9379678791
 30
0
 11
4.4919382883
 21
4.9376490975
 31
0
  0
LINE
  5
3FC
100
AcDbEntity
  8
SEMA2D
100
AcDbLine
370
9
 62
7
  6
_SOLID
 10
4.4949982594
 20
4.9300150061
 30
0
 11
4.4950274874
 21
4.9297908705
 31
0
  0
LINE
  5
3FD
100
AcDbEntity
  8
SEMA2D
100
AcDbLine
370
9
 62
7
  6
_SOLID
 10
4.4918901989
 20
4.9382832848
 30
0
 11
4.4919056062
 21
4.9379652854
 31
0
  0
LINE
  5
3FE
100
AcDbEntity
  8
SEMA2D
100
AcDbLine
370
9
 62
7
  6
_SOLID
 10
4.4913403996
 20
4.9763132733
 30
0
 11
4.4913450957
 21
4.9760758945
 31
0
  0
LINE
  5
3FF
100
AcDbEntity
  8
SEMA2D
100
AcDbLine
370
9
 62
7
  6
_SOLID
 10
4.4913450957
 20
4.9760758945
 30
0
 11
4.491364679
 21
4.9757794295
 31
0
  0
LINE
  5
400
100
AcDbEntity
  8
SEMA2D
100
AcDbLine
370
9
 62
7
  6
_SOLID
 10
4.491364679
 20
4.9757794295
 30
0
 11
4.4913994445
 21
4.9754884941
 31
0
  0
LINE
  5
401
100
AcDbEntity
  8
SEMA2D
100
AcDbLine
370
9
 62
7
  6
_SOLID
 10
4.4913994445
 20
4.9754884941
 30
0
 11
4.4914490683
 21
4.975204635
 31
0
  0
LINE
  5
402
100
AcDbEntity
  8
SEMA2D
100
AcDbLine
370
9
 62
7
  6
_SOLID
 10
4.4914490683
 20
4.975204635
 30
0
 11
4.4915128389
 21
4.9749295971
 31
0
  0
LINE
  5
403
100
AcDbEntity
  8
SEMA2D
100
AcDbLine
370
9
 62
7
  6
_SOLID
 10
4.4915128389
 20
4.9749295971
 30
0
 11
4.4915897078
 21
4.9746649264
 31
0
  0
LINE
  5
404
100
AcDbEntity
  8
SEMA2D
100
AcDbLine
370
9
 62
7
  6
_SOLID
 10
4.4915897078
 20
4.9746649264
 30
0
 11
4.4916782684
 21
4.9744121288
 31
0
  0
LINE
  5
405
100
AcDbEntity
  8
SEMA2D
100
AcDbLine
370
9
 62
7
  6
_SOLID
 10
4.4918902452
 20
4.9568360377
 30
0
 11
4.4919056062
 21
4.9565202201
 31
0
  0
LINE
  5
406
100
AcDbEntity
  8
SEMA2D
100
AcDbLine
370
9
 62
7
  6
_SOLID
 10
4.4919056062
 20
4.9565202201
 30
0
 11
4.4919382883
 21
4.9562040322
 31
0
  0
LINE
  5
407
100
AcDbEntity
  8
SEMA2D
100
AcDbLine
370
9
 62
7
  6
_SOLID
 10
4.4919382883
 20
4.9562040322
 30
0
 11
4.4919884278
 21
4.955888207
 31
0
  0
LINE
  5
408
100
AcDbEntity
  8
SEMA2D
100
AcDbLine
370
9
 62
7
  6
_SOLID
 10
4.4919884278
 20
4.955888207
 30
0
 11
4.4920560952
 21
4.9555736728
 31
0
  0
LINE
  5
409
100
AcDbEntity
  8
SEMA2D
100
AcDbLine
370
9
 62
7
  6
_SOLID
 10
4.4920560952
 20
4.9555736728
 30
0
 11
4.4921415729
 21
4.9552604262
 31
0
  0
LINE
  5
40A
100
AcDbEntity
  8
SEMA2D
100
AcDbLine
370
9
 62
7
  6
_SOLID
 10
4.4921415729
 20
4.9552604262
 30
0
 11
4.4922451776
 21
4.954948566
 31
0
  0
LINE
  5
40B
100
AcDbEntity
  8
SEMA2D
100
AcDbLine
370
9
 62
7
  6
_SOLID
 10
4.4922451776
 20
4.954948566
 30
0
 11
4.4923670532
 21
4.9546387241
 31
0
  0
LINE
  5
40C
100
AcDbEntity
  8
SEMA2D
100
AcDbLine
370
9
 62
7
  6
_SOLID
 10
4.4923670532
 20
4.9546387241
 30
0
 11
4.4925074976
 21
4.9543312398
 31
0
  0
LINE
  5
40D
100
AcDbEntity
  8
SEMA2D
100
AcDbLine
370
9
 62
7
  6
_SOLID
 10
4.4925074976
 20
4.9543312398
 30
0
 11
4.4926665972
 21
4.9540269918
 31
0
  0
LINE
  5
40E
100
AcDbEntity
  8
SEMA2D
100
AcDbLine
370
9
 62
7
  6
_SOLID
 10
4.4926665972
 20
4.9540269918
 30
0
 11
4.4928445158
 21
4.9537266432
 31
0
  0
LINE
  5
40F
100
AcDbEntity
  8
SEMA2D
100
AcDbLine
370
9
 62
7
  6
_SOLID
 10
4.4913401181
 20
5.3982335981
 30
0
 11
4.4913401181
 21
4.976314138
 31
0
  0
ARC
  5
410
100
AcDbEntity
  8
SEMA2D
100
AcDbCircle
370
9
 62
7
  6
_SOLID
 10
4.4934332028
 20
5.3982335981
 30
0
 40
0.0020930846999998
100
AcDbArc
 50
90
 51
180
  0
LINE
  5
411
100
AcDbEntity
  8
SEMA2D
100
AcDbLine
370
9
 62
7
  6
_SOLID
 10
4.4918885911
 20
4.9739177606
 30
0
 11
4.4918885911
 21
4.9384043342
 31
0
  0
LINE
  5
412
100
AcDbEntity
  8
SEMA2D
100
AcDbLine
370
9
 62
9
  6
_SOLID
 10
4.4926032613
 20
4.9396296588
 30
0
 11
4.4926032591
 21
4.9541481139
 31
0
  0
LINE
  5
413
100
AcDbEntity
  8
SEMA2D
100
AcDbLine
370
9
 62
9
  6
_SOLID
 10
4.4926032618
 20
4.9581845943
 30
0
 11
4.4926032625
 21
4.9726154208
 31
0
  0
LINE
  5
414
100
AcDbEntity
  8
SEMA2D
100
AcDbLine
370
9
 62
9
  6
_SOLID
 10
4.4957556687
 20
5.3985563537
 30
0
 11
4.4957556687
 21
4.9792774862
 31
0
  0
LINE
  5
415
100
AcDbEntity
  8
SEMA2D
100
AcDbLine
370
9
 62
7
  6
_SOLID
 10
4.5020567496
 20
5.4015028962
 30
0
 11
4.5020567496
 21
4.9250779399
 31
0
  0
LINE
  5
416
100
AcDbEntity
  8
SEMA2D
100
AcDbLine
370
9
 62
7
  6
_SOLID
 10
4.5048523926
 20
5.4015028962
 30
0
 11
4.5048523926
 21
4.9250779399
 31
0
  0
LINE
  5
417
100
AcDbEntity
  8
SEMA2D
100
AcDbLine
370
9
 62
9
  6
_SOLID
 10
4.5077455774
 20
5.3980259266
 30
0
 11
4.5077455774
 21
4.9266574697
 31
0
  0
LINE
  5
418
100
AcDbEntity
  8
SEMA2D
100
AcDbLine
370
9
 62
7
  6
_SOLID
 10
4.5095117976
 20
5.3980259266
 30
0
 11
4.5095117976
 21
4.9285548784
 31
0
  0
LINE
  5
419
100
AcDbEntity
  8
SEMA2D
100
AcDbLine
370
9
 62
9
  6
_SOLID
 10
4.511583875
 20
5.3770063669
 30
0
 11
4.511583875
 21
5.3950261503
 31
0
  0
LINE
  5
41A
100
AcDbEntity
  8
SEMA2D
100
AcDbLine
370
9
 62
7
  6
_SOLID
 10
4.5255117977
 20
5.375531274
 30
0
 11
4.5255117977
 21
5.3947316903
 31
0
  0
LINE
  5
41B
100
AcDbEntity
  8
SEMA2D
100
AcDbLine
370
9
 62
7
  6
_SOLID
 10
4.5255117977
 20
5.3751664824
 30
0
 11
4.5104241608
 21
5.3724543984
 31
0
  0
LINE
  5
41C
100
AcDbEntity
  8
SEMA2D
100
AcDbLine
370
9
 62
7
  6
_SOLID
 10
4.5020567496
 20
5.4007903962
 30
0
 11
4.4933215353
 21
5.400323702
 31
0
  0
LINE
  5
41D
100
AcDbEntity
  8
SEMA2D
100
AcDbLine
370
9
 62
9
  6
_SOLID
 10
4.511583875
 20
5.3770063669
 30
0
 11
4.5095117976
 21
5.3770063669
 31
0
  0
LINE
  5
41E
100
AcDbEntity
  8
SEMA2D
100
AcDbLine
370
9
 62
9
  6
_SOLID
 10
4.511583875
 20
5.3950261658
 30
0
 11
4.5095117976
 21
5.3950261658
 31
0
  0
LINE
  5
41F
100
AcDbEntity
  8
SEMA2D
100
AcDbLine
370
9
 62
9
  6
_SOLID
 10
4.5095117976
 20
5.3980259266
 30
0
 11
4.5077455774
 21
5.3980259266
 31
0
  0
LINE
  5
420
100
AcDbEntity
  8
SEMA2D
100
AcDbLine
370
9
 62
7
  6
_SOLID
 10
4.5048523926
 20
5.4015028962
 30
0
 11
4.5020567496
 21
5.4015028962
 31
0
  0
LINE
  5
421
100
AcDbEntity
  8
SEMA2D
100
AcDbLine
370
9
 62
9
  6
_SOLID
 10
4.5048523926
 20
5.3981805001
 30
0
 11
4.5077455774
 21
5.3980259266
 31
0
  0
LINE
  5
422
100
AcDbEntity
  8
SEMA2D
100
AcDbLine
370
9
 62
7
  6
_SOLID
 10
4.5048523926
 20
5.4000778962
 30
0
 11
4.5144199433
 21
5.3995667329
 31
0
  0
LINE
  5
423
100
AcDbEntity
  8
SEMA2D
100
AcDbLine
370
9
 62
7
  6
_SOLID
 10
4.5255117977
 20
5.3947316903
 30
0
 11
4.5157628481
 21
5.3992334019
 31
0
  0
ARC
  5
424
100
AcDbEntity
  8
SEMA2D
100
AcDbCircle
370
9
 62
9
  6
_SOLID
 10
4.5622015462
 20
5.4234922311
 30
0
 40
0.0716090237999998
100
AcDbArc
 50
222.624545725403
 51
223.304304109456
  0
ARC
  5
425
100
AcDbEntity
  8
SEMA2D
100
AcDbCircle
370
9
 62
9
  6
_SOLID
 10
4.5067487214
 20
5.377006075
 30
0
 40
0.0048351536000002
100
AcDbArc
 50
340.295714200959
 51
0.00345947906034934
  0
ARC
  5
426
100
AcDbEntity
  8
SEMA2D
100
AcDbCircle
370
9
 62
7
  6
_SOLID
 10
4.5142235784
 20
5.3959228137
 30
0
 40
0.00364915430000012
100
AcDbArc
 50
85.3301755070624
 51
86.9154065493346
  0
ARC
  5
427
100
AcDbEntity
  8
SEMA2D
100
AcDbCircle
370
9
 62
9
  6
_SOLID
 10
4.5143272079
 20
5.3960932511
 30
0
 40
0.00345275020000013
100
AcDbArc
 50
65.4305173384637
 51
86.815033546964
  0
ARC
  5
428
100
AcDbEntity
  8
SEMA2D
100
AcDbCircle
370
9
 62
9
  6
_SOLID
 10
4.4978989181
 20
4.9303843575
 30
0
 40
0.00292428739999995
100
AcDbArc
 50
187.552597504145
 51
202.812006046307
  0
ARC
  5
429
100
AcDbEntity
  8
SEMA2D
100
AcDbCircle
370
9
 62
9
  6
_SOLID
 10
4.4978848572
 20
4.9303818074
 30
0
 40
0.00291001340000019
100
AcDbArc
 50
90
 51
270
  0
ARC
  5
42A
100
AcDbEntity
  8
SEMA2D
100
AcDbCircle
370
9
 62
9
  6
_SOLID
 10
4.4978848572
 20
4.9303818074
 30
0
 40
0.00291001340000019
100
AcDbArc
 50
270
 51
90
  0
ARC
  5
42B
100
AcDbEntity
  8
SEMA2D
100
AcDbCircle
370
9
 62
7
  6
_SOLID
 10
4.5075886262
 20
5.3980258011
 30
0
 40
0.00192317149999965
100
AcDbArc
 50
0.00388207555704929
 51
3.88176051265527
  0
LINE
  5
42C
100
AcDbEntity
  8
SEMA2D
100
AcDbLine
370
9
 62
9
  6
_SOLID
 10
4.4957556687
 20
5.3985563537
 30
0
 11
4.4913401181
 21
5.3984148085
 31
0
  0
LINE
  5
42D
100
AcDbEntity
  8
SEMA2D
100
AcDbLine
370
9
 62
9
  6
_SOLID
 10
4.4986000826
 20
4.9259750747
 30
0
 11
4.4984994384
 21
4.9272078345
 31
0
  0
LINE
  5
42E
100
AcDbEntity
  8
SEMA2D
100
AcDbLine
370
9
 62
7
  6
_SOLID
 10
5.0659238905
 20
4.9250778962
 30
0
 11
5.0687195335
 21
4.9250778962
 31
0
  0
LINE
  5
42F
100
AcDbEntity
  8
SEMA2D
100
AcDbLine
370
9
 62
9
  6
_SOLID
 10
5.0687195335
 20
4.9264242405
 30
0
 11
5.0659238905
 21
4.9264242405
 31
0
  0
LINE
  5
430
100
AcDbEntity
  8
SEMA2D
100
AcDbLine
370
9
 62
7
  6
_SOLID
 10
5.0624696886
 20
4.925974943
 30
0
 11
5.0659238905
 21
4.9257903962
 31
0
  0
LINE
  5
431
100
AcDbEntity
  8
SEMA2D
100
AcDbLine
370
9
 62
7
  6
_SOLID
 10
5.0687195335
 20
4.9265028962
 30
0
 11
5.0716127183
 21
4.9266574697
 31
0
  0
LINE
  5
432
100
AcDbEntity
  8
SEMA2D
100
AcDbLine
370
9
 62
9
  6
_SOLID
 10
5.0716127183
 20
4.9277955742
 30
0
 11
5.0687195335
 21
4.9276613785
 31
0
  0
LINE
  5
433
100
AcDbEntity
  8
SEMA2D
100
AcDbLine
370
9
 62
9
  6
_SOLID
 10
5.0659238905
 20
4.9270428095
 30
0
 11
5.0623665765
 21
4.9272078346
 31
0
  0
LINE
  5
434
100
AcDbEntity
  8
SEMA2D
100
AcDbLine
370
9
 62
9
  6
_SOLID
 10
5.0716127183
 20
4.9717826642
 30
0
 11
5.0687195335
 21
4.9716484685
 31
0
  0
LINE
  5
435
100
AcDbEntity
  8
SEMA2D
100
AcDbLine
370
9
 62
9
  6
_SOLID
 10
5.0687195335
 20
4.9704113305
 30
0
 11
5.0659238905
 21
4.9704113305
 31
0
  0
LINE
  5
436
100
AcDbEntity
  8
SEMA2D
100
AcDbLine
370
9
 62
9
  6
_SOLID
 10
5.0659238905
 20
4.9710298995
 30
0
 11
5.0594446175
 21
4.9713304205
 31
0
  0
LINE
  5
437
100
AcDbEntity
  8
SEMA2D
100
AcDbLine
370
9
 62
9
  6
_SOLID
 10
5.0733789385
 20
4.9792774862
 30
0
 11
5.0596228096
 21
4.9792774862
 31
0
  0
LINE
  5
438
100
AcDbEntity
  8
SEMA2D
100
AcDbLine
370
9
 62
7
  6
_SOLID
 10
5.0567116566
 20
4.9351717085
 30
0
 11
5.0572168764
 21
4.9343983542
 31
0
  0
LINE
  5
439
100
AcDbEntity
  8
SEMA2D
100
AcDbLine
370
9
 62
7
  6
_SOLID
 10
5.0568552679
 20
4.9349527353
 30
0
 11
5.0572189457
 21
4.9343950203
 31
0
  0
LINE
  5
43A
100
AcDbEntity
  8
SEMA2D
100
AcDbLine
370
9
 62
7
  6
_SOLID
 10
5.0567116567
 20
4.9537266432
 30
0
 11
5.0572210988
 21
4.9529464826
 31
0
  0
LINE
  5
43B
100
AcDbEntity
  8
SEMA2D
100
AcDbLine
370
9
 62
7
  6
_SOLID
 10
5.0572210988
 20
4.9529464826
 30
0
 11
5.0575746158
 21
4.9523434152
 31
0
  0
LINE
  5
43C
100
AcDbEntity
  8
SEMA2D
100
AcDbLine
370
9
 62
7
  6
_SOLID
 10
5.0575746158
 20
4.9523434152
 30
0
 11
5.0578889406
 21
4.9517373258
 31
0
  0
LINE
  5
43D
100
AcDbEntity
  8
SEMA2D
100
AcDbLine
370
9
 62
7
  6
_SOLID
 10
5.0578889406
 20
4.9517373258
 30
0
 11
5.0581646323
 21
4.9511260421
 31
0
  0
LINE
  5
43E
100
AcDbEntity
  8
SEMA2D
100
AcDbLine
370
9
 62
7
  6
_SOLID
 10
5.0581646323
 20
4.9511260421
 30
0
 11
5.0584014431
 21
4.9505077024
 31
0
  0
LINE
  5
43F
100
AcDbEntity
  8
SEMA2D
100
AcDbLine
370
9
 62
7
  6
_SOLID
 10
5.0584014431
 20
4.9505077024
 30
0
 11
5.058597402
 21
4.9498834233
 31
0
  0
LINE
  5
440
100
AcDbEntity
  8
SEMA2D
100
AcDbLine
370
9
 62
7
  6
_SOLID
 10
5.058597402
 20
4.9498834233
 30
0
 11
5.0587501238
 21
4.949255566
 31
0
  0
LINE
  5
441
100
AcDbEntity
  8
SEMA2D
100
AcDbLine
370
9
 62
7
  6
_SOLID
 10
5.0587501238
 20
4.949255566
 30
0
 11
5.0588588516
 21
4.9486184122
 31
0
  0
LINE
  5
442
100
AcDbEntity
  8
SEMA2D
100
AcDbLine
370
9
 62
7
  6
_SOLID
 10
5.0588588516
 20
4.9486184122
 30
0
 11
5.058921131
 21
4.9479655235
 31
0
  0
LINE
  5
443
100
AcDbEntity
  8
SEMA2D
100
AcDbLine
370
9
 62
7
  6
_SOLID
 10
5.058921131
 20
4.9479655235
 30
0
 11
5.0589347826
 21
4.9474826324
 31
0
  0
LINE
  5
444
100
AcDbEntity
  8
SEMA2D
100
AcDbLine
370
9
 62
7
  6
_SOLID
 10
5.0565305991
 20
4.9354776978
 30
0
 11
5.0567116566
 21
4.9351717085
 31
0
  0
LINE
  5
445
100
AcDbEntity
  8
SEMA2D
100
AcDbLine
370
9
 62
7
  6
_SOLID
 10
5.0572168764
 20
4.9343983542
 30
0
 11
5.0575769387
 21
4.9337842743
 31
0
  0
LINE
  5
446
100
AcDbEntity
  8
SEMA2D
100
AcDbLine
370
9
 62
7
  6
_SOLID
 10
5.0569700193
 20
4.9718923961
 30
0
 11
5.0573026211
 21
4.9713683603
 31
0
  0
LINE
  5
447
100
AcDbEntity
  8
SEMA2D
100
AcDbLine
370
9
 62
7
  6
_SOLID
 10
5.0573026211
 20
4.9713683603
 30
0
 11
5.0576055764
 21
4.9708419869
 31
0
  0
LINE
  5
448
100
AcDbEntity
  8
SEMA2D
100
AcDbLine
370
9
 62
7
  6
_SOLID
 10
5.0576055764
 20
4.9708419869
 30
0
 11
5.0578796598
 21
4.9703113494
 31
0
  0
LINE
  5
449
100
AcDbEntity
  8
SEMA2D
100
AcDbLine
370
9
 62
7
  6
_SOLID
 10
5.0578796598
 20
4.9703113494
 30
0
 11
5.0581250917
 21
4.969774589
 31
0
  0
LINE
  5
44A
100
AcDbEntity
  8
SEMA2D
100
AcDbLine
370
9
 62
7
  6
_SOLID
 10
5.0581250917
 20
4.969774589
 30
0
 11
5.0583404908
 21
4.9692328101
 31
0
  0
LINE
  5
44B
100
AcDbEntity
  8
SEMA2D
100
AcDbLine
370
9
 62
7
  6
_SOLID
 10
5.0583404908
 20
4.9692328101
 30
0
 11
5.0585246359
 21
4.9686868568
 31
0
  0
LINE
  5
44C
100
AcDbEntity
  8
SEMA2D
100
AcDbLine
370
9
 62
7
  6
_SOLID
 10
5.0585246359
 20
4.9686868568
 30
0
 11
5.0586765509
 21
4.9681360212
 31
0
  0
LINE
  5
44D
100
AcDbEntity
  8
SEMA2D
100
AcDbLine
370
9
 62
7
  6
_SOLID
 10
5.0586765509
 20
4.9681360212
 30
0
 11
5.0587946942
 21
4.9675810581
 31
0
  0
LINE
  5
44E
100
AcDbEntity
  8
SEMA2D
100
AcDbLine
370
9
 62
7
  6
_SOLID
 10
5.0587946942
 20
4.9675810581
 30
0
 11
5.0588782234
 21
4.9670178954
 31
0
  0
LINE
  5
44F
100
AcDbEntity
  8
SEMA2D
100
AcDbLine
370
9
 62
7
  6
_SOLID
 10
5.0588782234
 20
4.9670178954
 30
0
 11
5.0589252482
 21
4.96644169
 31
0
  0
LINE
  5
450
100
AcDbEntity
  8
SEMA2D
100
AcDbLine
370
9
 62
7
  6
_SOLID
 10
5.0589252482
 20
4.96644169
 30
0
 11
5.0589347827
 21
4.966038403
 31
0
  0
LINE
  5
451
100
AcDbEntity
  8
SEMA2D
100
AcDbLine
370
9
 62
7
  6
_SOLID
 10
5.0563720553
 20
4.9357815894
 30
0
 11
5.0565337381
 21
4.9354720571
 31
0
  0
LINE
  5
452
100
AcDbEntity
  8
SEMA2D
100
AcDbLine
370
9
 62
7
  6
_SOLID
 10
5.0575750954
 20
4.9337876129
 30
0
 11
5.0579013858
 21
4.9331566475
 31
0
  0
LINE
  5
453
100
AcDbEntity
  8
SEMA2D
100
AcDbLine
370
9
 62
7
  6
_SOLID
 10
5.0562321082
 20
4.9360887071
 30
0
 11
5.0563746385
 21
4.9357763051
 31
0
  0
LINE
  5
454
100
AcDbEntity
  8
SEMA2D
100
AcDbLine
370
9
 62
7
  6
_SOLID
 10
5.0578997709
 20
4.9331599966
 30
0
 11
5.058186123
 21
4.9325192331
 31
0
  0
LINE
  5
455
100
AcDbEntity
  8
SEMA2D
100
AcDbLine
370
9
 62
7
  6
_SOLID
 10
5.0561106748
 20
4.9363981714
 30
0
 11
5.0562341941
 21
4.9360837894
 31
0
  0
LINE
  5
456
100
AcDbEntity
  8
SEMA2D
100
AcDbLine
370
9
 62
7
  6
_SOLID
 10
5.0581847475
 20
4.932522575
 30
0
 11
5.0584276231
 21
4.9318767808
 31
0
  0
LINE
  5
457
100
AcDbEntity
  8
SEMA2D
100
AcDbLine
370
9
 62
7
  6
_SOLID
 10
5.0555848962
 20
4.9743118066
 30
0
 11
5.0557099657
 21
4.9740164331
 31
0
  0
LINE
  5
458
100
AcDbEntity
  8
SEMA2D
100
AcDbLine
370
9
 62
7
  6
_SOLID
 10
5.0557099657
 20
4.9740164331
 30
0
 11
5.055876044
 21
4.9736583676
 31
0
  0
LINE
  5
459
100
AcDbEntity
  8
SEMA2D
100
AcDbLine
370
9
 62
7
  6
_SOLID
 10
5.055876044
 20
4.9736583676
 30
0
 11
5.0560575058
 21
4.9733044838
 31
0
  0
LINE
  5
45A
100
AcDbEntity
  8
SEMA2D
100
AcDbLine
370
9
 62
7
  6
_SOLID
 10
5.0560575058
 20
4.9733044838
 30
0
 11
5.0562528945
 21
4.9729601144
 31
0
  0
LINE
  5
45B
100
AcDbEntity
  8
SEMA2D
100
AcDbLine
370
9
 62
7
  6
_SOLID
 10
5.0562528945
 20
4.9729601144
 30
0
 11
5.0564606846
 21
4.9726295041
 31
0
  0
LINE
  5
45C
100
AcDbEntity
  8
SEMA2D
100
AcDbLine
370
9
 62
7
  6
_SOLID
 10
5.0564606846
 20
4.9726295041
 30
0
 11
5.0569700193
 21
4.9718923961
 31
0
  0
LINE
  5
45D
100
AcDbEntity
  8
SEMA2D
100
AcDbLine
370
9
 62
7
  6
_SOLID
 10
5.0560074588
 20
4.9367096483
 30
0
 11
5.0561123184
 21
4.9363936313
 31
0
  0
LINE
  5
45E
100
AcDbEntity
  8
SEMA2D
100
AcDbLine
370
9
 62
7
  6
_SOLID
 10
5.0584265019
 20
4.9318800737
 30
0
 11
5.0586228811
 21
4.9312353682
 31
0
  0
LINE
  5
45F
100
AcDbEntity
  8
SEMA2D
100
AcDbLine
370
9
 62
7
  6
_SOLID
 10
5.055922317
 20
4.9370225139
 30
0
 11
5.0560087137
 21
4.9367054916
 31
0
  0
LINE
  5
460
100
AcDbEntity
  8
SEMA2D
100
AcDbLine
370
9
 62
7
  6
_SOLID
 10
5.0586220188
 20
4.9312385795
 30
0
 11
5.0587698711
 21
4.9306027681
 31
0
  0
LINE
  5
461
100
AcDbEntity
  8
SEMA2D
100
AcDbLine
370
9
 62
7
  6
_SOLID
 10
5.0587698711
 20
4.9306027681
 30
0
 11
5.0588654768
 21
4.9300127915
 31
0
  0
LINE
  5
462
100
AcDbEntity
  8
SEMA2D
100
AcDbLine
370
9
 62
7
  6
_SOLID
 10
5.0558549365
 20
4.9373366628
 30
0
 11
5.0559232361
 21
4.9370187382
 31
0
  0
LINE
  5
463
100
AcDbEntity
  8
SEMA2D
100
AcDbLine
370
9
 62
7
  6
_SOLID
 10
5.0589758315
 20
4.9292107504
 30
0
 11
5.0590158022
 21
4.9289851436
 31
0
  0
LINE
  5
464
100
AcDbEntity
  8
SEMA2D
100
AcDbLine
370
9
 62
7
  6
_SOLID
 10
5.0590158022
 20
4.9289851436
 30
0
 11
5.0590688548
 21
4.9287626009
 31
0
  0
LINE
  5
465
100
AcDbEntity
  8
SEMA2D
100
AcDbLine
370
9
 62
7
  6
_SOLID
 10
5.0590688548
 20
4.9287626009
 30
0
 11
5.0591347278
 21
4.9285439471
 31
0
  0
LINE
  5
466
100
AcDbEntity
  8
SEMA2D
100
AcDbLine
370
9
 62
7
  6
_SOLID
 10
5.0591347278
 20
4.9285439471
 30
0
 11
5.0592131981
 21
4.9283298915
 31
0
  0
LINE
  5
467
100
AcDbEntity
  8
SEMA2D
100
AcDbLine
370
9
 62
7
  6
_SOLID
 10
5.0592131981
 20
4.9283298915
 30
0
 11
5.0593040587
 21
4.9281211555
 31
0
  0
LINE
  5
468
100
AcDbEntity
  8
SEMA2D
100
AcDbLine
370
9
 62
7
  6
_SOLID
 10
5.0593040587
 20
4.9281211555
 30
0
 11
5.0594070844
 21
4.9279185305
 31
0
  0
LINE
  5
469
100
AcDbEntity
  8
SEMA2D
100
AcDbLine
370
9
 62
7
  6
_SOLID
 10
5.0594070844
 20
4.9279185305
 30
0
 11
5.0595220255
 21
4.9277227694
 31
0
  0
LINE
  5
46A
100
AcDbEntity
  8
SEMA2D
100
AcDbLine
370
9
 62
7
  6
_SOLID
 10
5.0595220255
 20
4.9277227694
 30
0
 11
5.0596484003
 21
4.9275344977
 31
0
  0
LINE
  5
46B
100
AcDbEntity
  8
SEMA2D
100
AcDbLine
370
9
 62
7
  6
_SOLID
 10
5.0596484003
 20
4.9275344977
 30
0
 11
5.0597856346
 21
4.9273542929
 31
0
  0
LINE
  5
46C
100
AcDbEntity
  8
SEMA2D
100
AcDbLine
370
9
 62
7
  6
_SOLID
 10
5.0597856346
 20
4.9273542929
 30
0
 11
5.0599331711
 21
4.9271827184
 31
0
  0
LINE
  5
46D
100
AcDbEntity
  8
SEMA2D
100
AcDbLine
370
9
 62
7
  6
_SOLID
 10
5.0599331711
 20
4.9271827184
 30
0
 11
5.0600904806
 21
4.9270203216
 31
0
  0
LINE
  5
46E
100
AcDbEntity
  8
SEMA2D
100
AcDbLine
370
9
 62
7
  6
_SOLID
 10
5.0600904806
 20
4.9270203216
 30
0
 11
5.060256938
 21
4.9268677534
 31
0
  0
LINE
  5
46F
100
AcDbEntity
  8
SEMA2D
100
AcDbLine
370
9
 62
7
  6
_SOLID
 10
5.060256938
 20
4.9268677534
 30
0
 11
5.0604319668
 21
4.9267256048
 31
0
  0
LINE
  5
470
100
AcDbEntity
  8
SEMA2D
100
AcDbLine
370
9
 62
7
  6
_SOLID
 10
5.0604319668
 20
4.9267256048
 30
0
 11
5.0606148547
 21
4.926594558
 31
0
  0
LINE
  5
471
100
AcDbEntity
  8
SEMA2D
100
AcDbLine
370
9
 62
7
  6
_SOLID
 10
5.0606148547
 20
4.926594558
 30
0
 11
5.0608049048
 21
4.9264752387
 31
0
  0
LINE
  5
472
100
AcDbEntity
  8
SEMA2D
100
AcDbLine
370
9
 62
7
  6
_SOLID
 10
5.0608049048
 20
4.9264752387
 30
0
 11
5.0610013479
 21
4.9263681413
 31
0
  0
LINE
  5
473
100
AcDbEntity
  8
SEMA2D
100
AcDbLine
370
9
 62
7
  6
_SOLID
 10
5.0610013479
 20
4.9263681413
 30
0
 11
5.0612032799
 21
4.9262734982
 31
0
  0
LINE
  5
474
100
AcDbEntity
  8
SEMA2D
100
AcDbLine
370
9
 62
7
  6
_SOLID
 10
5.0612032799
 20
4.9262734982
 30
0
 11
5.0614097779
 21
4.9261914802
 31
0
  0
LINE
  5
475
100
AcDbEntity
  8
SEMA2D
100
AcDbLine
370
9
 62
7
  6
_SOLID
 10
5.0614097779
 20
4.9261914802
 30
0
 11
5.0616199204
 21
4.9261222274
 31
0
  0
LINE
  5
476
100
AcDbEntity
  8
SEMA2D
100
AcDbLine
370
9
 62
7
  6
_SOLID
 10
5.0616199204
 20
4.9261222274
 30
0
 11
5.0618327974
 21
4.9260658463
 31
0
  0
LINE
  5
477
100
AcDbEntity
  8
SEMA2D
100
AcDbLine
370
9
 62
7
  6
_SOLID
 10
5.0618327974
 20
4.9260658463
 30
0
 11
5.0620475078
 21
4.9260224117
 31
0
  0
LINE
  5
478
100
AcDbEntity
  8
SEMA2D
100
AcDbLine
370
9
 62
7
  6
_SOLID
 10
5.0620475078
 20
4.9260224117
 30
0
 11
5.0622631681
 21
4.9259919646
 31
0
  0
LINE
  5
479
100
AcDbEntity
  8
SEMA2D
100
AcDbLine
370
9
 62
7
  6
_SOLID
 10
5.0622631681
 20
4.9259919646
 30
0
 11
5.0624696913
 21
4.9259749936
 31
0
  0
LINE
  5
47A
100
AcDbEntity
  8
SEMA2D
100
AcDbLine
370
9
 62
7
  6
_SOLID
 10
5.0558050377
 20
4.9376520938
 30
0
 11
5.0558555687
 21
4.9373332723
 31
0
  0
LINE
  5
47B
100
AcDbEntity
  8
SEMA2D
100
AcDbLine
370
9
 62
7
  6
_SOLID
 10
5.0589445225
 20
4.9294277348
 30
0
 11
5.0589758315
 21
4.9292107504
 31
0
  0
LINE
  5
47C
100
AcDbEntity
  8
SEMA2D
100
AcDbLine
370
9
 62
7
  6
_SOLID
 10
5.0589096572
 20
4.9296790526
 30
0
 11
5.0589461761
 21
4.929416077
 31
0
  0
LINE
  5
47D
100
AcDbEntity
  8
SEMA2D
100
AcDbLine
370
9
 62
7
  6
_SOLID
 10
5.0588930337
 20
4.9298028662
 30
0
 11
5.0589213673
 21
4.9295934288
 31
0
  0
LINE
  5
47E
100
AcDbEntity
  8
SEMA2D
100
AcDbLine
370
9
 62
7
  6
_SOLID
 10
5.0557725508
 20
4.9379678791
 30
0
 11
5.0558054292
 21
4.9376490975
 31
0
  0
LINE
  5
47F
100
AcDbEntity
  8
SEMA2D
100
AcDbLine
370
9
 62
7
  6
_SOLID
 10
5.0588654003
 20
4.9300150061
 30
0
 11
5.0588946283
 21
4.9297908705
 31
0
  0
LINE
  5
480
100
AcDbEntity
  8
SEMA2D
100
AcDbLine
370
9
 62
7
  6
_SOLID
 10
5.0557573398
 20
4.9382832848
 30
0
 11
5.0557727471
 21
4.9379652854
 31
0
  0
LINE
  5
481
100
AcDbEntity
  8
SEMA2D
100
AcDbLine
370
9
 62
7
  6
_SOLID
 10
5.0552075405
 20
4.9763132733
 30
0
 11
5.0552122366
 21
4.9760758945
 31
0
  0
LINE
  5
482
100
AcDbEntity
  8
SEMA2D
100
AcDbLine
370
9
 62
7
  6
_SOLID
 10
5.0552122366
 20
4.9760758945
 30
0
 11
5.0552318199
 21
4.9757794295
 31
0
  0
LINE
  5
483
100
AcDbEntity
  8
SEMA2D
100
AcDbLine
370
9
 62
7
  6
_SOLID
 10
5.0552318199
 20
4.9757794295
 30
0
 11
5.0552665854
 21
4.9754884941
 31
0
  0
LINE
  5
484
100
AcDbEntity
  8
SEMA2D
100
AcDbLine
370
9
 62
7
  6
_SOLID
 10
5.0552665854
 20
4.9754884941
 30
0
 11
5.0553162092
 21
4.975204635
 31
0
  0
LINE
  5
485
100
AcDbEntity
  8
SEMA2D
100
AcDbLine
370
9
 62
7
  6
_SOLID
 10
5.0553162092
 20
4.975204635
 30
0
 11
5.0553799798
 21
4.9749295971
 31
0
  0
LINE
  5
486
100
AcDbEntity
  8
SEMA2D
100
AcDbLine
370
9
 62
7
  6
_SOLID
 10
5.0553799798
 20
4.9749295971
 30
0
 11
5.0554568487
 21
4.9746649264
 31
0
  0
LINE
  5
487
100
AcDbEntity
  8
SEMA2D
100
AcDbLine
370
9
 62
7
  6
_SOLID
 10
5.0554568487
 20
4.9746649264
 30
0
 11
5.0555454093
 21
4.9744121288
 31
0
  0
LINE
  5
488
100
AcDbEntity
  8
SEMA2D
100
AcDbLine
370
9
 62
7
  6
_SOLID
 10
5.0557573861
 20
4.9568360377
 30
0
 11
5.0557727471
 21
4.9565202201
 31
0
  0
LINE
  5
489
100
AcDbEntity
  8
SEMA2D
100
AcDbLine
370
9
 62
7
  6
_SOLID
 10
5.0557727471
 20
4.9565202201
 30
0
 11
5.0558054292
 21
4.9562040322
 31
0
  0
LINE
  5
48A
100
AcDbEntity
  8
SEMA2D
100
AcDbLine
370
9
 62
7
  6
_SOLID
 10
5.0558054292
 20
4.9562040322
 30
0
 11
5.0558555687
 21
4.955888207
 31
0
  0
LINE
  5
48B
100
AcDbEntity
  8
SEMA2D
100
AcDbLine
370
9
 62
7
  6
_SOLID
 10
5.0558555687
 20
4.955888207
 30
0
 11
5.0559232361
 21
4.9555736728
 31
0
  0
LINE
  5
48C
100
AcDbEntity
  8
SEMA2D
100
AcDbLine
370
9
 62
7
  6
_SOLID
 10
5.0559232361
 20
4.9555736728
 30
0
 11
5.0560087138
 21
4.9552604262
 31
0
  0
LINE
  5
48D
100
AcDbEntity
  8
SEMA2D
100
AcDbLine
370
9
 62
7
  6
_SOLID
 10
5.0560087138
 20
4.9552604262
 30
0
 11
5.0561123185
 21
4.954948566
 31
0
  0
LINE
  5
48E
100
AcDbEntity
  8
SEMA2D
100
AcDbLine
370
9
 62
7
  6
_SOLID
 10
5.0561123185
 20
4.954948566
 30
0
 11
5.0562341941
 21
4.9546387241
 31
0
  0
LINE
  5
48F
100
AcDbEntity
  8
SEMA2D
100
AcDbLine
370
9
 62
7
  6
_SOLID
 10
5.0562341941
 20
4.9546387241
 30
0
 11
5.0563746385
 21
4.9543312398
 31
0
  0
LINE
  5
490
100
AcDbEntity
  8
SEMA2D
100
AcDbLine
370
9
 62
7
  6
_SOLID
 10
5.0563746385
 20
4.9543312398
 30
0
 11
5.0565337381
 21
4.9540269918
 31
0
  0
LINE
  5
491
100
AcDbEntity
  8
SEMA2D
100
AcDbLine
370
9
 62
7
  6
_SOLID
 10
5.0565337381
 20
4.9540269918
 30
0
 11
5.0567116567
 21
4.9537266432
 31
0
  0
LINE
  5
492
100
AcDbEntity
  8
SEMA2D
100
AcDbLine
370
9
 62
7
  6
_SOLID
 10
5.055207259
 20
5.3984148085
 30
0
 11
5.055207259
 21
4.976314138
 31
0
  0
LINE
  5
493
100
AcDbEntity
  8
SEMA2D
100
AcDbLine
370
9
 62
7
  6
_SOLID
 10
5.055755732
 20
4.9739177606
 30
0
 11
5.055755732
 21
4.9384043342
 31
0
  0
LINE
  5
494
100
AcDbEntity
  8
SEMA2D
100
AcDbLine
370
9
 62
9
  6
_SOLID
 10
5.0564704022
 20
4.9396296588
 30
0
 11
5.0564704
 21
4.9541481139
 31
0
  0
LINE
  5
495
100
AcDbEntity
  8
SEMA2D
100
AcDbLine
370
9
 62
9
  6
_SOLID
 10
5.0564704027
 20
4.9581845943
 30
0
 11
5.0564704034
 21
4.9726154208
 31
0
  0
LINE
  5
496
100
AcDbEntity
  8
SEMA2D
100
AcDbLine
370
9
 62
9
  6
_SOLID
 10
5.0596228096
 20
5.3985563537
 30
0
 11
5.0596228096
 21
4.9792774862
 31
0
  0
LINE
  5
497
100
AcDbEntity
  8
SEMA2D
100
AcDbLine
370
9
 62
7
  6
_SOLID
 10
5.0659238905
 20
5.4015028962
 30
0
 11
5.0659238905
 21
4.9250779399
 31
0
  0
LINE
  5
498
100
AcDbEntity
  8
SEMA2D
100
AcDbLine
370
9
 62
7
  6
_SOLID
 10
5.0687195335
 20
5.4015028962
 30
0
 11
5.0687195335
 21
4.9250779399
 31
0
  0
LINE
  5
499
100
AcDbEntity
  8
SEMA2D
100
AcDbLine
370
9
 62
9
  6
_SOLID
 10
5.0716127183
 20
5.3980259266
 30
0
 11
5.0716127183
 21
4.9266574697
 31
0
  0
LINE
  5
49A
100
AcDbEntity
  8
SEMA2D
100
AcDbLine
370
9
 62
7
  6
_SOLID
 10
5.0733789385
 20
5.3980259266
 30
0
 11
5.0733789385
 21
4.9285548784
 31
0
  0
LINE
  5
49B
100
AcDbEntity
  8
SEMA2D
100
AcDbLine
370
9
 62
9
  6
_SOLID
 10
5.0754510159
 20
5.3770063669
 30
0
 11
5.0754510159
 21
5.3950261503
 31
0
  0
LINE
  5
49C
100
AcDbEntity
  8
SEMA2D
100
AcDbLine
370
9
 62
7
  6
_SOLID
 10
5.0893745266
 20
5.3751656893
 30
0
 11
5.0893745266
 21
5.3947337276
 31
0
  0
LINE
  5
49D
100
AcDbEntity
  8
SEMA2D
100
AcDbLine
370
9
 62
7
  6
_SOLID
 10
5.0893745266
 20
5.3751656893
 30
0
 11
5.0742913017
 21
5.3724543984
 31
0
  0
LINE
  5
49E
100
AcDbEntity
  8
SEMA2D
100
AcDbLine
370
9
 62
7
  6
_SOLID
 10
5.0659238905
 20
5.4007903962
 30
0
 11
5.0569734792
 21
5.4003122047
 31
0
  0
LINE
  5
49F
100
AcDbEntity
  8
SEMA2D
100
AcDbLine
370
9
 62
9
  6
_SOLID
 10
5.0754510159
 20
5.3770063669
 30
0
 11
5.0733789385
 21
5.3770063669
 31
0
  0
LINE
  5
4A0
100
AcDbEntity
  8
SEMA2D
100
AcDbLine
370
9
 62
9
  6
_SOLID
 10
5.0754510159
 20
5.3950261658
 30
0
 11
5.0733789385
 21
5.3950261658
 31
0
  0
LINE
  5
4A1
100
AcDbEntity
  8
SEMA2D
100
AcDbLine
370
9
 62
9
  6
_SOLID
 10
5.0733789385
 20
5.3980259266
 30
0
 11
5.0716127183
 21
5.3980259266
 31
0
  0
LINE
  5
4A2
100
AcDbEntity
  8
SEMA2D
100
AcDbLine
370
9
 62
7
  6
_SOLID
 10
5.0687195335
 20
5.4015028962
 30
0
 11
5.0659238905
 21
5.4015028962
 31
0
  0
LINE
  5
4A3
100
AcDbEntity
  8
SEMA2D
100
AcDbLine
370
9
 62
9
  6
_SOLID
 10
5.0790735983
 20
5.394832623
 30
0
 11
5.0754510159
 21
5.3950261503
 31
0
  0
LINE
  5
4A4
100
AcDbEntity
  8
SEMA2D
100
AcDbLine
370
9
 62
9
  6
_SOLID
 10
5.0687195335
 20
5.3981805001
 30
0
 11
5.0716127183
 21
5.3980259266
 31
0
  0
LINE
  5
4A5
100
AcDbEntity
  8
SEMA2D
100
AcDbLine
370
9
 62
7
  6
_SOLID
 10
5.0687195335
 20
5.4000778962
 30
0
 11
5.0782870842
 21
5.3995667329
 31
0
  0
LINE
  5
4A6
100
AcDbEntity
  8
SEMA2D
100
AcDbLine
370
9
 62
7
  6
_SOLID
 10
5.0893745266
 20
5.3947337276
 30
0
 11
5.079629989
 21
5.3992334019
 31
0
  0
ARC
  5
4A7
100
AcDbEntity
  8
SEMA2D
100
AcDbCircle
370
9
 62
9
  6
_SOLID
 10
5.1260686871
 20
5.4234922311
 30
0
 40
0.0716090237999998
100
AcDbArc
 50
222.624545725403
 51
223.304304109456
  0
ARC
  5
4A8
100
AcDbEntity
  8
SEMA2D
100
AcDbCircle
370
9
 62
9
  6
_SOLID
 10
5.0706158623
 20
5.377006075
 30
0
 40
0.0048351536000002
100
AcDbArc
 50
340.295714200959
 51
0.00345947906034934
  0
ARC
  5
4A9
100
AcDbEntity
  8
SEMA2D
100
AcDbCircle
370
9
 62
7
  6
_SOLID
 10
5.0780902614
 20
5.3959013843
 30
0
 40
0.00367055009999984
100
AcDbArc
 50
65.1983090053063
 51
85.3502841453401
  0
ARC
  5
4AA
100
AcDbEntity
  8
SEMA2D
100
AcDbCircle
370
9
 62
7
  6
_SOLID
 10
5.0780907193
 20
5.3959228137
 30
0
 40
0.00364915430000012
100
AcDbArc
 50
85.3301755070624
 51
86.9154065493346
  0
ARC
  5
4AB
100
AcDbEntity
  8
SEMA2D
100
AcDbCircle
370
9
 62
9
  6
_SOLID
 10
5.0781943488
 20
5.3960932511
 30
0
 40
0.00345275020000013
100
AcDbArc
 50
65.4305173384637
 51
86.815033546964
  0
ARC
  5
4AC
100
AcDbEntity
  8
SEMA2D
100
AcDbCircle
370
9
 62
9
  6
_SOLID
 10
5.061766059
 20
4.9303843575
 30
0
 40
0.00292428739999995
100
AcDbArc
 50
187.552597504145
 51
202.812006046307
  0
ARC
  5
4AD
100
AcDbEntity
  8
SEMA2D
100
AcDbCircle
370
9
 62
9
  6
_SOLID
 10
5.0617519981
 20
4.9303818074
 30
0
 40
0.00291001340000019
100
AcDbArc
 50
90
 51
270
  0
ARC
  5
4AE
100
AcDbEntity
  8
SEMA2D
100
AcDbCircle
370
9
 62
9
  6
_SOLID
 10
5.0617519981
 20
4.9303818074
 30
0
 40
0.00291001340000019
100
AcDbArc
 50
270
 51
90
  0
ARC
  5
4AF
100
AcDbEntity
  8
SEMA2D
100
AcDbCircle
370
9
 62
7
  6
_SOLID
 10
5.0714557671
 20
5.3980258011
 30
0
 40
0.00192317149999965
100
AcDbArc
 50
0.00388207555704929
 51
3.88176051265527
  0
LINE
  5
4B0
100
AcDbEntity
  8
SEMA2D
100
AcDbLine
370
9
 62
9
  6
_SOLID
 10
5.0596228096
 20
5.3985563537
 30
0
 11
5.055207259
 21
5.3984148085
 31
0
  0
LINE
  5
4B1
100
AcDbEntity
  8
SEMA2D
100
AcDbLine
370
9
 62
9
  6
_SOLID
 10
5.0624672235
 20
4.9259750747
 30
0
 11
5.0623665793
 21
4.9272078345
 31
0
  0
LINE
  5
4B2
100
AcDbEntity
  8
SEMA2D
100
AcDbLine
370
9
 62
7
  6
_DOT
 10
4.4720567496
 20
5.3724543984
 30
0
 11
4.5104241608
 21
5.3724543984
 31
0
  0
LINE
  5
4B3
100
AcDbEntity
  8
SEMA2D
100
AcDbLine
370
9
 62
7
  6
_DOT
 10
4.4720567496
 20
5.4015028962
 30
0
 11
4.5048523926
 21
5.4015028962
 31
0
  0
LINE
  5
4B4
100
AcDbEntity
  8
SEMA2D
100
AcDbLine
370
9
 62
7
  6
_DOT
 10
4.5404241608
 20
5.3724543984
 30
0
 11
4.5113007542
 21
5.3724543984
 31
0
  0
LINE
  5
4B5
100
AcDbEntity
  8
SEMA2D
100
AcDbLine
370
9
 62
7
  6
_DOT
 10
4.4913401181
 20
5.4315028962
 30
0
 11
4.4913401181
 21
5.3985563537
 31
0
  0
LINE
  5
4B6
100
AcDbEntity
  8
SEMA2D
100
AcDbLine
370
9
 62
7
  6
_DOT
 10
4.5095117977
 20
5.4315028962
 30
0
 11
4.5095117977
 21
5.399566681
 31
0
  0
LINE
  5
4B7
100
AcDbEntity
  8
SEMA2D
100
AcDbLine
370
9
 62
7
  6
_DOT
 10
4.5255117977
 20
5.4315028962
 30
0
 11
4.5255117977
 21
5.3947316903
 31
0
  0
LINE
  5
4B8
100
AcDbEntity
  8
SEMA2D
100
AcDbLine
370
9
 62
7
  6
_DOT
 10
4.5404241608
 20
4.9266820417
 30
0
 11
4.5077455774
 21
4.9266820417
 31
0
  0
LINE
  5
4B9
100
AcDbEntity
  8
SEMA2D
100
AcDbLine
370
9
 62
7
  6
_DOT
 10
4.8254584613
 20
4.9266820417
 30
0
 11
4.7204584952
 21
4.9265976106
 31
0
  0
LINE
  5
4BA
100
AcDbEntity
  8
SEMA2D
100
AcDbLine
370
9
 62
7
  6
_DOT
 10
4.8250766357
 20
5.4015270194
 30
0
 11
4.7950766454
 21
5.4015028962
 31
0
  0
LINE
  5
4BB
100
AcDbEntity
  8
SEMA2D
100
AcDbLine
370
9
 62
7
  6
_DOT
 10
4.7943777347
 20
5.4315028962
 30
0
 11
4.7943777347
 21
5.4015028962
 31
0
  0
LINE
  5
4BC
100
AcDbEntity
  8
SEMA2D
100
AcDbLine
370
9
 62
7
  6
_DOT
 10
4.6240764819
 20
5.4315028962
 30
0
 11
4.6240764819
 21
5.4015028962
 31
0
  0
LINE
  5
4BD
100
AcDbEntity
  8
SEMA2D
100
AcDbLine
370
9
 62
7
  6
_DOT
 10
5.0359238905
 20
5.3724543984
 30
0
 11
5.0742913017
 21
5.3724543984
 31
0
  0
LINE
  5
4BE
100
AcDbEntity
  8
SEMA2D
100
AcDbLine
370
9
 62
7
  6
_DOT
 10
5.1042913017
 20
5.3724543984
 30
0
 11
5.0742913017
 21
5.3724543984
 31
0
  0
LINE
  5
4BF
100
AcDbEntity
  8
SEMA2D
100
AcDbLine
370
9
 62
7
  6
_DOT
 10
5.055207259
 20
5.4315028962
 30
0
 11
5.055207259
 21
5.4015028962
 31
0
  0
LINE
  5
4C0
100
AcDbEntity
  8
SEMA2D
100
AcDbLine
370
9
 62
7
  6
_DOT
 10
5.0733745266
 20
5.4315028962
 30
0
 11
5.0733745266
 21
5.4015028962
 31
0
  0
LINE
  5
4C1
100
AcDbEntity
  8
SEMA2D
100
AcDbLine
370
9
 62
7
  6
_DOT
 10
5.0893745266
 20
5.4315028962
 30
0
 11
5.0893745266
 21
5.3947337276
 31
0
  0
LINE
  5
4C2
100
AcDbEntity
  8
SEMA2D
100
AcDbLine
370
9
 62
7
  6
_DOT
 10
5.1042913017
 20
4.9266820417
 30
0
 11
5.0712913017
 21
4.9266820417
 31
0
  0
LINE
  5
4C3
100
AcDbEntity
  8
SEMA2D
100
AcDbLine
370
9
 62
7
  6
_DOT
 10
5.4734415887
 20
4.9260846621
 30
0
 11
5.3367871931
 21
4.9263058039
 31
0
  0
LINE
  5
4C4
100
AcDbEntity
  8
SEMA2D
100
AcDbLine
370
9
 62
7
  6
_DOT
 10
5.4742108585
 20
5.4014543486
 30
0
 11
5.4431865323
 21
5.4015045539
 31
0
  0
LINE
  5
4C5
100
AcDbEntity
  8
SEMA2D
100
AcDbLine
370
9
 62
7
  6
_DOT
 10
5.4442108978
 20
5.4315028962
 30
0
 11
5.4442108978
 21
5.4015028962
 31
0
  0
LINE
  5
4C6
100
AcDbEntity
  8
SEMA2D
100
AcDbLine
370
9
 62
7
  6
_DOT
 10
5.1879436228
 20
5.4315028962
 30
0
 11
5.1882284647
 21
5.4007865564
 31
0
  0
LINE
  5
4C7
100
AcDbEntity
  8
SEMA2D
100
AcDbLine
370
9
 62
7
  6
_SOLID
 10
4.6254743034
 20
5.5061623012
 30
0
 11
4.6256259288
 21
5.5032691164
 31
0
  0
LINE
  5
4C8
100
AcDbEntity
  8
SEMA2D
100
AcDbLine
370
9
 62
7
  6
_SOLID
 10
4.6240764819
 20
5.5061623012
 30
0
 11
4.6240764819
 21
5.5089579442
 31
0
  0
LINE
  5
4C9
100
AcDbEntity
  8
SEMA2D
100
AcDbLine
370
9
 62
7
  6
_SOLID
 10
4.6251056183
 20
5.5152590251
 30
0
 11
4.6247753927
 21
5.5089579442
 31
0
  0
LINE
  5
4CA
100
AcDbEntity
  8
SEMA2D
100
AcDbLine
370
9
 62
9
  6
_SOLID
 10
4.6298916343
 20
5.5032691164
 30
0
 11
4.6298163869
 21
5.5061623012
 31
0
  0
LINE
  5
4CB
100
AcDbEntity
  8
SEMA2D
100
AcDbLine
370
9
 62
9
  6
_SOLID
 10
4.629122687
 20
5.5061623012
 30
0
 11
4.629122687
 21
5.5089579442
 31
0
  0
LINE
  5
4CC
100
AcDbEntity
  8
SEMA2D
100
AcDbLine
370
9
 62
9
  6
_SOLID
 10
4.6294695369
 20
5.5089579442
 30
0
 11
4.6296380709
 21
5.5154372167
 31
0
  0
LINE
  5
4CD
100
AcDbEntity
  8
SEMA2D
100
AcDbLine
370
9
 62
7
  6
_SOLID
 10
4.6558885286
 20
5.4997139398
 30
0
 11
4.6602826702
 21
5.4833147801
 31
0
  0
LINE
  5
4CE
100
AcDbEntity
  8
SEMA2D
100
AcDbLine
370
9
 62
9
  6
_SOLID
 10
4.6584178306
 20
5.500590533
 30
0
 11
4.6584178306
 21
5.5015028962
 31
0
  0
LINE
  5
4CF
100
AcDbEntity
  8
SEMA2D
100
AcDbLine
370
9
 62
9
  6
_SOLID
 10
4.6630043209
 20
5.4819333952
 30
0
 11
4.6630043209
 21
5.4834735186
 31
0
  0
LINE
  5
4D0
100
AcDbEntity
  8
SEMA2D
100
AcDbLine
370
9
 62
9
  6
_SOLID
 10
4.6584178476
 20
5.500590533
 30
0
 11
4.6630043209
 21
5.4834735183
 31
0
  0
LINE
  5
4D1
100
AcDbEntity
  8
SEMA2D
100
AcDbLine
370
9
 62
9
  6
_SOLID
 10
4.6694754897
 20
5.4819333952
 30
0
 11
4.6694754897
 21
5.4834735183
 31
0
  0
LINE
  5
4D2
100
AcDbEntity
  8
SEMA2D
100
AcDbLine
370
9
 62
9
  6
_SOLID
 10
4.6740619799
 20
5.500590533
 30
0
 11
4.6740619799
 21
5.5015028962
 31
0
  0
LINE
  5
4D3
100
AcDbEntity
  8
SEMA2D
100
AcDbLine
370
9
 62
9
  6
_SOLID
 10
4.669475457
 20
5.4834735183
 30
0
 11
4.6740619461
 21
5.500590533
 31
0
  0
LINE
  5
4D4
100
AcDbEntity
  8
SEMA2D
100
AcDbLine
370
9
 62
9
  6
_SOLID
 10
4.6725456268
 20
5.4833803436
 30
0
 11
4.6771945251
 21
5.500730295
 31
0
  0
LINE
  5
4D5
100
AcDbEntity
  8
SEMA2D
100
AcDbLine
370
9
 62
9
  6
_SOLID
 10
4.6821818514
 20
5.500730295
 30
0
 11
4.6775329675
 21
5.4833803436
 31
0
  0
LINE
  5
4D6
100
AcDbEntity
  8
SEMA2D
100
AcDbLine
370
9
 62
7
  6
_SOLID
 10
4.6839799425
 20
5.4994348898
 30
0
 11
4.6796605721
 21
5.4833147801
 31
0
  0
LINE
  5
4D7
100
AcDbEntity
  8
SEMA2D
100
AcDbLine
370
9
 62
7
  6
_SOLID
 10
4.6778603163
 20
5.4819333952
 30
0
 11
4.662082926
 21
5.4819333952
 31
0
  0
LINE
  5
4D8
100
AcDbEntity
  8
SEMA2D
100
AcDbLine
370
9
 62
7
  6
_SOLID
 10
4.741292811
 20
5.4819333952
 30
0
 11
4.7570702013
 21
5.4819333952
 31
0
  0
LINE
  5
4D9
100
AcDbEntity
  8
SEMA2D
100
AcDbLine
370
9
 62
9
  6
_SOLID
 10
4.6775329675
 20
5.4833803436
 30
0
 11
4.6725456268
 21
5.4833803436
 31
0
  0
LINE
  5
4DA
100
AcDbEntity
  8
SEMA2D
100
AcDbLine
370
9
 62
9
  6
_SOLID
 10
4.7416201598
 20
5.4833803436
 30
0
 11
4.7466075107
 21
5.4833803436
 31
0
  0
LINE
  5
4DB
100
AcDbEntity
  8
SEMA2D
100
AcDbLine
370
9
 62
9
  6
_SOLID
 10
4.669475457
 20
5.4834735183
 30
0
 11
4.6630043209
 21
5.4834735183
 31
0
  0
LINE
  5
4DC
100
AcDbEntity
  8
SEMA2D
100
AcDbLine
370
9
 62
9
  6
_SOLID
 10
4.7496776705
 20
5.4834735183
 30
0
 11
4.7561488065
 21
5.4834735183
 31
0
  0
LINE
  5
4DD
100
AcDbEntity
  8
SEMA2D
100
AcDbLine
370
9
 62
9
  6
_SOLID
 10
4.7053739953
 20
5.5032691164
 30
0
 11
4.7052987479
 21
5.5061623012
 31
0
  0
LINE
  5
4DE
100
AcDbEntity
  8
SEMA2D
100
AcDbLine
370
9
 62
9
  6
_SOLID
 10
4.704605048
 20
5.5061623012
 30
0
 11
4.704605048
 21
5.5089579442
 31
0
  0
LINE
  5
4DF
100
AcDbEntity
  8
SEMA2D
100
AcDbLine
370
9
 62
9
  6
_SOLID
 10
4.7049518979
 20
5.5089579442
 30
0
 11
4.705044381
 21
5.5125152576
 31
0
  0
LINE
  5
4E0
100
AcDbEntity
  8
SEMA2D
100
AcDbLine
370
9
 62
9
  6
_SOLID
 10
4.6584178476
 20
5.500590533
 30
0
 11
4.6740619461
 21
5.500590533
 31
0
  0
LINE
  5
4E1
100
AcDbEntity
  8
SEMA2D
100
AcDbLine
370
9
 62
9
  6
_SOLID
 10
4.7450911812
 20
5.500590533
 30
0
 11
4.7607352798
 21
5.500590533
 31
0
  0
LINE
  5
4E2
100
AcDbEntity
  8
SEMA2D
100
AcDbLine
370
9
 62
9
  6
_SOLID
 10
4.6771945251
 20
5.500730295
 30
0
 11
4.6821818514
 21
5.500730295
 31
0
  0
LINE
  5
4E3
100
AcDbEntity
  8
SEMA2D
100
AcDbLine
370
9
 62
9
  6
_SOLID
 10
4.736971276
 20
5.500730295
 30
0
 11
4.7419586022
 21
5.500730295
 31
0
  0
LINE
  5
4E4
100
AcDbEntity
  8
SEMA2D
100
AcDbLine
370
9
 62
7
  6
_SOLID
 10
4.7735554872
 20
5.5015028962
 30
0
 11
4.7719240196
 21
5.5015028962
 31
0
  0
LINE
  5
4E5
100
AcDbEntity
  8
SEMA2D
100
AcDbLine
370
9
 62
7
  6
_SOLID
 10
4.7674687162
 20
5.5015028962
 30
0
 11
4.7311841494
 21
5.5015028962
 31
0
  0
LINE
  5
4E6
100
AcDbEntity
  8
SEMA2D
100
AcDbLine
370
9
 62
7
  6
_SOLID
 10
4.7916659907
 20
5.5015028962
 30
0
 11
4.6274871366
 21
5.5015028962
 31
0
  0
LINE
  5
4E7
100
AcDbEntity
  8
SEMA2D
100
AcDbLine
370
9
 62
7
  6
_SOLID
 10
4.6408109335
 20
5.5015028962
 30
0
 11
4.6411192583
 21
5.5015028962
 31
0
  0
LINE
  5
4E8
100
AcDbEntity
  8
SEMA2D
100
AcDbLine
370
9
 62
7
  6
_SOLID
 10
4.6447908334
 20
5.5015028962
 30
0
 11
4.647058558
 21
5.5015028962
 31
0
  0
LINE
  5
4E9
100
AcDbEntity
  8
SEMA2D
100
AcDbLine
370
9
 62
7
  6
_SOLID
 10
4.6516844107
 20
5.5015028962
 30
0
 11
4.687968977
 21
5.5015028962
 31
0
  0
LINE
  5
4EA
100
AcDbEntity
  8
SEMA2D
100
AcDbLine
370
9
 62
7
  6
_SOLID
 10
4.7221369564
 20
5.5015028962
 30
0
 11
4.7237475781
 21
5.5015028962
 31
0
  0
LINE
  5
4EB
100
AcDbEntity
  8
SEMA2D
100
AcDbLine
370
9
 62
7
  6
_SOLID
 10
4.7735554872
 20
5.5015028962
 30
0
 11
4.7743622939
 21
5.5015028962
 31
0
  0
LINE
  5
4EC
100
AcDbEntity
  8
SEMA2D
100
AcDbLine
370
9
 62
7
  6
_SOLID
 10
4.778033869
 20
5.5015028962
 30
0
 11
4.7783421939
 21
5.5015028962
 31
0
  0
LINE
  5
4ED
100
AcDbEntity
  8
SEMA2D
100
AcDbLine
370
9
 62
9
  6
_SOLID
 10
4.7142012294
 20
5.5089579442
 30
0
 11
4.7141087517
 21
5.5125152582
 31
0
  0
LINE
  5
4EE
100
AcDbEntity
  8
SEMA2D
100
AcDbLine
370
9
 62
9
  6
_SOLID
 10
4.7145480793
 20
5.5061623012
 30
0
 11
4.7145480793
 21
5.5089579442
 31
0
  0
LINE
  5
4EF
100
AcDbEntity
  8
SEMA2D
100
AcDbLine
370
9
 62
9
  6
_SOLID
 10
4.713779132
 20
5.5032691164
 30
0
 11
4.7138543795
 21
5.5061623012
 31
0
  0
LINE
  5
4F0
100
AcDbEntity
  8
SEMA2D
100
AcDbLine
370
9
 62
9
  6
_SOLID
 10
4.7935271985
 20
5.5032691164
 30
0
 11
4.6256259288
 21
5.5032691164
 31
0
  0
LINE
  5
4F1
100
AcDbEntity
  8
SEMA2D
100
AcDbLine
370
9
 62
7
  6
_SOLID
 10
4.7950766454
 20
5.5061623012
 30
0
 11
4.6240764819
 21
5.5061623012
 31
0
  0
LINE
  5
4F2
100
AcDbEntity
  8
SEMA2D
100
AcDbLine
370
9
 62
7
  6
_SOLID
 10
4.7950766454
 20
5.5089579442
 30
0
 11
4.6240764819
 21
5.5089579442
 31
0
  0
LINE
  5
4F3
100
AcDbEntity
  8
SEMA2D
100
AcDbLine
370
9
 62
7
  6
_SOLID
 10
4.7580324624
 20
5.5196745757
 30
0
 11
4.7533080646
 21
5.5196745757
 31
0
  0
LINE
  5
4F4
100
AcDbEntity
  8
SEMA2D
100
AcDbLine
370
9
 62
7
  6
_SOLID
 10
4.7531968882
 20
5.5196745757
 30
0
 11
4.7526515478
 21
5.5196745757
 31
0
  0
LINE
  5
4F5
100
AcDbEntity
  8
SEMA2D
100
AcDbLine
370
9
 62
7
  6
_SOLID
 10
4.7524743458
 20
5.5196745757
 30
0
 11
4.7405076599
 21
5.5196745757
 31
0
  0
LINE
  5
4F6
100
AcDbEntity
  8
SEMA2D
100
AcDbLine
370
9
 62
7
  6
_SOLID
 10
4.7403955427
 20
5.5196745757
 30
0
 11
4.7377285486
 21
5.5196745757
 31
0
  0
LINE
  5
4F7
100
AcDbEntity
  8
SEMA2D
100
AcDbLine
370
9
 62
7
  6
_SOLID
 10
4.7375847137
 20
5.5196745757
 30
0
 11
4.735671145
 21
5.5196745757
 31
0
  0
LINE
  5
4F8
100
AcDbEntity
  8
SEMA2D
100
AcDbLine
370
9
 62
7
  6
_SOLID
 10
4.7893944891
 20
5.5196745757
 30
0
 11
4.6297586384
 21
5.5196745757
 31
0
  0
LINE
  5
4F9
100
AcDbEntity
  8
SEMA2D
100
AcDbLine
370
9
 62
7
  6
_SOLID
 10
4.661120665
 20
5.5196745757
 30
0
 11
4.6814280878
 21
5.5196745757
 31
0
  0
LINE
  5
4FA
100
AcDbEntity
  8
SEMA2D
100
AcDbLine
370
9
 62
7
  6
_SOLID
 10
4.6815717285
 20
5.5196745757
 30
0
 11
4.6834819824
 21
5.5196745757
 31
0
  0
LINE
  5
4FB
100
AcDbEntity
  8
SEMA2D
100
AcDbLine
370
9
 62
7
  6
_SOLID
 10
4.7394925552
 20
5.4833147801
 30
0
 11
4.7351731848
 21
5.4994348898
 31
0
  0
LINE
  5
4FC
100
AcDbEntity
  8
SEMA2D
100
AcDbLine
370
9
 62
9
  6
_SOLID
 10
4.7416201598
 20
5.4833803436
 30
0
 11
4.736971276
 21
5.500730295
 31
0
  0
LINE
  5
4FD
100
AcDbEntity
  8
SEMA2D
100
AcDbLine
370
9
 62
9
  6
_SOLID
 10
4.7450911474
 20
5.500590533
 30
0
 11
4.7450911474
 21
5.5015028962
 31
0
  0
LINE
  5
4FE
100
AcDbEntity
  8
SEMA2D
100
AcDbLine
370
9
 62
9
  6
_SOLID
 10
4.7419586022
 20
5.500730295
 30
0
 11
4.7466075107
 21
5.4833803436
 31
0
  0
LINE
  5
4FF
100
AcDbEntity
  8
SEMA2D
100
AcDbLine
370
9
 62
9
  6
_SOLID
 10
4.7450911812
 20
5.500590533
 30
0
 11
4.7496776705
 21
5.4834735183
 31
0
  0
LINE
  5
500
100
AcDbEntity
  8
SEMA2D
100
AcDbLine
370
9
 62
9
  6
_SOLID
 10
4.7496776377
 20
5.4834735183
 30
0
 11
4.7496776377
 21
5.4819333952
 31
0
  0
LINE
  5
501
100
AcDbEntity
  8
SEMA2D
100
AcDbLine
370
9
 62
9
  6
_SOLID
 10
4.7561488065
 20
5.4834735186
 30
0
 11
4.7561488065
 21
5.4819333952
 31
0
  0
LINE
  5
502
100
AcDbEntity
  8
SEMA2D
100
AcDbLine
370
9
 62
9
  6
_SOLID
 10
4.7607352967
 20
5.5005905332
 30
0
 11
4.7607352967
 21
5.5015028962
 31
0
  0
LINE
  5
503
100
AcDbEntity
  8
SEMA2D
100
AcDbLine
370
9
 62
9
  6
_SOLID
 10
4.7561488065
 20
5.4834735183
 30
0
 11
4.7607352798
 21
5.500590533
 31
0
  0
LINE
  5
504
100
AcDbEntity
  8
SEMA2D
100
AcDbLine
370
9
 62
7
  6
_SOLID
 10
4.7588704571
 20
5.4833147801
 30
0
 11
4.7632645987
 21
5.4997139397
 31
0
  0
LINE
  5
505
100
AcDbEntity
  8
SEMA2D
100
AcDbLine
370
9
 62
7
  6
_SOLID
 10
4.7943777347
 20
5.5089579442
 30
0
 11
4.794047509
 21
5.5152590251
 31
0
  0
LINE
  5
506
100
AcDbEntity
  8
SEMA2D
100
AcDbLine
370
9
 62
9
  6
_SOLID
 10
4.7896835904
 20
5.5089579442
 30
0
 11
4.7895150578
 21
5.5154372172
 31
0
  0
LINE
  5
507
100
AcDbEntity
  8
SEMA2D
100
AcDbLine
370
9
 62
9
  6
_SOLID
 10
4.7900304403
 20
5.5061623012
 30
0
 11
4.7900304403
 21
5.5089579442
 31
0
  0
LINE
  5
508
100
AcDbEntity
  8
SEMA2D
100
AcDbLine
370
9
 62
7
  6
_SOLID
 10
4.7950766454
 20
5.5061623012
 30
0
 11
4.7950766454
 21
5.5089579442
 31
0
  0
LINE
  5
509
100
AcDbEntity
  8
SEMA2D
100
AcDbLine
370
9
 62
9
  6
_SOLID
 10
4.789261493
 20
5.5032691164
 30
0
 11
4.7893367405
 21
5.5061623012
 31
0
  0
LINE
  5
50A
100
AcDbEntity
  8
SEMA2D
100
AcDbLine
370
9
 62
7
  6
_SOLID
 10
4.7936788239
 20
5.5061623012
 30
0
 11
4.7935271985
 21
5.5032691164
 31
0
  0
ARC
  5
50B
100
AcDbEntity
  8
SEMA2D
100
AcDbCircle
370
9
 62
7
  6
_SOLID
 10
4.6297586378
 20
5.5150151707
 30
0
 40
0.00465940499999995
100
AcDbArc
 50
63.9864208037063
 51
176.999999996871
  0
ARC
  5
50C
100
AcDbEntity
  8
SEMA2D
100
AcDbCircle
370
9
 62
7
  6
_SOLID
 10
4.6274871366
 20
5.5033666582
 30
0
 40
0.00186376200000016
100
AcDbArc
 50
182.999999997402
 51
270
  0
ARC
  5
50D
100
AcDbEntity
  8
SEMA2D
100
AcDbCircle
370
9
 62
9
  6
_SOLID
 10
4.6440482629
 20
5.5482759984
 30
0
 40
0.0358613890000004
100
AcDbArc
 50
246.307351745599
 51
292.585290024196
  0
ARC
  5
50E
100
AcDbEntity
  8
SEMA2D
100
AcDbCircle
370
9
 62
9
  6
_SOLID
 10
4.6419982337
 20
5.518345545
 30
0
 40
0.00214417659999988
100
AcDbArc
 50
262.538132375774
 51
265.621181852674
  0
ARC
  5
50F
100
AcDbEntity
  8
SEMA2D
100
AcDbCircle
370
9
 62
7
  6
_SOLID
 10
4.661815836
 20
5.5098072926
 30
0
 40
0.0093188099999999
100
AcDbArc
 50
67.4151843232413
 51
112.585565410241
  0
ARC
  5
510
100
AcDbEntity
  8
SEMA2D
100
AcDbCircle
370
9
 62
9
  6
_SOLID
 10
4.6599685049
 20
5.5100023753
 30
0
 40
0.00559128649999963
100
AcDbArc
 50
67.414728207326
 51
112.585271518097
  0
ARC
  5
511
100
AcDbEntity
  8
SEMA2D
100
AcDbCircle
370
9
 62
9
  6
_SOLID
 10
4.652925417
 20
5.5001144646
 30
0
 40
0.00286455429999988
100
AcDbArc
 50
16.428501687934
 51
29.0083032750788
  0
ARC
  5
512
100
AcDbEntity
  8
SEMA2D
100
AcDbCircle
370
9
 62
7
  6
_SOLID
 10
4.6532640068
 20
5.4987072532
 30
0
 40
0.00279564299999979
100
AcDbArc
 50
14.9999999996979
 51
90
  0
ARC
  5
513
100
AcDbEntity
  8
SEMA2D
100
AcDbCircle
370
9
 62
7
  6
_SOLID
 10
4.662082926
 20
5.4837971572
 30
0
 40
0.00186376200000016
100
AcDbArc
 50
194.999999999687
 51
270
  0
ARC
  5
514
100
AcDbEntity
  8
SEMA2D
100
AcDbCircle
370
9
 62
9
  6
_SOLID
 10
4.6963988069
 20
5.0351261551
 30
0
 40
0.4660000224
100
AcDbArc
 50
92.3618796446335
 51
92.7474214606877
  0
ARC
  5
515
100
AcDbEntity
  8
SEMA2D
100
AcDbCircle
370
9
 62
9
  6
_SOLID
 10
4.7077287286
 20
5.5482739318
 30
0
 40
0.0358592876000001
100
AcDbArc
 50
247.414184494079
 51
265.706947749788
  0
ARC
  5
516
100
AcDbEntity
  8
SEMA2D
100
AcDbCircle
370
9
 62
7
  6
_SOLID
 10
4.6777360786
 20
5.548080941
 30
0
 40
0.0321338893000003
100
AcDbArc
 50
247.414725831312
 51
292.585271073392
  0
ARC
  5
517
100
AcDbEntity
  8
SEMA2D
100
AcDbCircle
370
9
 62
7
  6
_SOLID
 10
4.6936563211
 20
5.5098072926
 30
0
 40
0.0093188099999999
100
AcDbArc
 50
67.4138369682287
 51
112.584204782428
  0
ARC
  5
518
100
AcDbEntity
  8
SEMA2D
100
AcDbCircle
370
9
 62
9
  6
_SOLID
 10
4.69180899
 20
5.5100023753
 30
0
 40
0.00559128649999963
100
AcDbArc
 50
67.4147281892532
 51
112.585271518097
  0
ARC
  5
519
100
AcDbEntity
  8
SEMA2D
100
AcDbCircle
370
9
 62
9
  6
_SOLID
 10
4.6869528247
 20
5.5001517254
 30
0
 40
0.00308606410000012
100
AcDbArc
 50
154.017167339968
 51
164.839288235359
  0
ARC
  5
51A
100
AcDbEntity
  8
SEMA2D
100
AcDbCircle
370
9
 62
7
  6
_SOLID
 10
4.6866792355
 20
5.4987072532
 30
0
 40
0.00279564299999979
100
AcDbArc
 50
90
 51
165.000000000302
  0
ARC
  5
51B
100
AcDbEntity
  8
SEMA2D
100
AcDbCircle
370
9
 62
9
  6
_SOLID
 10
4.6866787372
 20
5.4987099717
 30
0
 40
0.00279452670000024
100
AcDbArc
 50
90
 51
164.964796953313
  0
ARC
  5
51C
100
AcDbEntity
  8
SEMA2D
100
AcDbCircle
370
9
 62
7
  6
_SOLID
 10
4.6778603163
 20
5.4837971572
 30
0
 40
0.00186376200000016
100
AcDbArc
 50
270
 51
345.000000000313
  0
ARC
  5
51D
100
AcDbEntity
  8
SEMA2D
100
AcDbCircle
370
9
 62
9
  6
_SOLID
 10
4.6721262816
 20
5.5172328129
 30
0
 40
0.000779831600000058
100
AcDbArc
 50
258.527506195923
 51
270
  0
ARC
  5
51E
100
AcDbEntity
  8
SEMA2D
100
AcDbCircle
370
9
 62
9
  6
_SOLID
 10
4.6717088712
 20
5.5170756527
 30
0
 40
0.000548211699999968
100
AcDbArc
 50
252.576180704195
 51
270
  0
ARC
  5
51F
100
AcDbEntity
  8
SEMA2D
100
AcDbCircle
370
9
 62
9
  6
_SOLID
 10
4.6904203188
 20
6.1229775874
 30
0
 40
0.6398469661
100
AcDbArc
 50
268.124134915988
 51
268.399183338312
  0
ARC
  5
520
100
AcDbEntity
  8
SEMA2D
100
AcDbCircle
370
9
 62
9
  6
_SOLID
 10
4.7231222493
 20
5.0433726065
 30
0
 40
0.4577454147
100
AcDbArc
 50
87.249102259395
 51
87.6415966490176
  0
ARC
  5
521
100
AcDbEntity
  8
SEMA2D
100
AcDbCircle
370
9
 62
7
  6
_SOLID
 10
4.7254968062
 20
5.5098072926
 30
0
 40
0.0093188099999999
100
AcDbArc
 50
67.4147111419945
 51
112.585293461063
  0
ARC
  5
522
100
AcDbEntity
  8
SEMA2D
100
AcDbCircle
370
9
 62
9
  6
_SOLID
 10
4.7273441372
 20
5.5100023753
 30
0
 40
0.00559128649999963
100
AcDbArc
 50
67.4147274699674
 51
112.585271073393
  0
ARC
  5
523
100
AcDbEntity
  8
SEMA2D
100
AcDbCircle
370
9
 62
9
  6
_SOLID
 10
4.7114244013
 20
5.5482739237
 30
0
 40
0.0358592789999999
100
AcDbArc
 50
274.293057794622
 51
292.58581682108
  0
ARC
  5
524
100
AcDbEntity
  8
SEMA2D
100
AcDbCircle
370
9
 62
7
  6
_SOLID
 10
4.7095765637
 20
5.548080941
 30
0
 40
0.0321338893000003
100
AcDbArc
 50
247.414730552486
 51
292.585269391101
  0
ARC
  5
525
100
AcDbEntity
  8
SEMA2D
100
AcDbCircle
370
9
 62
9
  6
_SOLID
 10
4.7322002826
 20
5.5001517192
 30
0
 40
0.00308608509999964
100
AcDbArc
 50
15.160730362819
 51
25.9790654299612
  0
ARC
  5
526
100
AcDbEntity
  8
SEMA2D
100
AcDbCircle
370
9
 62
9
  6
_SOLID
 10
4.7324719785
 20
5.498700625
 30
0
 40
0.00280393159999992
100
AcDbArc
 50
78.7657276106184
 51
90
  0
ARC
  5
527
100
AcDbEntity
  8
SEMA2D
100
AcDbCircle
370
9
 62
7
  6
_SOLID
 10
4.7324738918
 20
5.4987072532
 30
0
 40
0.00279564299999979
100
AcDbArc
 50
14.9999999996979
 51
90
  0
ARC
  5
528
100
AcDbEntity
  8
SEMA2D
100
AcDbCircle
370
9
 62
9
  6
_SOLID
 10
4.732475724
 20
5.4987112543
 30
0
 40
0.00279280370000023
100
AcDbArc
 50
15.016890559862
 51
77.9305806834943
  0
ARC
  5
529
100
AcDbEntity
  8
SEMA2D
100
AcDbCircle
370
9
 62
7
  6
_SOLID
 10
4.741292811
 20
5.4837971572
 30
0
 40
0.00186376200000016
100
AcDbArc
 50
194.999999999687
 51
270
  0
ARC
  5
52A
100
AcDbEntity
  8
SEMA2D
100
AcDbCircle
370
9
 62
9
  6
_SOLID
 10
4.7470268462
 20
5.5172328049
 30
0
 40
0.000779825099999965
100
AcDbArc
 50
270
 51
281.474864085819
  0
ARC
  5
52B
100
AcDbEntity
  8
SEMA2D
100
AcDbCircle
370
9
 62
9
  6
_SOLID
 10
4.7474441729
 20
5.5170758117
 30
0
 40
0.000548381799999831
100
AcDbArc
 50
270
 51
287.419456216525
  0
ARC
  5
52C
100
AcDbEntity
  8
SEMA2D
100
AcDbCircle
370
9
 62
7
  6
_SOLID
 10
4.7573372913
 20
5.5098072926
 30
0
 40
0.0093188099999999
100
AcDbArc
 50
67.4144625201323
 51
112.584720224617
  0
ARC
  5
52D
100
AcDbEntity
  8
SEMA2D
100
AcDbCircle
370
9
 62
9
  6
_SOLID
 10
4.7591846223
 20
5.5100023753
 30
0
 40
0.00559128649999963
100
AcDbArc
 50
67.4147274699674
 51
112.585271053118
  0
ARC
  5
52E
100
AcDbEntity
  8
SEMA2D
100
AcDbCircle
370
9
 62
9
  6
_SOLID
 10
4.7662277087
 20
5.5001144653
 30
0
 40
0.00286455260000018
100
AcDbArc
 50
150.99335432309
 51
163.571127198581
  0
ARC
  5
52F
100
AcDbEntity
  8
SEMA2D
100
AcDbCircle
370
9
 62
9
  6
_SOLID
 10
4.7658446033
 20
5.4988134479
 30
0
 40
0.00280064709999994
100
AcDbArc
 50
106.189983238669
 51
109.992047553196
  0
ARC
  5
530
100
AcDbEntity
  8
SEMA2D
100
AcDbCircle
370
9
 62
7
  6
_SOLID
 10
4.7658891205
 20
5.4987072532
 30
0
 40
0.00279564299999979
100
AcDbArc
 50
90
 51
165.000000000302
  0
ARC
  5
531
100
AcDbEntity
  8
SEMA2D
100
AcDbCircle
370
9
 62
7
  6
_SOLID
 10
4.7570702013
 20
5.4837971572
 30
0
 40
0.00186376200000016
100
AcDbArc
 50
270
 51
345.000000000313
  0
ARC
  5
532
100
AcDbEntity
  8
SEMA2D
100
AcDbCircle
370
9
 62
7
  6
_SOLID
 10
4.7732575338
 20
5.548080941
 30
0
 40
0.0321338893000003
100
AcDbArc
 50
247.41473160805
 51
296.013583316701
  0
ARC
  5
533
100
AcDbEntity
  8
SEMA2D
100
AcDbCircle
370
9
 62
7
  6
_SOLID
 10
4.7893944896
 20
5.5150151707
 30
0
 40
0.00465940499999995
100
AcDbArc
 50
2.99999999740246
 51
116.013579196294
  0
ARC
  5
534
100
AcDbEntity
  8
SEMA2D
100
AcDbCircle
370
9
 62
7
  6
_SOLID
 10
4.7916659907
 20
5.5033666582
 30
0
 40
0.00186376200000016
100
AcDbArc
 50
270
 51
-2.99999999740189
  0
ARC
  5
535
100
AcDbEntity
  8
SEMA2D
100
AcDbCircle
370
9
 62
9
  6
_SOLID
 10
4.7751048642
 20
5.5482760216
 30
0
 40
0.0358614102999999
100
AcDbArc
 50
247.414724446957
 51
293.692635834472
  0
ARC
  5
536
100
AcDbEntity
  8
SEMA2D
100
AcDbCircle
370
9
 62
9
  6
_SOLID
 10
4.7771548989
 20
5.518344799
 30
0
 40
0.00214343340000012
100
AcDbArc
 50
274.379837010753
 51
277.464273081648
  0
ARC
  5
537
100
AcDbEntity
  8
SEMA2D
100
AcDbCircle
370
9
 62
9
  6
_SOLID
 10
4.728732141
 20
6.1229990965
 30
0
 40
0.6398684855
100
AcDbArc
 50
271.600823505577
 51
271.875861787894
  0
ENDSEC
  0
SECTION
  2
OBJECTS
  0
DICTIONARY
  5
548
100
AcDbDictionary
  3
ACAD_GROUP
350
549
  3
ACAD_MATERIAL
350
54A
  3
ACAD_WIPEOUT_VARS
350
54B
  3
ACAD_MLINESTYLE
350
54C
  3
ACAD_LAYOUT
350
54D
  0
DICTIONARY
  5
549
330
548
100
AcDbDictionary
  0
DICTIONARY
  5
54A
330
548
100
AcDbDictionary
  0
WIPEOUTVARIABLES
  5
54B
330
548
100
AcDbWipeoutVariables
 70
1
  0
DICTIONARY
  5
54C
330
548
100
AcDbDictionary
  3
STANDARD
350
54E
  0
MLINESTYLE
  5
54E
100
AcDbMlineStyle
  2
STANDARD
 70
0
  3

 62
256
 51
90
 52
90
 71
2
 49
0.5
 62
256
  6
ByLayer
 49
-0.5
 62
256
  6
ByLayer
  0
DICTIONARY
  5
54D
100
AcDbDictionary
281
1
  3
Model
350
538
  0
LAYOUT
  5
538
102
{ACAD_REACTORS
330
54D
102
}
330
54D
100
AcDbPlotSettings
  1

  2
none_device
  4

  6

 40
0
 41
0
 42
0
 43
0
 44
0
 45
0
 46
0
 47
0
 48
0
 49
0
 70
1712
 72
1
 73
0
 74
5
 75
16
 76
0
 77
0
 78
100
140
0
141
0
142
1
143
1
147
1
148
0
149
0
100
AcDbLayout
  1
Model
 70
1
 71
1
 10
4.4636567496
 20
4.9250778962
 11
5.48641907259105
 21
5.557156076133
 12
0
 22
0
 32
0
 14
4.4636567496
 24
4.9250778962
 34
0
 15
5.48641907259105
 25
5.557156076133
 35
0
146
0
 13
0
 23
0
 33
0
 16
1
 26
0
 36
0
 17
0
 27
1
 37
0
 76
0
330
2A
  0
DICTIONARY
  5
54F
100
AcDbDictionary
280
1
  3
XINFO
360
550
  0
XRECORD
  5
550
102
{ACAD_REACTORS
330
54F
102
}
330
54F
100
AcDbXrecord
280
0
310
0000000002001400
311
461C6570F83B5F96
  0
ENDSEC
  0
EOF
