999
Created by Soft Gold Ltd. www.cadsofttools.com
999

  0
SECTION
  2
HEADER
  9
$ACADVER
  1
AC1021
  9
$DWGCODEPAGE
  3
ANSI_1252
  9
$CLAYER
  8
0
  9
$CELTYPE
  6
BYLAYER
  9
$CELTSCALE
 40
1
  9
$CELWEIGHT
370
-1
  9
$DIMALT
 70
0
  9
$DIMALTF
 40
1
  9
$DIMPOST
  1

  9
$DIMAPOST
  1

  9
$DIMSCALE
 40
1
  9
$DIMASZ
 40
0.18
  9
$DIMCLRD
 70
0
  9
$DIMCLRE
 70
0
  9
$DIMCLRT
 70
0
  9
$DIMEXE
 40
0.18
  9
$DIMEXO
 40
0.0625
  9
$DIMGAP
 40
0.0625
  9
$DIMLFAC
 40
1
  9
$DIMDEC
 70
4
  9
$DIMTAD
 70
0
  9
$DIMCEN
 40
0.09
  9
$DIMTIH
 70
1
  9
$DIMTIX
 70
0
  9
$DIMTOH
 70
1
  9
$DIMSE1
 70
0
  9
$DIMSE2
 70
0
  9
$DIMSD1
 70
0
  9
$DIMSD2
 70
0
  9
$DIMLWD
 70
-1
  9
$DIMLWE
 70
-1
  9
$DIMSAH
 70
0
  9
$DIMBLK
  1

  9
$DIMBLK1
  1

  9
$DIMBLK2
  1

  9
$DIMLDRBLK
  1

  9
$DIMSTYLE
  2
STANDARD
  9
$DIMTP
 40
0
  9
$DIMTM
 40
0
  9
$DIMTXT
 40
0.18
  9
$DIMLUNIT
 70
2
  9
$DIMDSEP
 70
46
  9
$DIMTXSTY
  7
STANDARD
  9
$TEXTSIZE
 40
0.18
  9
$TEXTSTYLE
  7
STANDARD
  9
$HANDSEED
  5
0000000000000392
  9
$FILLETRAD
 40
0.5
  9
$INSUNITS
 70
4
  9
$LIMMIN
 10
3.85904584309561
 20
4.52867357870838
  9
$LIMMAX
 10
4.31773287213952
 20
5.20002138062463
  9
$FILLMODE
 70
1
  9
$LTSCALE
 40
1
  9
$MEASUREMENT
 70
0
  9
$ATTMODE
 70
1
  9
$PDMODE
 70
0
  9
$PDSIZE
 40
0
  9
$TILEMODE
 70
1
  9
$UCSORG
 10
0
 20
0
 30
0
  9
$UCSXDIR
 10
1
 20
0
 30
0
  9
$UCSYDIR
 10
0
 20
1
 30
0
  9
$INSBASE
 10
0
 20
0
 30
0
  9
$XCLIPFRAME
290
1
  9
$DIMASSOC
280
2
  9
$TDCREATE
 40
2459018.56743415
  9
$TDINDWG
 40
2.66203703703704E-7
  9
$TDUPDATE
 40
2459018.56743442
  0
ENDSEC
  0
SECTION
  2
CLASSES
  0
CLASS
  1
IMAGE
  2
AcDbRasterImage
  3
ISM
 90
2175
 91
1
280
0
281
1
  0
CLASS
  1
IMAGEDEF
  2
AcDbRasterImageDef
  3
ISM
 90
0
 91
1
280
0
281
0
  0
CLASS
  1
WIPEOUT
  2
AcDbWipeout
  3
"WipeOut"
 90
2175
 91
1
280
0
281
1
  0
CLASS
  1
WIPEOUTVARIABLES
  2
AcDbWipeoutVariables
  3
"WipeOut"
 90
0
 91
1
280
0
281
0
  0
CLASS
  1
MPOLYGON
  2
AcDbMPolygon
  3
"AcMPolygonObj15"
 90
3071
 91
1
280
0
281
1
  0
ENDSEC
  0
SECTION
  2
TABLES
  0
TABLE
  2
APPID
  5
37A
100
AcDbSymbolTable
  0
APPID
  5
37B
100
AcDbSymbolTableRecord
100
AcDbRegAppTableRecord
  2
ACAD
 70
0
  0
APPID
  5
12
100
AcDbSymbolTableRecord
100
AcDbRegAppTableRecord
  2
CSTINVENTORY
 70
0
  0
APPID
  5
37C
100
AcDbSymbolTableRecord
100
AcDbRegAppTableRecord
  2
PE_URL
 70
0
  0
ENDTAB
  0
TABLE
  2
BLOCK_RECORD
  5
37D
100
AcDbSymbolTable
  0
BLOCK_RECORD
  5
2A
100
AcDbSymbolTableRecord
100
AcDbBlockTableRecord
  2
*MODEL_SPACE
  0
BLOCK_RECORD
  5
37E
100
AcDbSymbolTableRecord
100
AcDbBlockTableRecord
  2
*PAPER_SPACE
  0
BLOCK_RECORD
  5
10
100
AcDbSymbolTableRecord
100
AcDbBlockTableRecord
  2
_CLOSEDFILLED
  0
ENDTAB
  0
TABLE
  2
STYLE
  5
3
100
AcDbSymbolTable
  0
STYLE
  5
A
100
AcDbSymbolTableRecord
100
AcDbTextStyleTableRecord
  2
STANDARD
 70
0
 40
0
 41
1
 50
0
 71
0
 42
2.5
  3
txt
  4

1001
ACAD
1000
txt
1071
0
  0
ENDTAB
  0
TABLE
  2
LTYPE
  5
1
100
AcDbSymbolTable
  0
LTYPE
  5
9
100
AcDbSymbolTableRecord
100
AcDbLinetypeTableRecord
  2
CONTINUOUS
 70
0
  3

 72
65
 73
0
 40
0
  0
LTYPE
  5
7
100
AcDbSymbolTableRecord
100
AcDbLinetypeTableRecord
  2
BYLAYER
 70
0
  3

 72
65
 73
0
 40
0
  0
LTYPE
  5
8
100
AcDbSymbolTableRecord
100
AcDbLinetypeTableRecord
  2
BYBLOCK
 70
0
  3

 72
65
 73
0
 40
0
  0
LTYPE
  5
13
100
AcDbSymbolTableRecord
100
AcDbLinetypeTableRecord
  2
_SOLID
 70
0
  3
_.
 72
65
 73
2
 40
5
 49
5
 74
0
 49
0
 74
0
  0
LTYPE
  5
14
100
AcDbSymbolTableRecord
100
AcDbLinetypeTableRecord
  2
_DASH
 70
0
  3
_ 
 72
65
 73
2
 40
7
 49
5
 74
0
 49
-2
 74
0
  0
LTYPE
  5
15
100
AcDbSymbolTableRecord
100
AcDbLinetypeTableRecord
  2
_DOT
 70
0
  3
_ 
 72
65
 73
2
 40
4
 49
2
 74
0
 49
-2
 74
0
  0
LTYPE
  5
16
100
AcDbSymbolTableRecord
100
AcDbLinetypeTableRecord
  2
_DASHDOT
 70
0
  3
_ _ 
 72
65
 73
4
 40
11
 49
5
 74
0
 49
-2
 74
0
 49
2
 74
0
 49
-2
 74
0
  0
LTYPE
  5
17
100
AcDbSymbolTableRecord
100
AcDbLinetypeTableRecord
  2
_DASHDOTDOT
 70
0
  3
_ _ _ 
 72
65
 73
6
 40
15
 49
5
 74
0
 49
-2
 74
0
 49
2
 74
0
 49
-2
 74
0
 49
2
 74
0
 49
-2
 74
0
  0
LTYPE
  5
18
100
AcDbSymbolTableRecord
100
AcDbLinetypeTableRecord
  2
ISO128-20-02
 70
0
  3
_ 
 72
65
 73
2
 40
5
 49
4
 74
0
 49
-1
 74
0
  0
LTYPE
  5
19
100
AcDbSymbolTableRecord
100
AcDbLinetypeTableRecord
  2
ISO128-20-03
 70
0
  3
_ 
 72
65
 73
2
 40
10
 49
4
 74
0
 49
-6
 74
0
  0
LTYPE
  5
1A
100
AcDbSymbolTableRecord
100
AcDbLinetypeTableRecord
  2
ISO128-20-04
 70
0
  3
_ . 
 72
65
 73
4
 40
10
 49
8
 74
0
 49
-1
 74
0
 49
0
 74
0
 49
-1
 74
0
  0
LTYPE
  5
1B
100
AcDbSymbolTableRecord
100
AcDbLinetypeTableRecord
  2
ISO128-20-05
 70
0
  3
_ . . 
 72
65
 73
6
 40
11
 49
8
 74
0
 49
-1
 74
0
 49
0
 74
0
 49
-1
 74
0
 49
0
 74
0
 49
-1
 74
0
  0
LTYPE
  5
1C
100
AcDbSymbolTableRecord
100
AcDbLinetypeTableRecord
  2
ISO128-20-06
 70
0
  3
_ . . . 
 72
65
 73
8
 40
12
 49
8
 74
0
 49
-1
 74
0
 49
0
 74
0
 49
-1
 74
0
 49
0
 74
0
 49
-1
 74
0
 49
0
 74
0
 49
-1
 74
0
  0
LTYPE
  5
1D
100
AcDbSymbolTableRecord
100
AcDbLinetypeTableRecord
  2
ISO128-20-07
 70
0
  3
. 
 72
65
 73
2
 40
1
 49
0
 74
0
 49
-1
 74
0
  0
LTYPE
  5
1E
100
AcDbSymbolTableRecord
100
AcDbLinetypeTableRecord
  2
ISO128-20-08
 70
0
  3
_ _ 
 72
65
 73
4
 40
12
 49
8
 74
0
 49
-1
 74
0
 49
2
 74
0
 49
-1
 74
0
  0
LTYPE
  5
1F
100
AcDbSymbolTableRecord
100
AcDbLinetypeTableRecord
  2
ISO128-20-09
 70
0
  3
_ _ _ 
 72
65
 73
6
 40
15
 49
8
 74
0
 49
-1
 74
0
 49
2
 74
0
 49
-1
 74
0
 49
2
 74
0
 49
-1
 74
0
  0
LTYPE
  5
20
100
AcDbSymbolTableRecord
100
AcDbLinetypeTableRecord
  2
ISO128-20-10
 70
0
  3
_ . 
 72
65
 73
4
 40
10
 49
8
 74
0
 49
-1
 74
0
 49
0
 74
0
 49
-1
 74
0
  0
LTYPE
  5
21
100
AcDbSymbolTableRecord
100
AcDbLinetypeTableRecord
  2
ISO128-20-11
 70
0
  3
_ _ . 
 72
65
 73
6
 40
11
 49
4
 74
0
 49
-1
 74
0
 49
4
 74
0
 49
-1
 74
0
 49
0
 74
0
 49
-1
 74
0
  0
LTYPE
  5
22
100
AcDbSymbolTableRecord
100
AcDbLinetypeTableRecord
  2
ISO128-20-12
 70
0
  3
_ . . 
 72
65
 73
6
 40
7
 49
4
 74
0
 49
-1
 74
0
 49
0
 74
0
 49
-1
 74
0
 49
0
 74
0
 49
-1
 74
0
  0
LTYPE
  5
23
100
AcDbSymbolTableRecord
100
AcDbLinetypeTableRecord
  2
ISO128-20-13
 70
0
  3
_ _ . . 
 72
65
 73
8
 40
12
 49
4
 74
0
 49
-1
 74
0
 49
4
 74
0
 49
-1
 74
0
 49
0
 74
0
 49
-1
 74
0
 49
0
 74
0
 49
-1
 74
0
  0
LTYPE
  5
24
100
AcDbSymbolTableRecord
100
AcDbLinetypeTableRecord
  2
ISO128-20-14
 70
0
  3
_ . . . 
 72
65
 73
8
 40
8
 49
4
 74
0
 49
-1
 74
0
 49
0
 74
0
 49
-1
 74
0
 49
0
 74
0
 49
-1
 74
0
 49
0
 74
0
 49
-1
 74
0
  0
LTYPE
  5
25
100
AcDbSymbolTableRecord
100
AcDbLinetypeTableRecord
  2
ISO128-20-15
 70
0
  3
_ _ . . . 
 72
65
 73
10
 40
13
 49
4
 74
0
 49
-1
 74
0
 49
4
 74
0
 49
-1
 74
0
 49
0
 74
0
 49
-1
 74
0
 49
0
 74
0
 49
-1
 74
0
 49
0
 74
0
 49
-1
 74
0
  0
LTYPE
  5
26
100
AcDbSymbolTableRecord
100
AcDbLinetypeTableRecord
  2
kurzgestrichelt
 70
0
  3
_ 
 72
65
 73
2
 40
3
 49
2
 74
0
 49
-1
 74
0
  0
ENDTAB
  0
TABLE
  2
LAYER
  5
2
100
AcDbSymbolTable
  0
LAYER
  5
E
100
AcDbSymbolTableRecord
100
AcDbLayerTableRecord
  2
0
 70
0
 62
7
  6
CONTINUOUS
290
1
370
-3
390
0
  0
LAYER
  5
27
100
AcDbSymbolTableRecord
100
AcDbLayerTableRecord
  2
SEMA2D
 70
0
 62
7
290
1
370
-3
390
0
  0
LAYER
  5
2B
100
AcDbSymbolTableRecord
100
AcDbLayerTableRecord
  2
SEMATEXT
 70
0
 62
7
290
1
370
-3
390
0
  0
ENDTAB
  0
TABLE
  2
VPORT
  5
37F
100
AcDbSymbolTable
  0
VPORT
  5
381
100
AcDbSymbolTableRecord
100
AcDbViewportTableRecord
  2
*ACTIVE
 70
0
 10
0
 20
0
 11
1
 21
1
 12
4.08838935761756
 22
4.8643474796665
 32
0
 13
0
 23
0
 14
1
 24
1
 15
1
 25
1
 16
0
 26
0
 36
1
 17
0
 27
0
 37
0
 40
0.537078241533003
 41
0.683233083857077
 42
50
 43
0
 44
0
 50
0
 51
0
 71
0
 72
100
 73
1
 74
1
 75
0
 76
0
 77
0
 78
0
  0
ENDTAB
  0
TABLE
  2
VIEW
  5
382
100
AcDbSymbolTable
  0
ENDTAB
  0
TABLE
  2
UCS
  5
383
100
AcDbSymbolTable
  0
ENDTAB
  0
TABLE
  2
DIMSTYLE
  5
4
100
AcDbSymbolTable
 70
1
100
AcDbDimStyleTable
 71
0
  0
DIMSTYLE
105
B
100
AcDbSymbolTableRecord
100
AcDbDimStyleTableRecord
  2
STANDARD
 70
0
  3

 40
1
 41
0.18
 42
0.0625
 44
0.18
 47
0
 48
0
 73
1
 74
1
 75
0
 76
0
 77
0
140
0.18
141
0.09
144
1
147
0.0625
173
0
174
0
176
0
177
0
178
0
277
2
278
46
281
0
282
0
271
4
340
A
371
-1
372
-1
  0
ENDTAB
  0
ENDSEC
  0
SECTION
  2
BLOCKS
  0
BLOCK
  5
384
100
AcDbEntity
  8
0
100
AcDbBlockBegin
  2
*MODEL_SPACE
 70
0
 10
0
 20
0
  0
ENDBLK
  5
385
100
AcDbEntity
  8
0
100
AcDbBlockEnd
  0
BLOCK
  5
386
100
AcDbEntity
  8
0
100
AcDbBlockBegin
  2
*PAPER_SPACE
 70
0
 10
0
 20
0
  0
ENDBLK
  5
387
100
AcDbEntity
  8
0
100
AcDbBlockEnd
  0
BLOCK
  5
F
100
AcDbEntity
  8
0
100
AcDbBlockBegin
  2
_CLOSEDFILLED
 70
0
 10
0
 20
0
 30
0
  3
_CLOSEDFILLED
  1

  0
SOLID
  5
C
100
AcDbEntity
  8
0
100
AcDbTrace
370
-2
 62
0
 10
-1
 20
0.166666666666667
 30
0
 11
0
 21
0
 31
0
 12
-1
 22
0.166666666666667
 32
0
 13
-1
 23
-0.166666666666667
 33
0
  0
LINE
  5
D
100
AcDbEntity
  8
0
100
AcDbLine
370
-2
 62
0
 10
-1
 20
0
 30
0
 11
-2
 21
0
 31
0
  0
ENDBLK
  5
388
100
AcDbEntity
  8
0
100
AcDbBlockEnd
  0
ENDSEC
  0
SECTION
  2
ENTITIES
  0
LINE
  5
28
100
AcDbEntity
  8
SEMA2D
100
AcDbLine
370
9
 62
7
  6
_SOLID
 10
4.060156523
 20
5.0072333589
 30
0
 11
4.2292929245
 21
5.0072333589
 31
0
  0
MTEXT
  5
2C
100
AcDbEntity
  8
SEMATEXT
100
AcDbMText
370
9
 62
7
 10
4.1336217302831
 20
5.02519393568049
 30
0
 40
0.010476
  1
{\fHelveticaNeueLT Com 55 Roman;169}
 50
0
 41
0
  7
STANDARD
 71
0
 73
1
 44
1
  0
LINE
  5
31
100
AcDbEntity
  8
SEMA2D
100
AcDbLine
370
9
 62
7
  6
_SOLID
 10
4.060156523
 20
5.0072333589
 30
0
 11
4.060156523
 21
5.0156333589
 31
0
  0
LINE
  5
32
100
AcDbEntity
  8
SEMA2D
100
AcDbLine
370
9
 62
7
  6
_SOLID
 10
4.060156523
 20
5.0072333589
 30
0
 11
4.060156523
 21
4.9988333589
 31
0
  0
LINE
  5
33
100
AcDbEntity
  8
SEMA2D
100
AcDbLine
370
9
 62
7
  6
_SOLID
 10
4.2292929245
 20
5.0072333589
 30
0
 11
4.2292929245
 21
5.0156333589
 31
0
  0
LINE
  5
34
100
AcDbEntity
  8
SEMA2D
100
AcDbLine
370
9
 62
7
  6
_SOLID
 10
4.2292929245
 20
5.0072333589
 30
0
 11
4.2292929245
 21
4.9988333589
 31
0
  0
LINE
  5
35
100
AcDbEntity
  8
SEMA2D
100
AcDbLine
370
9
 62
7
  6
_SOLID
 10
4.2592929245
 20
4.9772333589
 30
0
 11
4.2592929245
 21
4.5971804884
 31
0
  0
MTEXT
  5
36
100
AcDbEntity
  8
SEMATEXT
100
AcDbMText
370
9
 62
7
 10
4.2612172720122
 20
4.77923008893746
 30
0
 40
0.010476
  1
{\fHelveticaNeueLT Com 55 Roman;38}
 50
90
 41
0
  7
STANDARD
 71
0
 73
1
 44
1
  0
LINE
  5
3B
100
AcDbEntity
  8
SEMA2D
100
AcDbLine
370
9
 62
7
  6
_SOLID
 10
4.2592929245
 20
4.9772333589
 30
0
 11
4.2676929245
 21
4.9772333589
 31
0
  0
LINE
  5
3C
100
AcDbEntity
  8
SEMA2D
100
AcDbLine
370
9
 62
7
  6
_SOLID
 10
4.2592929245
 20
4.9772333589
 30
0
 11
4.2508929245
 21
4.9772333589
 31
0
  0
LINE
  5
3D
100
AcDbEntity
  8
SEMA2D
100
AcDbLine
370
9
 62
7
  6
_SOLID
 10
4.2592929245
 20
4.5971804884
 30
0
 11
4.2676929245
 21
4.5971804884
 31
0
  0
LINE
  5
3E
100
AcDbEntity
  8
SEMA2D
100
AcDbLine
370
9
 62
7
  6
_SOLID
 10
4.2592929245
 20
4.5971804884
 30
0
 11
4.2508929245
 21
4.5971804884
 31
0
  0
LINE
  5
3F
100
AcDbEntity
  8
SEMA2D
100
AcDbLine
370
9
 62
7
  6
_SOLID
 10
3.994655141
 20
4.9527709205
 30
0
 11
3.994655141
 21
4.5971804884
 31
0
  0
MTEXT
  5
40
100
AcDbEntity
  8
SEMATEXT
100
AcDbMText
370
9
 62
7
 10
3.99657948851219
 20
4.7638159304953
 30
0
 40
0.010476
  1
{\fHelveticaNeueLT Com 55 Roman;356}
 50
90
 41
0
  7
STANDARD
 71
0
 73
1
 44
1
  0
LINE
  5
45
100
AcDbEntity
  8
SEMA2D
100
AcDbLine
370
9
 62
7
  6
_SOLID
 10
3.994655141
 20
4.9527709205
 30
0
 11
4.003055141
 21
4.9527709205
 31
0
  0
LINE
  5
46
100
AcDbEntity
  8
SEMA2D
100
AcDbLine
370
9
 62
7
  6
_SOLID
 10
3.994655141
 20
4.9527709205
 30
0
 11
3.986255141
 21
4.9527709205
 31
0
  0
LINE
  5
47
100
AcDbEntity
  8
SEMA2D
100
AcDbLine
370
9
 62
7
  6
_SOLID
 10
3.994655141
 20
4.5971804884
 30
0
 11
4.003055141
 21
4.5971804884
 31
0
  0
LINE
  5
48
100
AcDbEntity
  8
SEMA2D
100
AcDbLine
370
9
 62
7
  6
_SOLID
 10
3.994655141
 20
4.5971804884
 30
0
 11
3.986255141
 21
4.5971804884
 31
0
  0
LINE
  5
49
100
AcDbEntity
  8
SEMA2D
100
AcDbLine
370
9
 62
7
  6
_SOLID
 10
3.9311428665
 20
5.0072333589
 30
0
 11
3.949314546
 21
5.0072333589
 31
0
  0
MTEXT
  5
4A
100
AcDbEntity
  8
SEMATEXT
100
AcDbMText
370
9
 62
7
 10
3.93305490986498
 20
5.02519393568049
 30
0
 40
0.010476
  1
{\fHelveticaNeueLT Com 55 Roman;18}
 50
0
 41
0
  7
STANDARD
 71
0
 73
1
 44
1
  0
LINE
  5
4F
100
AcDbEntity
  8
SEMA2D
100
AcDbLine
370
9
 62
7
  6
_SOLID
 10
3.9311428665
 20
5.0072333589
 30
0
 11
3.9311428665
 21
5.0156333589
 31
0
  0
LINE
  5
50
100
AcDbEntity
  8
SEMA2D
100
AcDbLine
370
9
 62
7
  6
_SOLID
 10
3.9311428665
 20
5.0072333589
 30
0
 11
3.9311428665
 21
4.9988333589
 31
0
  0
LINE
  5
51
100
AcDbEntity
  8
SEMA2D
100
AcDbLine
370
9
 62
7
  6
_SOLID
 10
3.949314546
 20
5.0072333589
 30
0
 11
3.949314546
 21
5.0156333589
 31
0
  0
LINE
  5
52
100
AcDbEntity
  8
SEMA2D
100
AcDbLine
370
9
 62
7
  6
_SOLID
 10
3.949314546
 20
5.0072333589
 30
0
 11
3.949314546
 21
4.9988333589
 31
0
  0
LINE
  5
53
100
AcDbEntity
  8
SEMA2D
100
AcDbLine
370
9
 62
7
  6
_SOLID
 10
3.949314546
 20
5.0072333589
 30
0
 11
3.965156523
 21
5.0072333589
 31
0
  0
MTEXT
  5
54
100
AcDbEntity
  8
SEMATEXT
100
AcDbMText
370
9
 62
7
 10
3.95003740362021
 20
5.02519393568049
 30
0
 40
0.010476
  1
{\fHelveticaNeueLT Com 55 Roman;16}
 50
0
 41
0
  7
STANDARD
 71
0
 73
1
 44
1
  0
LINE
  5
59
100
AcDbEntity
  8
SEMA2D
100
AcDbLine
370
9
 62
7
  6
_SOLID
 10
3.949314546
 20
5.0072333589
 30
0
 11
3.949314546
 21
5.0156333589
 31
0
  0
LINE
  5
5A
100
AcDbEntity
  8
SEMA2D
100
AcDbLine
370
9
 62
7
  6
_SOLID
 10
3.949314546
 20
5.0072333589
 30
0
 11
3.949314546
 21
4.9988333589
 31
0
  0
LINE
  5
5B
100
AcDbEntity
  8
SEMA2D
100
AcDbLine
370
9
 62
7
  6
_SOLID
 10
3.965156523
 20
5.0072333589
 30
0
 11
3.965156523
 21
5.0156333589
 31
0
  0
LINE
  5
5C
100
AcDbEntity
  8
SEMA2D
100
AcDbLine
370
9
 62
7
  6
_SOLID
 10
3.965156523
 20
5.0072333589
 30
0
 11
3.965156523
 21
4.9988333589
 31
0
  0
LINE
  5
5D
100
AcDbEntity
  8
SEMA2D
100
AcDbLine
370
9
 62
7
  6
_SOLID
 10
4.2292929245
 20
4.9272333589
 30
0
 11
4.1842929245
 21
4.9272333589
 31
0
  0
MTEXT
  5
5E
100
AcDbEntity
  8
SEMATEXT
100
AcDbMText
370
9
 62
7
 10
4.19965968560627
 20
4.99326958816829
 30
0
 40
0.010476
  1
{\fHelveticaNeueLT Com 55 Roman;45}
 50
0
 41
0
  7
STANDARD
 71
0
 73
1
 44
1
  0
LINE
  5
63
100
AcDbEntity
  8
SEMA2D
100
AcDbLine
370
9
 62
7
  6
_SOLID
 10
4.2292929245
 20
4.9272333589
 30
0
 11
4.2292929245
 21
4.9188333589
 31
0
  0
LINE
  5
64
100
AcDbEntity
  8
SEMA2D
100
AcDbLine
370
9
 62
7
  6
_SOLID
 10
4.2292929245
 20
4.9272333589
 30
0
 11
4.2292929245
 21
4.9356333589
 31
0
  0
LINE
  5
65
100
AcDbEntity
  8
SEMA2D
100
AcDbLine
370
9
 62
7
  6
_SOLID
 10
4.1842929245
 20
4.9272333589
 30
0
 11
4.1842929245
 21
4.9188333589
 31
0
  0
LINE
  5
66
100
AcDbEntity
  8
SEMA2D
100
AcDbLine
370
9
 62
7
  6
_SOLID
 10
4.1842929245
 20
4.9272333589
 30
0
 11
4.1842929245
 21
4.9356333589
 31
0
  0
LINE
  5
67
100
AcDbEntity
  8
SEMA2D
100
AcDbLine
370
9
 62
7
  6
_SOLID
 10
4.060156523
 20
4.9272333589
 30
0
 11
4.105156523
 21
4.9272333589
 31
0
  0
MTEXT
  5
68
100
AcDbEntity
  8
SEMATEXT
100
AcDbMText
370
9
 62
7
 10
4.07552328410627
 20
4.99326958816829
 30
0
 40
0.010476
  1
{\fHelveticaNeueLT Com 55 Roman;45}
 50
0
 41
0
  7
STANDARD
 71
0
 73
1
 44
1
  0
LINE
  5
6D
100
AcDbEntity
  8
SEMA2D
100
AcDbLine
370
9
 62
7
  6
_SOLID
 10
4.060156523
 20
4.9272333589
 30
0
 11
4.060156523
 21
4.9356333589
 31
0
  0
LINE
  5
6E
100
AcDbEntity
  8
SEMA2D
100
AcDbLine
370
9
 62
7
  6
_SOLID
 10
4.060156523
 20
4.9272333589
 30
0
 11
4.060156523
 21
4.9188333589
 31
0
  0
LINE
  5
6F
100
AcDbEntity
  8
SEMA2D
100
AcDbLine
370
9
 62
7
  6
_SOLID
 10
4.105156523
 20
4.9272333589
 30
0
 11
4.105156523
 21
4.9356333589
 31
0
  0
LINE
  5
70
100
AcDbEntity
  8
SEMA2D
100
AcDbLine
370
9
 62
7
  6
_SOLID
 10
4.105156523
 20
4.9272333589
 30
0
 11
4.105156523
 21
4.9188333589
 31
0
  0
LINE
  5
71
100
AcDbEntity
  8
SEMA2D
100
AcDbLine
370
9
 62
7
  6
_SOLID
 10
4.105156523
 20
4.9772333589
 30
0
 11
4.105156523
 21
4.9272333589
 31
0
  0
MTEXT
  5
72
100
AcDbEntity
  8
SEMATEXT
100
AcDbMText
370
9
 62
7
 10
4.08701457533873
 20
4.94826886412648
 30
0
 40
0.010476
  1
{\fHelveticaNeueLT Com 55 Roman;5}
 50
90
 41
0
  7
STANDARD
 71
0
 73
1
 44
1
  0
LINE
  5
77
100
AcDbEntity
  8
SEMA2D
100
AcDbLine
370
9
 62
7
  6
_SOLID
 10
4.105156523
 20
4.9772333589
 30
0
 11
4.113556523
 21
4.9772333589
 31
0
  0
LINE
  5
78
100
AcDbEntity
  8
SEMA2D
100
AcDbLine
370
9
 62
7
  6
_SOLID
 10
4.105156523
 20
4.9772333589
 30
0
 11
4.096756523
 21
4.9772333589
 31
0
  0
LINE
  5
79
100
AcDbEntity
  8
SEMA2D
100
AcDbLine
370
9
 62
7
  6
_SOLID
 10
4.105156523
 20
4.9272333589
 30
0
 11
4.113556523
 21
4.9272333589
 31
0
  0
LINE
  5
7A
100
AcDbEntity
  8
SEMA2D
100
AcDbLine
370
9
 62
7
  6
_SOLID
 10
4.105156523
 20
4.9272333589
 30
0
 11
4.096756523
 21
4.9272333589
 31
0
  0
LINE
  5
7B
100
AcDbEntity
  8
SEMA2D
100
AcDbLine
370
9
 62
7
  6
_SOLID
 10
4.1842929245
 20
4.9272333589
 30
0
 11
4.1842929245
 21
4.9772333589
 31
0
  0
MTEXT
  5
7C
100
AcDbEntity
  8
SEMATEXT
100
AcDbMText
370
9
 62
7
 10
4.1900782086
 20
4.94826886412648
 30
0
 40
0.010476
  1
{\fHelveticaNeueLT Com 55 Roman;5}
 50
90
 41
0
  7
STANDARD
 71
0
 73
1
 44
1
  0
LINE
  5
81
100
AcDbEntity
  8
SEMA2D
100
AcDbLine
370
9
 62
7
  6
_SOLID
 10
4.1842929245
 20
4.9272333589
 30
0
 11
4.1758929245
 21
4.9272333589
 31
0
  0
LINE
  5
82
100
AcDbEntity
  8
SEMA2D
100
AcDbLine
370
9
 62
7
  6
_SOLID
 10
4.1842929245
 20
4.9272333589
 30
0
 11
4.1926929245
 21
4.9272333589
 31
0
  0
LINE
  5
83
100
AcDbEntity
  8
SEMA2D
100
AcDbLine
370
9
 62
7
  6
_SOLID
 10
4.1842929245
 20
4.9772333589
 30
0
 11
4.1758929245
 21
4.9772333589
 31
0
  0
LINE
  5
84
100
AcDbEntity
  8
SEMA2D
100
AcDbLine
370
9
 62
7
  6
_SOLID
 10
4.1842929245
 20
4.9772333589
 30
0
 11
4.1926929245
 21
4.9772333589
 31
0
  0
LINE
  5
85
100
AcDbEntity
  8
SEMA2D
100
AcDbLine
370
9
 62
7
  6
_SOLID
 10
3.913314546
 20
4.9772334205
 30
0
 11
3.913314546
 21
4.9527709205
 31
0
  0
MTEXT
  5
86
100
AcDbEntity
  8
SEMATEXT
100
AcDbMText
370
9
 62
7
 10
3.9152388935122
 20
4.95782837411498
 30
0
 40
0.010476
  1
{\fHelveticaNeueLT Com 55 Roman;24}
 50
90
 41
0
  7
STANDARD
 71
0
 73
1
 44
1
  0
LINE
  5
8B
100
AcDbEntity
  8
SEMA2D
100
AcDbLine
370
9
 62
7
  6
_SOLID
 10
3.913314546
 20
4.9772334205
 30
0
 11
3.921714546
 21
4.9772334205
 31
0
  0
LINE
  5
8C
100
AcDbEntity
  8
SEMA2D
100
AcDbLine
370
9
 62
7
  6
_SOLID
 10
3.913314546
 20
4.9772334205
 30
0
 11
3.904914546
 21
4.9772334205
 31
0
  0
LINE
  5
8D
100
AcDbEntity
  8
SEMA2D
100
AcDbLine
370
9
 62
7
  6
_SOLID
 10
3.913314546
 20
4.9527709205
 30
0
 11
3.921714546
 21
4.9527709205
 31
0
  0
LINE
  5
8E
100
AcDbEntity
  8
SEMA2D
100
AcDbLine
370
9
 62
7
  6
_SOLID
 10
3.913314546
 20
4.9527709205
 30
0
 11
3.904914546
 21
4.9527709205
 31
0
  0
LINE
  5
8F
100
AcDbEntity
  8
SEMA2D
100
AcDbLine
370
9
 62
7
  6
_SOLID
 10
4.011655141
 20
4.9772334205
 30
0
 11
4.011655141
 21
4.9273334205
 31
0
  0
MTEXT
  5
90
100
AcDbEntity
  8
SEMATEXT
100
AcDbMText
370
9
 62
7
 10
4.0135794885122
 20
4.94831892572648
 30
0
 40
0.010476
  1
{\fHelveticaNeueLT Com 55 Roman;5}
 50
90
 41
0
  7
STANDARD
 71
0
 73
1
 44
1
  0
LINE
  5
95
100
AcDbEntity
  8
SEMA2D
100
AcDbLine
370
9
 62
7
  6
_SOLID
 10
4.011655141
 20
4.9772334205
 30
0
 11
4.020055141
 21
4.9772334205
 31
0
  0
LINE
  5
96
100
AcDbEntity
  8
SEMA2D
100
AcDbLine
370
9
 62
7
  6
_SOLID
 10
4.011655141
 20
4.9772334205
 30
0
 11
4.003255141
 21
4.9772334205
 31
0
  0
LINE
  5
97
100
AcDbEntity
  8
SEMA2D
100
AcDbLine
370
9
 62
7
  6
_SOLID
 10
4.011655141
 20
4.9273334205
 30
0
 11
4.020055141
 21
4.9273334205
 31
0
  0
LINE
  5
98
100
AcDbEntity
  8
SEMA2D
100
AcDbLine
370
9
 62
7
  6
_SOLID
 10
4.011655141
 20
4.9273334205
 30
0
 11
4.003255141
 21
4.9273334205
 31
0
  0
LINE
  5
99
100
AcDbEntity
  8
SEMA2D
100
AcDbLine
370
9
 62
7
  6
_SOLID
 10
4.060156523
 20
5.1150114726
 30
0
 11
4.2292929245
 21
5.1150114726
 31
0
  0
MTEXT
  5
9A
100
AcDbEntity
  8
SEMATEXT
100
AcDbMText
370
9
 62
7
 10
4.1336217302831
 20
5.13297204938049
 30
0
 40
0.010476
  1
{\fHelveticaNeueLT Com 55 Roman;169}
 50
0
 41
0
  7
STANDARD
 71
0
 73
1
 44
1
  0
LINE
  5
9F
100
AcDbEntity
  8
SEMA2D
100
AcDbLine
370
9
 62
7
  6
_SOLID
 10
4.060156523
 20
5.1150114726
 30
0
 11
4.060156523
 21
5.1234114726
 31
0
  0
LINE
  5
A0
100
AcDbEntity
  8
SEMA2D
100
AcDbLine
370
9
 62
7
  6
_SOLID
 10
4.060156523
 20
5.1150114726
 30
0
 11
4.060156523
 21
5.1066114726
 31
0
  0
LINE
  5
A1
100
AcDbEntity
  8
SEMA2D
100
AcDbLine
370
9
 62
7
  6
_SOLID
 10
4.2292929245
 20
5.1150114726
 30
0
 11
4.2292929245
 21
5.1234114726
 31
0
  0
LINE
  5
A2
100
AcDbEntity
  8
SEMA2D
100
AcDbLine
370
9
 62
7
  6
_SOLID
 10
4.2292929245
 20
5.1150114726
 30
0
 11
4.2292929245
 21
5.1066114726
 31
0
  0
LINE
  5
A3
100
AcDbEntity
  8
SEMA2D
100
AcDbLine
370
9
 62
7
  6
_SOLID
 10
4.1397093238
 20
4.5971804268
 30
0
 11
4.0650775828
 21
4.641183392
 31
0
  0
ARC
  5
A4
100
AcDbEntity
  8
SEMA2D
100
AcDbCircle
370
9
 62
7
  6
_SOLID
 10
4.070156523
 20
4.6497975877
 30
0
 40
0.0100000000000007
100
AcDbArc
 50
180
 51
239.476346914008
  0
LINE
  5
A5
100
AcDbEntity
  8
SEMA2D
100
AcDbLine
370
9
 62
7
  6
_SOLID
 10
4.1396457835
 20
4.598040973
 30
0
 11
4.0655087554
 21
4.6417522548
 31
0
  0
ARC
  5
A6
100
AcDbEntity
  8
SEMA2D
100
AcDbCircle
370
9
 62
7
  6
_SOLID
 10
4.1447247237
 20
4.6066551686
 30
0
 40
0.00999999999999979
100
AcDbArc
 50
239.476346914009
 51
300.523653085991
  0
LINE
  5
A7
100
AcDbEntity
  8
SEMA2D
100
AcDbLine
370
9
 62
9
  6
_SOLID
 10
4.0852019336
 20
4.9413091495
 30
0
 11
4.0841963247
 21
4.9400899321
 31
0
  0
LINE
  5
A8
100
AcDbEntity
  8
SEMA2D
100
AcDbLine
370
9
 62
9
  6
_SOLID
 10
4.0817401357
 20
4.9045352743
 30
0
 11
4.0791461941
 21
4.9018909048
 31
0
  0
LINE
  5
A9
100
AcDbEntity
  8
SEMA2D
100
AcDbLine
370
9
 62
9
  6
_SOLID
 10
4.2285940137
 20
4.6499759125
 30
0
 11
4.228263788
 21
4.6499759125
 31
0
  0
LINE
  5
AA
100
AcDbEntity
  8
SEMA2D
100
AcDbLine
370
9
 62
9
  6
_SOLID
 10
4.0608554337
 20
4.6499759125
 30
0
 11
4.0611856594
 21
4.6499759125
 31
0
  0
LINE
  5
AB
100
AcDbEntity
  8
SEMA2D
100
AcDbLine
370
9
 62
9
  6
_SOLID
 10
4.2042403519
 20
4.9567691609
 30
0
 11
4.204682866
 21
4.9570450633
 31
0
  0
LINE
  5
AC
100
AcDbEntity
  8
SEMA2D
100
AcDbLine
370
9
 62
9
  6
_SOLID
 10
4.1668680163
 20
4.9216506387
 30
0
 11
4.1666960084
 21
4.9215970644
 31
0
  0
LINE
  5
AD
100
AcDbEntity
  8
SEMA2D
100
AcDbLine
370
9
 62
9
  6
_SOLID
 10
4.1085819141
 20
4.8913588257
 30
0
 11
4.1074405977
 21
4.8901953181
 31
0
  0
LINE
  5
AE
100
AcDbEntity
  8
SEMA2D
100
AcDbLine
370
9
 62
9
  6
_SOLID
 10
4.1576309141
 20
4.919021189
 30
0
 11
4.1546156549
 21
4.9168912502
 31
0
  0
LINE
  5
AF
100
AcDbEntity
  8
SEMA2D
100
AcDbLine
370
9
 62
7
  6
_SOLID
 10
4.060156523
 20
4.6497975877
 30
0
 11
4.060156523
 21
4.9772333589
 31
0
  0
LINE
  5
B0
100
AcDbEntity
  8
SEMA2D
100
AcDbLine
370
9
 62
7
  6
_SOLID
 10
4.0608554337
 20
4.6499759125
 30
0
 11
4.0608554337
 21
4.9765208589
 31
0
  0
LINE
  5
B1
100
AcDbEntity
  8
SEMA2D
100
AcDbLine
370
9
 62
9
  6
_SOLID
 10
4.0611856594
 20
4.9742868164
 30
0
 11
4.0611856594
 21
4.6499759125
 31
0
  0
LINE
  5
B2
100
AcDbEntity
  8
SEMA2D
100
AcDbLine
370
9
 62
9
  6
_SOLID
 10
4.0981663124
 20
4.8787247622
 30
0
 11
4.0977288859
 21
4.8778924064
 31
0
  0
LINE
  5
B3
100
AcDbEntity
  8
SEMA2D
100
AcDbLine
370
9
 62
9
  6
_SOLID
 10
4.1035810955
 20
4.8793314578
 30
0
 11
4.1024282681
 21
4.8781562154
 31
0
  0
LINE
  5
B4
100
AcDbEntity
  8
SEMA2D
100
AcDbLine
370
9
 62
9
  6
_SOLID
 10
4.1136574335
 20
4.8838576054
 30
0
 11
4.11479875
 21
4.885021113
 31
0
  0
LINE
  5
B5
100
AcDbEntity
  8
SEMA2D
100
AcDbLine
370
9
 62
9
  6
_SOLID
 10
4.149390212
 20
4.5977972012
 30
0
 11
4.1492968222
 21
4.597961945
 31
0
  0
LINE
  5
B6
100
AcDbEntity
  8
SEMA2D
100
AcDbLine
370
9
 62
9
  6
_SOLID
 10
4.0658386788
 20
4.9070334698
 30
0
 11
4.0658386788
 21
4.9760426674
 31
0
  0
LINE
  5
B7
100
AcDbEntity
  8
SEMA2D
100
AcDbLine
370
9
 62
8
  6
_SOLID
 10
4.0679034035
 20
4.8963758864
 30
0
 11
4.0679033895
 21
4.6464572718
 31
0
  0
LINE
  5
B8
100
AcDbEntity
  8
SEMA2D
100
AcDbLine
370
9
 62
9
  6
_SOLID
 10
4.073583332
 20
4.9531104762
 30
0
 11
4.073583332
 21
4.915581966
 31
0
  0
LINE
  5
B9
100
AcDbEntity
  8
SEMA2D
100
AcDbLine
370
9
 62
9
  6
_SOLID
 10
4.0752137239
 20
4.953110468
 30
0
 11
4.0752137239
 21
4.9155819721
 31
0
  0
LINE
  5
BA
100
AcDbEntity
  8
SEMA2D
100
AcDbLine
370
9
 62
9
  6
_SOLID
 10
4.0772517142
 20
4.9155819721
 30
0
 11
4.0772517142
 21
4.9531104679
 31
0
  0
LINE
  5
BB
100
AcDbEntity
  8
SEMA2D
100
AcDbLine
370
9
 62
9
  6
_SOLID
 10
4.0830811983
 20
4.9162874369
 30
0
 11
4.0830811968
 21
4.9238552882
 31
0
  0
LINE
  5
BC
100
AcDbEntity
  8
SEMA2D
100
AcDbLine
370
9
 62
9
  6
_SOLID
 10
4.0830811979
 20
4.942540841
 30
0
 11
4.0830811968
 21
4.9447552881
 31
0
  0
LINE
  5
BD
100
AcDbEntity
  8
SEMA2D
100
AcDbLine
370
9
 62
9
  6
_SOLID
 10
4.0838193269
 20
4.9598057779
 30
0
 11
4.083819318
 21
4.9635454859
 31
0
  0
LINE
  5
BE
100
AcDbEntity
  8
SEMA2D
100
AcDbLine
370
9
 62
9
  6
_SOLID
 10
4.0846545509
 20
4.9162874419
 30
0
 11
4.0846545482
 21
4.9238552878
 31
0
  0
LINE
  5
BF
100
AcDbEntity
  8
SEMA2D
100
AcDbLine
370
9
 62
9
  6
_SOLID
 10
4.0846545501
 20
4.9425408386
 30
0
 11
4.0846545482
 21
4.9447552878
 31
0
  0
LINE
  5
C0
100
AcDbEntity
  8
SEMA2D
100
AcDbLine
370
9
 62
9
  6
_SOLID
 10
4.0858073927
 20
4.9366050677
 30
0
 11
4.0858073927
 21
4.9369349992
 31
0
  0
LINE
  5
C1
100
AcDbEntity
  8
SEMA2D
100
AcDbLine
370
9
 62
9
  6
_SOLID
 10
4.0870145688
 20
4.9129166868
 30
0
 11
4.0870145753
 21
4.9238552878
 31
0
  0
LINE
  5
C2
100
AcDbEntity
  8
SEMA2D
100
AcDbLine
370
9
 62
9
  6
_SOLID
 10
4.0870145725
 20
4.9392527917
 30
0
 11
4.0870145753
 21
4.9447552878
 31
0
  0
LINE
  5
C3
100
AcDbEntity
  8
SEMA2D
100
AcDbLine
370
9
 62
9
  6
_SOLID
 10
4.1045287319
 20
4.9546662805
 30
0
 11
4.1047797726
 21
4.9571801869
 31
0
  0
LINE
  5
C4
100
AcDbEntity
  8
SEMA2D
100
AcDbLine
370
9
 62
9
  6
_SOLID
 10
4.1061427977
 20
4.9543363542
 30
0
 11
4.1063938343
 21
4.9568502205
 31
0
  0
LINE
  5
C5
100
AcDbEntity
  8
SEMA2D
100
AcDbLine
370
9
 62
9
  6
_SOLID
 10
4.0858074152
 20
4.9366050677
 30
0
 11
4.0869982278
 21
4.9246801166
 31
0
  0
LINE
  5
C6
100
AcDbEntity
  8
SEMA2D
100
AcDbLine
370
9
 62
9
  6
_SOLID
 10
4.0858727864
 20
4.9568502196
 30
0
 11
4.0869982278
 21
4.9455801166
 31
0
  0
LINE
  5
C7
100
AcDbEntity
  8
SEMA2D
100
AcDbLine
370
9
 62
8
  6
_SOLID
 10
4.0939186658
 20
4.6289170075
 30
0
 11
4.0939186085
 21
4.8769283068
 31
0
  0
LINE
  5
C8
100
AcDbEntity
  8
SEMA2D
100
AcDbLine
370
9
 62
9
  6
_SOLID
 10
4.0962688252
 20
4.9246801218
 30
0
 11
4.0962688253
 21
4.9238552639
 31
0
  0
LINE
  5
C9
100
AcDbEntity
  8
SEMA2D
100
AcDbLine
370
9
 62
9
  6
_SOLID
 10
4.0963252865
 20
4.9598057779
 30
0
 11
4.0963252865
 21
4.9584999518
 31
0
  0
LINE
  5
CA
100
AcDbEntity
  8
SEMA2D
100
AcDbLine
370
9
 62
9
  6
_SOLID
 10
4.0979393517
 20
4.9598057779
 30
0
 11
4.0979393517
 21
4.9584999131
 31
0
  0
LINE
  5
CB
100
AcDbEntity
  8
SEMA2D
100
AcDbLine
370
9
 62
9
  6
_SOLID
 10
4.0993712388
 20
4.9517574883
 30
0
 11
4.099371239
 21
4.9534676069
 31
0
  0
LINE
  5
CC
100
AcDbEntity
  8
SEMA2D
100
AcDbLine
370
9
 62
9
  6
_SOLID
 10
4.0998487219
 20
4.9673334119
 30
0
 11
4.0998487256
 21
4.9661725839
 31
0
  0
LINE
  5
CD
100
AcDbEntity
  8
SEMA2D
100
AcDbLine
370
9
 62
8
  6
_SOLID
 10
4.1011305638
 20
4.8735668278
 30
0
 11
4.1011306288
 21
4.6263656981
 31
0
  0
LINE
  5
CE
100
AcDbEntity
  8
SEMA2D
100
AcDbLine
370
9
 62
9
  6
_SOLID
 10
4.1029357926
 20
4.9673334053
 30
0
 11
4.1029357907
 21
4.9661725909
 31
0
  0
LINE
  5
CF
100
AcDbEntity
  8
SEMA2D
100
AcDbLine
370
9
 62
9
  6
_SOLID
 10
4.1034132756
 20
4.9517574931
 30
0
 11
4.1034132752
 21
4.9534676069
 31
0
  0
LINE
  5
D0
100
AcDbEntity
  8
SEMA2D
100
AcDbLine
370
9
 62
9
  6
_SOLID
 10
4.1048451627
 20
4.9584999131
 30
0
 11
4.1048451627
 21
4.9598057779
 31
0
  0
LINE
  5
D1
100
AcDbEntity
  8
SEMA2D
100
AcDbLine
370
9
 62
9
  6
_SOLID
 10
4.1698892795
 20
4.9159521494
 30
0
 11
4.1689660273
 21
4.9145074661
 31
0
  0
LINE
  5
D2
100
AcDbEntity
  8
SEMA2D
100
AcDbLine
370
9
 62
9
  6
_SOLID
 10
4.1746506975
 20
4.885021113
 30
0
 11
4.1808675333
 21
4.8913588257
 31
0
  0
LINE
  5
D3
100
AcDbEntity
  8
SEMA2D
100
AcDbLine
370
9
 62
9
  6
_SOLID
 10
4.1757920139
 20
4.8838576054
 30
0
 11
4.1820088497
 21
4.890195318
 31
0
  0
LINE
  5
D4
100
AcDbEntity
  8
SEMA2D
100
AcDbLine
370
9
 62
9
  6
_SOLID
 10
4.1820679703
 20
4.8902016781
 30
0
 11
4.1756526484
 21
4.8836614624
 31
0
  0
LINE
  5
D5
100
AcDbEntity
  8
SEMA2D
100
AcDbLine
370
9
 62
9
  6
_SOLID
 10
4.1868125601
 20
4.8921291139
 30
0
 11
4.1767353372
 21
4.8818564299
 31
0
  0
LINE
  5
D6
100
AcDbEntity
  8
SEMA2D
100
AcDbLine
370
9
 62
9
  6
_SOLID
 10
4.0963906801
 20
4.9568502205
 30
0
 11
4.0966417167
 21
4.9543363542
 31
0
  0
LINE
  5
D7
100
AcDbEntity
  8
SEMA2D
100
AcDbLine
370
9
 62
9
  6
_SOLID
 10
4.0980047418
 20
4.9571801869
 30
0
 11
4.0982557825
 21
4.95466628
 31
0
  0
LINE
  5
D8
100
AcDbEntity
  8
SEMA2D
100
AcDbLine
370
9
 62
9
  6
_SOLID
 10
4.1064592279
 20
4.9584999518
 30
0
 11
4.1064592279
 21
4.9598057779
 31
0
  0
LINE
  5
D9
100
AcDbEntity
  8
SEMA2D
100
AcDbLine
370
9
 62
9
  6
_SOLID
 10
4.1150716639
 20
4.9163651482
 30
0
 11
4.115071668
 21
4.9129166869
 31
0
  0
LINE
  5
DA
100
AcDbEntity
  8
SEMA2D
100
AcDbLine
370
9
 62
9
  6
_SOLID
 10
4.1186301421
 20
4.9246801198
 30
0
 11
4.1186301421
 21
4.9238552889
 31
0
  0
LINE
  5
DB
100
AcDbEntity
  8
SEMA2D
100
AcDbLine
370
9
 62
9
  6
_SOLID
 10
4.1221827395
 20
4.9366050677
 30
0
 11
4.1209918895
 21
4.9246801403
 31
0
  0
LINE
  5
DC
100
AcDbEntity
  8
SEMA2D
100
AcDbLine
370
9
 62
9
  6
_SOLID
 10
4.122753439
 20
4.9258271069
 30
0
 11
4.1226059547
 21
4.9243502088
 31
0
  0
LINE
  5
DD
100
AcDbEntity
  8
SEMA2D
100
AcDbLine
370
9
 62
9
  6
_SOLID
 10
4.2077093117
 20
4.9045352743
 30
0
 11
4.1823203392
 21
4.8786526855
 31
0
  0
LINE
  5
DE
100
AcDbEntity
  8
SEMA2D
100
AcDbLine
370
9
 62
9
  6
_SOLID
 10
4.2091503884
 20
4.9030661781
 30
0
 11
4.1858683525
 21
4.8793314585
 31
0
  0
LINE
  5
DF
100
AcDbEntity
  8
SEMA2D
100
AcDbLine
370
9
 62
9
  6
_SOLID
 10
4.2103032538
 20
4.9018909055
 30
0
 11
4.1870211819
 21
4.8781561489
 31
0
  0
LINE
  5
E0
100
AcDbEntity
  8
SEMA2D
100
AcDbLine
370
9
 62
9
  6
_SOLID
 10
4.1209673659
 20
4.9238552641
 30
0
 11
4.1209673659
 21
4.921650548
 31
0
  0
LINE
  5
E1
100
AcDbEntity
  8
SEMA2D
100
AcDbLine
370
9
 62
9
  6
_SOLID
 10
4.1221827222
 20
4.9366050677
 30
0
 11
4.1221827222
 21
4.9369350076
 31
0
  0
LINE
  5
E2
100
AcDbEntity
  8
SEMA2D
100
AcDbLine
370
9
 62
9
  6
_SOLID
 10
4.1225814311
 20
4.9238552641
 30
0
 11
4.1225814311
 21
4.9216506387
 31
0
  0
LINE
  5
E3
100
AcDbEntity
  8
SEMA2D
100
AcDbLine
370
9
 62
9
  6
_SOLID
 10
4.122753439
 20
4.9258271069
 30
0
 11
4.122753439
 21
4.9215970644
 31
0
  0
LINE
  5
E4
100
AcDbEntity
  8
SEMA2D
100
AcDbLine
370
9
 62
9
  6
_SOLID
 10
4.1243675042
 20
4.9258271069
 30
0
 11
4.1243675042
 21
4.9215969941
 31
0
  0
LINE
  5
E5
100
AcDbEntity
  8
SEMA2D
100
AcDbLine
370
9
 62
8
  6
_SOLID
 10
4.1253853823
 20
4.610364193
 30
0
 11
4.1253855436
 21
4.8857371452
 31
0
  0
LINE
  5
E6
100
AcDbEntity
  8
SEMA2D
100
AcDbLine
370
9
 62
8
  6
_SOLID
 10
4.1325973484
 20
4.6078128808
 30
0
 11
4.1325974691
 21
4.8954908602
 31
0
  0
LINE
  5
E7
100
AcDbEntity
  8
SEMA2D
100
AcDbLine
370
9
 62
9
  6
_SOLID
 10
4.1761164406
 20
4.8808146625
 30
0
 11
4.176735335
 21
4.8818564312
 31
0
  0
LINE
  5
E8
100
AcDbEntity
  8
SEMA2D
100
AcDbLine
370
9
 62
9
  6
_SOLID
 10
4.1808675333
 20
4.8913588257
 30
0
 11
4.1817320953
 21
4.8927679869
 31
0
  0
LINE
  5
E9
100
AcDbEntity
  8
SEMA2D
100
AcDbLine
370
9
 62
9
  6
_SOLID
 10
4.1329878482
 20
4.9252208589
 30
0
 11
4.1329878482
 21
4.9228344961
 31
0
  0
LINE
  5
EA
100
AcDbEntity
  8
SEMA2D
100
AcDbLine
370
9
 62
9
  6
_SOLID
 10
4.1350258385
 20
4.9252208589
 30
0
 11
4.1350258385
 21
4.9228344961
 31
0
  0
LINE
  5
EB
100
AcDbEntity
  8
SEMA2D
100
AcDbLine
370
9
 62
9
  6
_SOLID
 10
4.1366562307
 20
4.9252208589
 30
0
 11
4.1366562304
 21
4.922834487
 31
0
  0
LINE
  5
EC
100
AcDbEntity
  8
SEMA2D
100
AcDbLine
370
9
 62
9
  6
_SOLID
 10
4.1818218293
 20
4.8776777094
 30
0
 11
4.1823203604
 21
4.8786526737
 31
0
  0
LINE
  5
ED
100
AcDbEntity
  8
SEMA2D
100
AcDbLine
370
9
 62
9
  6
_SOLID
 10
4.223940692
 20
4.6417522548
 30
0
 11
4.223770603
 21
4.6420520284
 31
0
  0
LINE
  5
EE
100
AcDbEntity
  8
SEMA2D
100
AcDbLine
370
9
 62
9
  6
_SOLID
 10
4.1527932173
 20
4.9228344858
 30
0
 11
4.1527932167
 21
4.9252208589
 31
0
  0
LINE
  5
EF
100
AcDbEntity
  8
SEMA2D
100
AcDbLine
370
9
 62
9
  6
_SOLID
 10
4.154423609
 20
4.9228344961
 30
0
 11
4.1544236089
 21
4.9252208589
 31
0
  0
LINE
  5
F0
100
AcDbEntity
  8
SEMA2D
100
AcDbLine
370
9
 62
9
  6
_SOLID
 10
4.1564615992
 20
4.9228344961
 30
0
 11
4.1564615992
 21
4.9252208589
 31
0
  0
LINE
  5
F1
100
AcDbEntity
  8
SEMA2D
100
AcDbLine
370
9
 62
8
  6
_SOLID
 10
4.156852099
 20
4.6078128826
 30
0
 11
4.156851955
 21
4.8954908928
 31
0
  0
LINE
  5
F2
100
AcDbEntity
  8
SEMA2D
100
AcDbLine
370
9
 62
9
  6
_SOLID
 10
4.0655087554
 20
4.6417522548
 30
0
 11
4.0656788299
 21
4.6420520373
 31
0
  0
LINE
  5
F3
100
AcDbEntity
  8
SEMA2D
100
AcDbLine
370
9
 62
9
  6
_SOLID
 10
4.107129087
 20
4.8786526737
 30
0
 11
4.1076276181
 21
4.8776777094
 31
0
  0
LINE
  5
F4
100
AcDbEntity
  8
SEMA2D
100
AcDbLine
370
9
 62
8
  6
_SOLID
 10
4.1640640653
 20
4.6103641947
 30
0
 11
4.1640639303
 21
4.8857369545
 31
0
  0
LINE
  5
F5
100
AcDbEntity
  8
SEMA2D
100
AcDbLine
370
9
 62
9
  6
_SOLID
 10
4.1650819432
 20
4.9215969941
 30
0
 11
4.1650819432
 21
4.9258271069
 31
0
  0
LINE
  5
F6
100
AcDbEntity
  8
SEMA2D
100
AcDbLine
370
9
 62
9
  6
_SOLID
 10
4.1666960084
 20
4.9215970644
 30
0
 11
4.1666960084
 21
4.9258271069
 31
0
  0
LINE
  5
F7
100
AcDbEntity
  8
SEMA2D
100
AcDbLine
370
9
 62
9
  6
_SOLID
 10
4.1668680163
 20
4.9216506387
 30
0
 11
4.1668680163
 21
4.9238552865
 31
0
  0
LINE
  5
F8
100
AcDbEntity
  8
SEMA2D
100
AcDbLine
370
9
 62
9
  6
_SOLID
 10
4.1672667252
 20
4.9366050677
 30
0
 11
4.1672667252
 21
4.9369349992
 31
0
  0
LINE
  5
F9
100
AcDbEntity
  8
SEMA2D
100
AcDbLine
370
9
 62
9
  6
_SOLID
 10
4.1684820815
 20
4.921650548
 30
0
 11
4.1684820815
 21
4.9238552865
 31
0
  0
LINE
  5
FA
100
AcDbEntity
  8
SEMA2D
100
AcDbLine
370
9
 62
9
  6
_SOLID
 10
4.1708193053
 20
4.9238552889
 30
0
 11
4.1708193053
 21
4.9246801198
 31
0
  0
LINE
  5
FB
100
AcDbEntity
  8
SEMA2D
100
AcDbLine
370
9
 62
9
  6
_SOLID
 10
4.1743777794
 20
4.9129166869
 30
0
 11
4.1743777835
 21
4.9163651482
 31
0
  0
LINE
  5
FC
100
AcDbEntity
  8
SEMA2D
100
AcDbLine
370
9
 62
9
  6
_SOLID
 10
4.1911936649
 20
4.9546662805
 30
0
 11
4.1914447056
 21
4.9571801869
 31
0
  0
LINE
  5
FD
100
AcDbEntity
  8
SEMA2D
100
AcDbLine
370
9
 62
9
  6
_SOLID
 10
4.1085819146
 20
4.8913588261
 30
0
 11
4.1077173835
 21
4.892767927
 31
0
  0
LINE
  5
FE
100
AcDbEntity
  8
SEMA2D
100
AcDbLine
370
9
 62
9
  6
_SOLID
 10
4.1127141124
 20
4.8818564312
 30
0
 11
4.113333007
 21
4.8808146618
 31
0
  0
LINE
  5
FF
100
AcDbEntity
  8
SEMA2D
100
AcDbLine
370
9
 62
9
  6
_SOLID
 10
4.1668434949
 20
4.9243501864
 30
0
 11
4.1666960084
 21
4.9258271069
 31
0
  0
LINE
  5
100
100
AcDbEntity
  8
SEMA2D
100
AcDbLine
370
9
 62
9
  6
_SOLID
 10
4.1684575601
 20
4.9246801179
 30
0
 11
4.1672667076
 21
4.9366050677
 31
0
  0
LINE
  5
101
100
AcDbEntity
  8
SEMA2D
100
AcDbLine
370
9
 62
9
  6
_SOLID
 10
4.1829902195
 20
4.9598057779
 30
0
 11
4.1829902195
 21
4.9584999518
 31
0
  0
LINE
  5
102
100
AcDbEntity
  8
SEMA2D
100
AcDbLine
370
9
 62
9
  6
_SOLID
 10
4.1846042847
 20
4.9598057779
 30
0
 11
4.1846042847
 21
4.9584999131
 31
0
  0
LINE
  5
103
100
AcDbEntity
  8
SEMA2D
100
AcDbLine
370
9
 62
9
  6
_SOLID
 10
4.1860361718
 20
4.9517574883
 30
0
 11
4.186036172
 21
4.9534676069
 31
0
  0
LINE
  5
104
100
AcDbEntity
  8
SEMA2D
100
AcDbLine
370
9
 62
9
  6
_SOLID
 10
4.1865136549
 20
4.9673334119
 30
0
 11
4.1865136586
 21
4.9661725839
 31
0
  0
LINE
  5
105
100
AcDbEntity
  8
SEMA2D
100
AcDbLine
370
9
 62
9
  6
_SOLID
 10
4.1928077307
 20
4.9543363542
 30
0
 11
4.1930587673
 21
4.9568502205
 31
0
  0
LINE
  5
106
100
AcDbEntity
  8
SEMA2D
100
AcDbLine
370
9
 62
9
  6
_SOLID
 10
4.2024512196
 20
4.9455801166
 30
0
 11
4.203576661
 21
4.9568502196
 31
0
  0
LINE
  5
107
100
AcDbEntity
  8
SEMA2D
100
AcDbLine
370
9
 62
9
  6
_SOLID
 10
4.0791461941
 20
4.9018909048
 30
0
 11
4.1024282686
 21
4.8781561457
 31
0
  0
LINE
  5
108
100
AcDbEntity
  8
SEMA2D
100
AcDbLine
370
9
 62
9
  6
_SOLID
 10
4.080299059
 20
4.9030661781
 30
0
 11
4.1035810956
 21
4.8793314579
 31
0
  0
LINE
  5
109
100
AcDbEntity
  8
SEMA2D
100
AcDbLine
370
9
 62
9
  6
_SOLID
 10
4.1071291068
 20
4.8786526847
 30
0
 11
4.0817401357
 21
4.9045352743
 31
0
  0
LINE
  5
10A
100
AcDbEntity
  8
SEMA2D
100
AcDbLine
370
9
 62
9
  6
_SOLID
 10
4.1830556131
 20
4.9568502205
 30
0
 11
4.1833066497
 21
4.9543363542
 31
0
  0
LINE
  5
10B
100
AcDbEntity
  8
SEMA2D
100
AcDbLine
370
9
 62
9
  6
_SOLID
 10
4.1846696748
 20
4.9571801869
 30
0
 11
4.1849207155
 21
4.95466628
 31
0
  0
LINE
  5
10C
100
AcDbEntity
  8
SEMA2D
100
AcDbLine
370
9
 62
8
  6
_SOLID
 10
4.1883188973
 20
4.8735668108
 30
0
 11
4.1883188187
 21
4.6263656972
 31
0
  0
LINE
  5
10D
100
AcDbEntity
  8
SEMA2D
100
AcDbLine
370
9
 62
9
  6
_SOLID
 10
4.1896007256
 20
4.9673334053
 30
0
 11
4.1896007237
 21
4.9661725909
 31
0
  0
LINE
  5
10E
100
AcDbEntity
  8
SEMA2D
100
AcDbLine
370
9
 62
9
  6
_SOLID
 10
4.1900782086
 20
4.9517574931
 30
0
 11
4.1900782082
 21
4.9534676069
 31
0
  0
LINE
  5
10F
100
AcDbEntity
  8
SEMA2D
100
AcDbLine
370
9
 62
9
  6
_SOLID
 10
4.1915100957
 20
4.9584999131
 30
0
 11
4.1915100957
 21
4.9598057779
 31
0
  0
LINE
  5
110
100
AcDbEntity
  8
SEMA2D
100
AcDbLine
370
9
 62
9
  6
_SOLID
 10
4.1931241609
 20
4.9584999518
 30
0
 11
4.1931241609
 21
4.9598057779
 31
0
  0
LINE
  5
111
100
AcDbEntity
  8
SEMA2D
100
AcDbLine
370
9
 62
9
  6
_SOLID
 10
4.1931806221
 20
4.9238552639
 30
0
 11
4.1931806222
 21
4.9246801218
 31
0
  0
LINE
  5
112
100
AcDbEntity
  8
SEMA2D
100
AcDbLine
370
9
 62
8
  6
_SOLID
 10
4.1955307818
 20
4.628917009
 30
0
 11
4.1955308315
 21
4.8769283082
 31
0
  0
LINE
  5
113
100
AcDbEntity
  8
SEMA2D
100
AcDbLine
370
9
 62
9
  6
_SOLID
 10
4.2024512196
 20
4.9246801166
 30
0
 11
4.2036420274
 21
4.9366050677
 31
0
  0
LINE
  5
114
100
AcDbEntity
  8
SEMA2D
100
AcDbLine
370
9
 62
9
  6
_SOLID
 10
4.1127140856
 20
4.8818564152
 30
0
 11
4.1026369331
 21
4.8921295458
 31
0
  0
LINE
  5
115
100
AcDbEntity
  8
SEMA2D
100
AcDbLine
370
9
 62
9
  6
_SOLID
 10
4.113796799
 20
4.8836614624
 30
0
 11
4.1073814769
 21
4.8902016781
 31
0
  0
LINE
  5
116
100
AcDbEntity
  8
SEMA2D
100
AcDbLine
370
9
 62
9
  6
_SOLID
 10
4.1136574335
 20
4.8838576054
 30
0
 11
4.1074405977
 21
4.890195318
 31
0
  0
LINE
  5
117
100
AcDbEntity
  8
SEMA2D
100
AcDbLine
370
9
 62
9
  6
_SOLID
 10
4.1147987499
 20
4.885021113
 30
0
 11
4.1085819141
 21
4.8913588257
 31
0
  0
LINE
  5
118
100
AcDbEntity
  8
SEMA2D
100
AcDbLine
370
9
 62
9
  6
_SOLID
 10
4.1195601689
 20
4.9159521494
 30
0
 11
4.1204834201
 21
4.9145074661
 31
0
  0
LINE
  5
119
100
AcDbEntity
  8
SEMA2D
100
AcDbLine
370
9
 62
9
  6
_SOLID
 10
4.2024348721
 20
4.9447552878
 30
0
 11
4.2024348749
 21
4.9392527917
 31
0
  0
LINE
  5
11A
100
AcDbEntity
  8
SEMA2D
100
AcDbLine
370
9
 62
9
  6
_SOLID
 10
4.2024348721
 20
4.9238552878
 30
0
 11
4.2024348786
 21
4.9129166868
 31
0
  0
LINE
  5
11B
100
AcDbEntity
  8
SEMA2D
100
AcDbLine
370
9
 62
9
  6
_SOLID
 10
4.2036420547
 20
4.9366050676
 30
0
 11
4.2036420547
 21
4.9369350206
 31
0
  0
LINE
  5
11C
100
AcDbEntity
  8
SEMA2D
100
AcDbLine
370
9
 62
9
  6
_SOLID
 10
4.2047948992
 20
4.9447552878
 30
0
 11
4.2047948973
 21
4.9425408386
 31
0
  0
LINE
  5
11D
100
AcDbEntity
  8
SEMA2D
100
AcDbLine
370
9
 62
9
  6
_SOLID
 10
4.2047948992
 20
4.9238552878
 30
0
 11
4.2047948965
 21
4.9162874419
 31
0
  0
LINE
  5
11E
100
AcDbEntity
  8
SEMA2D
100
AcDbLine
370
9
 62
9
  6
_SOLID
 10
4.2056301205
 20
4.9598057779
 30
0
 11
4.2056301286
 21
4.9635454861
 31
0
  0
LINE
  5
11F
100
AcDbEntity
  8
SEMA2D
100
AcDbLine
370
9
 62
9
  6
_SOLID
 10
4.2063682506
 20
4.9447552881
 30
0
 11
4.2063682495
 21
4.942540841
 31
0
  0
LINE
  5
120
100
AcDbEntity
  8
SEMA2D
100
AcDbLine
370
9
 62
9
  6
_SOLID
 10
4.2063682506
 20
4.9238552881
 30
0
 11
4.2063682491
 21
4.9162874369
 31
0
  0
LINE
  5
121
100
AcDbEntity
  8
SEMA2D
100
AcDbLine
370
9
 62
9
  6
_SOLID
 10
4.2121977332
 20
4.9531104679
 30
0
 11
4.2121977332
 21
4.9155819721
 31
0
  0
LINE
  5
122
100
AcDbEntity
  8
SEMA2D
100
AcDbLine
370
9
 62
9
  6
_SOLID
 10
4.2142357234
 20
4.9531104679
 30
0
 11
4.2142357235
 21
4.9155819721
 31
0
  0
LINE
  5
123
100
AcDbEntity
  8
SEMA2D
100
AcDbLine
370
9
 62
9
  6
_SOLID
 10
4.2158661152
 20
4.953110477
 30
0
 11
4.2158661155
 21
4.9155819669
 31
0
  0
LINE
  5
124
100
AcDbEntity
  8
SEMA2D
100
AcDbLine
370
9
 62
8
  6
_SOLID
 10
4.2215460459
 20
4.6464572688
 30
0
 11
4.2215460439
 21
4.8963758864
 31
0
  0
LINE
  5
125
100
AcDbEntity
  8
SEMA2D
100
AcDbLine
370
9
 62
9
  6
_SOLID
 10
4.2236107686
 20
4.907033471
 30
0
 11
4.2236107686
 21
4.9760426674
 31
0
  0
LINE
  5
126
100
AcDbEntity
  8
SEMA2D
100
AcDbLine
370
9
 62
9
  6
_SOLID
 10
4.228263788
 20
4.9742868164
 30
0
 11
4.228263788
 21
4.6499759125
 31
0
  0
LINE
  5
127
100
AcDbEntity
  8
SEMA2D
100
AcDbLine
370
9
 62
7
  6
_SOLID
 10
4.2285940137
 20
4.9765208589
 30
0
 11
4.2285940137
 21
4.6499759125
 31
0
  0
LINE
  5
128
100
AcDbEntity
  8
SEMA2D
100
AcDbLine
370
9
 62
7
  6
_SOLID
 10
4.2292929245
 20
4.9772333589
 30
0
 11
4.2292929245
 21
4.6497975877
 31
0
  0
ARC
  5
129
100
AcDbEntity
  8
SEMA2D
100
AcDbCircle
370
9
 62
7
  6
_SOLID
 10
4.2192929245
 20
4.6497975877
 30
0
 40
0.0100000000000002
100
AcDbArc
 50
300.523653085988
 51
0
  0
LINE
  5
12A
100
AcDbEntity
  8
SEMA2D
100
AcDbLine
370
9
 62
9
  6
_SOLID
 10
4.1912834082
 20
4.8787249055
 30
0
 11
4.1917208403
 21
4.8778925617
 31
0
  0
LINE
  5
12B
100
AcDbEntity
  8
SEMA2D
100
AcDbLine
370
9
 62
9
  6
_SOLID
 10
4.1400592354
 20
4.5977972012
 30
0
 11
4.1401526327
 21
4.5979619405
 31
0
  0
LINE
  5
12C
100
AcDbEntity
  8
SEMA2D
100
AcDbLine
370
9
 62
9
  6
_SOLID
 10
4.1746506974
 20
4.885021113
 30
0
 11
4.1757920139
 21
4.8838576054
 31
0
  0
LINE
  5
12D
100
AcDbEntity
  8
SEMA2D
100
AcDbLine
370
9
 62
9
  6
_SOLID
 10
4.1870211799
 20
4.8781562161
 30
0
 11
4.1858683525
 21
4.8793314585
 31
0
  0
LINE
  5
12E
100
AcDbEntity
  8
SEMA2D
100
AcDbLine
370
9
 62
9
  6
_SOLID
 10
4.1820088497
 20
4.8901953181
 30
0
 11
4.1808675333
 21
4.8913588257
 31
0
  0
LINE
  5
12F
100
AcDbEntity
  8
SEMA2D
100
AcDbLine
370
9
 62
9
  6
_SOLID
 10
4.0852090983
 20
4.9567691639
 30
0
 11
4.0847666427
 21
4.9570450251
 31
0
  0
LINE
  5
130
100
AcDbEntity
  8
SEMA2D
100
AcDbLine
370
9
 62
9
  6
_SOLID
 10
4.1348337927
 20
4.916891251
 30
0
 11
4.1318185333
 21
4.919021189
 31
0
  0
LINE
  5
131
100
AcDbEntity
  8
SEMA2D
100
AcDbLine
370
9
 62
9
  6
_SOLID
 10
4.2024348786
 20
4.9129166868
 30
0
 11
4.1743777794
 21
4.9129166869
 31
0
  0
LINE
  5
132
100
AcDbEntity
  8
SEMA2D
100
AcDbLine
370
9
 62
9
  6
_SOLID
 10
4.115071668
 20
4.9129166869
 30
0
 11
4.0870145688
 21
4.9129166868
 31
0
  0
LINE
  5
133
100
AcDbEntity
  8
SEMA2D
100
AcDbLine
370
9
 62
9
  6
_SOLID
 10
4.122753439
 20
4.9215970644
 30
0
 11
4.1225814311
 21
4.9216506387
 31
0
  0
LINE
  5
134
100
AcDbEntity
  8
SEMA2D
100
AcDbLine
370
9
 62
9
  6
_SOLID
 10
4.2048002044
 20
4.9242138782
 30
0
 11
4.2063661942
 21
4.9242329834
 31
0
  0
LINE
  5
135
100
AcDbEntity
  8
SEMA2D
100
AcDbLine
370
9
 62
9
  6
_SOLID
 10
4.2024348721
 20
4.9146409174
 30
0
 11
4.1743777835
 21
4.9146409175
 31
0
  0
LINE
  5
136
100
AcDbEntity
  8
SEMA2D
100
AcDbLine
370
9
 62
9
  6
_SOLID
 10
4.1150716639
 20
4.9146409175
 30
0
 11
4.0870145753
 21
4.9146409174
 31
0
  0
LINE
  5
137
100
AcDbEntity
  8
SEMA2D
100
AcDbLine
370
9
 62
9
  6
_SOLID
 10
4.0772517142
 20
4.9155819721
 30
0
 11
4.073583332
 21
4.915581966
 31
0
  0
LINE
  5
138
100
AcDbEntity
  8
SEMA2D
100
AcDbLine
370
9
 62
9
  6
_SOLID
 10
4.2158661155
 20
4.9155819669
 30
0
 11
4.2121977332
 21
4.9155819721
 31
0
  0
LINE
  5
139
100
AcDbEntity
  8
SEMA2D
100
AcDbLine
370
9
 62
9
  6
_SOLID
 10
4.0846545509
 20
4.9162874374
 30
0
 11
4.0830811983
 21
4.9162874369
 31
0
  0
LINE
  5
13A
100
AcDbEntity
  8
SEMA2D
100
AcDbLine
370
9
 62
9
  6
_SOLID
 10
4.2047948965
 20
4.9162874374
 30
0
 11
4.2063682491
 21
4.9162874369
 31
0
  0
LINE
  5
13B
100
AcDbEntity
  8
SEMA2D
100
AcDbLine
370
9
 62
9
  6
_SOLID
 10
4.2024348721
 20
4.9163651482
 30
0
 11
4.1743777835
 21
4.9163651482
 31
0
  0
LINE
  5
13C
100
AcDbEntity
  8
SEMA2D
100
AcDbLine
370
9
 62
9
  6
_SOLID
 10
4.1150716639
 20
4.9163651482
 30
0
 11
4.0870145753
 21
4.9163651482
 31
0
  0
LINE
  5
13D
100
AcDbEntity
  8
SEMA2D
100
AcDbLine
370
9
 62
9
  6
_SOLID
 10
4.1666960084
 20
4.9215969941
 30
0
 11
4.1650819432
 21
4.9215969941
 31
0
  0
LINE
  5
13E
100
AcDbEntity
  8
SEMA2D
100
AcDbLine
370
9
 62
9
  6
_SOLID
 10
4.122753439
 20
4.9215969941
 30
0
 11
4.1243675042
 21
4.9215969941
 31
0
  0
LINE
  5
13F
100
AcDbEntity
  8
SEMA2D
100
AcDbLine
370
9
 62
9
  6
_SOLID
 10
4.1225814311
 20
4.921650548
 30
0
 11
4.1209673659
 21
4.921650548
 31
0
  0
LINE
  5
140
100
AcDbEntity
  8
SEMA2D
100
AcDbLine
370
9
 62
9
  6
_SOLID
 10
4.1668680163
 20
4.921650548
 30
0
 11
4.1684820815
 21
4.921650548
 31
0
  0
LINE
  5
141
100
AcDbEntity
  8
SEMA2D
100
AcDbLine
370
9
 62
9
  6
_SOLID
 10
4.1564615992
 20
4.9228344961
 30
0
 11
4.1527932173
 21
4.9228344858
 31
0
  0
LINE
  5
142
100
AcDbEntity
  8
SEMA2D
100
AcDbLine
370
9
 62
9
  6
_SOLID
 10
4.1329878482
 20
4.9228344961
 30
0
 11
4.1366562304
 21
4.922834487
 31
0
  0
LINE
  5
143
100
AcDbEntity
  8
SEMA2D
100
AcDbLine
370
9
 62
9
  6
_SOLID
 10
4.1225814311
 20
4.9238552641
 30
0
 11
4.1209673659
 21
4.9238552641
 31
0
  0
LINE
  5
144
100
AcDbEntity
  8
SEMA2D
100
AcDbLine
370
9
 62
9
  6
_SOLID
 10
4.0870145753
 20
4.9238552878
 30
0
 11
4.0830811968
 21
4.9238552882
 31
0
  0
LINE
  5
145
100
AcDbEntity
  8
SEMA2D
100
AcDbLine
370
9
 62
9
  6
_SOLID
 10
4.1668680163
 20
4.9238552865
 30
0
 11
4.1684820815
 21
4.9238552865
 31
0
  0
LINE
  5
146
100
AcDbEntity
  8
SEMA2D
100
AcDbLine
370
9
 62
9
  6
_SOLID
 10
4.2024348721
 20
4.9238552878
 30
0
 11
4.2063682506
 21
4.9238552881
 31
0
  0
LINE
  5
147
100
AcDbEntity
  8
SEMA2D
100
AcDbLine
370
9
 62
9
  6
_SOLID
 10
4.1329878482
 20
4.9252208589
 30
0
 11
4.1366562307
 21
4.9252208589
 31
0
  0
LINE
  5
148
100
AcDbEntity
  8
SEMA2D
100
AcDbLine
370
9
 62
9
  6
_SOLID
 10
4.1527932167
 20
4.9252208589
 30
0
 11
4.1564615992
 21
4.9252208589
 31
0
  0
LINE
  5
149
100
AcDbEntity
  8
SEMA2D
100
AcDbLine
370
9
 62
9
  6
_SOLID
 10
4.1666960084
 20
4.9258271069
 30
0
 11
4.1650819432
 21
4.9258271069
 31
0
  0
LINE
  5
14A
100
AcDbEntity
  8
SEMA2D
100
AcDbLine
370
9
 62
9
  6
_SOLID
 10
4.122753439
 20
4.9258271069
 30
0
 11
4.1243675042
 21
4.9258271069
 31
0
  0
LINE
  5
14B
100
AcDbEntity
  8
SEMA2D
100
AcDbLine
370
9
 62
9
  6
_SOLID
 10
4.084649243
 20
4.9242138778
 30
0
 11
4.0830832533
 21
4.9242329834
 31
0
  0
LINE
  5
14C
100
AcDbEntity
  8
SEMA2D
100
AcDbLine
370
9
 62
9
  6
_SOLID
 10
4.2103032538
 20
4.9018909055
 30
0
 11
4.2077093117
 21
4.9045352743
 31
0
  0
LINE
  5
14D
100
AcDbEntity
  8
SEMA2D
100
AcDbLine
370
9
 62
9
  6
_SOLID
 10
4.0858074152
 20
4.9366050677
 30
0
 11
4.1221827395
 21
4.9366050677
 31
0
  0
LINE
  5
14E
100
AcDbEntity
  8
SEMA2D
100
AcDbLine
370
9
 62
9
  6
_SOLID
 10
4.1672667076
 20
4.9366050677
 30
0
 11
4.2036420274
 21
4.9366050677
 31
0
  0
LINE
  5
14F
100
AcDbEntity
  8
SEMA2D
100
AcDbLine
370
9
 62
9
  6
_SOLID
 10
4.0858073927
 20
4.9369349992
 30
0
 11
4.1221827222
 21
4.9369349992
 31
0
  0
LINE
  5
150
100
AcDbEntity
  8
SEMA2D
100
AcDbLine
370
9
 62
9
  6
_SOLID
 10
4.1672667252
 20
4.9369349992
 30
0
 11
4.2036420547
 21
4.9369349992
 31
0
  0
LINE
  5
151
100
AcDbEntity
  8
SEMA2D
100
AcDbLine
370
9
 62
9
  6
_SOLID
 10
4.2024348749
 20
4.9392527917
 30
0
 11
4.0870145725
 21
4.9392527917
 31
0
  0
LINE
  5
152
100
AcDbEntity
  8
SEMA2D
100
AcDbLine
370
9
 62
9
  6
_SOLID
 10
4.2024348721
 20
4.9409770224
 30
0
 11
4.0870145753
 21
4.9409770224
 31
0
  0
LINE
  5
153
100
AcDbEntity
  8
SEMA2D
100
AcDbLine
370
9
 62
9
  6
_SOLID
 10
4.2042475159
 20
4.9413091468
 30
0
 11
4.2052531178
 21
4.9400899351
 31
0
  0
LINE
  5
154
100
AcDbEntity
  8
SEMA2D
100
AcDbLine
370
9
 62
7
  6
_SOLID
 10
4.223940692
 20
4.6417522548
 30
0
 11
4.1498036639
 21
4.598040973
 31
0
  0
LINE
  5
155
100
AcDbEntity
  8
SEMA2D
100
AcDbLine
370
9
 62
7
  6
_SOLID
 10
4.2243718647
 20
4.6411833921
 30
0
 11
4.1497401236
 21
4.5971804268
 31
0
  0
LINE
  5
156
100
AcDbEntity
  8
SEMA2D
100
AcDbLine
370
9
 62
9
  6
_SOLID
 10
4.0846948507
 20
4.942129148
 30
0
 11
4.0831821653
 21
4.9417299357
 31
0
  0
LINE
  5
157
100
AcDbEntity
  8
SEMA2D
100
AcDbLine
370
9
 62
9
  6
_SOLID
 10
4.2048002044
 20
4.9451138782
 30
0
 11
4.2063661942
 21
4.9451329834
 31
0
  0
LINE
  5
158
100
AcDbEntity
  8
SEMA2D
100
AcDbLine
370
9
 62
9
  6
_SOLID
 10
4.0846545501
 20
4.9425408417
 30
0
 11
4.0830811979
 21
4.942540841
 31
0
  0
LINE
  5
159
100
AcDbEntity
  8
SEMA2D
100
AcDbLine
370
9
 62
9
  6
_SOLID
 10
4.2047948973
 20
4.9425408417
 30
0
 11
4.2063682495
 21
4.942540841
 31
0
  0
LINE
  5
15A
100
AcDbEntity
  8
SEMA2D
100
AcDbLine
370
9
 62
9
  6
_SOLID
 10
4.2024348721
 20
4.9427012532
 30
0
 11
4.0870145753
 21
4.9427012532
 31
0
  0
LINE
  5
15B
100
AcDbEntity
  8
SEMA2D
100
AcDbLine
370
9
 62
9
  6
_SOLID
 10
4.0830811968
 20
4.9447552881
 30
0
 11
4.2063682506
 21
4.9447552881
 31
0
  0
LINE
  5
15C
100
AcDbEntity
  8
SEMA2D
100
AcDbLine
370
9
 62
9
  6
_SOLID
 10
4.2024512196
 20
4.9455801166
 30
0
 11
4.0869982278
 21
4.9455801166
 31
0
  0
LINE
  5
15D
100
AcDbEntity
  8
SEMA2D
100
AcDbLine
370
9
 62
9
  6
_SOLID
 10
4.0993712388
 20
4.9517574883
 30
0
 11
4.1034132756
 21
4.9517574883
 31
0
  0
LINE
  5
15E
100
AcDbEntity
  8
SEMA2D
100
AcDbLine
370
9
 62
9
  6
_SOLID
 10
4.1860361718
 20
4.9517574883
 30
0
 11
4.1900782086
 21
4.9517574883
 31
0
  0
LINE
  5
15F
100
AcDbEntity
  8
SEMA2D
100
AcDbLine
370
9
 62
9
  6
_SOLID
 10
4.0772517142
 20
4.9531104679
 30
0
 11
4.073583332
 21
4.9531104762
 31
0
  0
LINE
  5
160
100
AcDbEntity
  8
SEMA2D
100
AcDbLine
370
9
 62
9
  6
_SOLID
 10
4.2121977332
 20
4.9531104679
 30
0
 11
4.2158661152
 21
4.953110477
 31
0
  0
LINE
  5
161
100
AcDbEntity
  8
SEMA2D
100
AcDbLine
370
9
 62
9
  6
_SOLID
 10
4.0993712459
 20
4.9534676069
 30
0
 11
4.1034132685
 21
4.9534676069
 31
0
  0
LINE
  5
162
100
AcDbEntity
  8
SEMA2D
100
AcDbLine
370
9
 62
9
  6
_SOLID
 10
4.1860361789
 20
4.9534676069
 30
0
 11
4.1900782015
 21
4.9534676069
 31
0
  0
LINE
  5
163
100
AcDbEntity
  8
SEMA2D
100
AcDbLine
370
9
 62
9
  6
_SOLID
 10
4.084649243
 20
4.9451138778
 30
0
 11
4.0830832533
 21
4.9451329834
 31
0
  0
LINE
  5
164
100
AcDbEntity
  8
SEMA2D
100
AcDbLine
370
9
 62
9
  6
_SOLID
 10
4.2047545937
 20
4.9421291519
 30
0
 11
4.2062672821
 21
4.9417299366
 31
0
  0
LINE
  5
165
100
AcDbEntity
  8
SEMA2D
100
AcDbLine
370
9
 62
9
  6
_SOLID
 10
4.203576661
 20
4.9568502196
 30
0
 11
4.1930587673
 21
4.9568502205
 31
0
  0
LINE
  5
166
100
AcDbEntity
  8
SEMA2D
100
AcDbLine
370
9
 62
9
  6
_SOLID
 10
4.1830556131
 20
4.9568502205
 30
0
 11
4.1063938343
 21
4.9568502205
 31
0
  0
LINE
  5
167
100
AcDbEntity
  8
SEMA2D
100
AcDbLine
370
9
 62
9
  6
_SOLID
 10
4.0963906801
 20
4.9568502205
 30
0
 11
4.0858727864
 21
4.9568502196
 31
0
  0
LINE
  5
168
100
AcDbEntity
  8
SEMA2D
100
AcDbLine
370
9
 62
9
  6
_SOLID
 10
4.2036828834
 20
4.9584999931
 30
0
 11
4.1915100957
 21
4.9584999131
 31
0
  0
LINE
  5
169
100
AcDbEntity
  8
SEMA2D
100
AcDbLine
370
9
 62
9
  6
_SOLID
 10
4.085766564
 20
4.9584999931
 30
0
 11
4.0979393517
 21
4.9584999131
 31
0
  0
LINE
  5
16A
100
AcDbEntity
  8
SEMA2D
100
AcDbLine
370
9
 62
9
  6
_SOLID
 10
4.1846042847
 20
4.9584999131
 30
0
 11
4.1048451627
 21
4.9584999131
 31
0
  0
LINE
  5
16B
100
AcDbEntity
  8
SEMA2D
100
AcDbLine
370
9
 62
9
  6
_SOLID
 10
4.0838193269
 20
4.9598057779
 30
0
 11
4.0979393517
 21
4.9598057779
 31
0
  0
LINE
  5
16C
100
AcDbEntity
  8
SEMA2D
100
AcDbLine
370
9
 62
9
  6
_SOLID
 10
4.1048451627
 20
4.9598057779
 30
0
 11
4.1846042847
 21
4.9598057779
 31
0
  0
LINE
  5
16D
100
AcDbEntity
  8
SEMA2D
100
AcDbLine
370
9
 62
9
  6
_SOLID
 10
4.1915100957
 20
4.9598057779
 30
0
 11
4.2056301205
 21
4.9598057779
 31
0
  0
LINE
  5
16E
100
AcDbEntity
  8
SEMA2D
100
AcDbLine
370
9
 62
9
  6
_SOLID
 10
4.1929854889
 20
4.9618833918
 30
0
 11
4.2056301205
 21
4.9618833937
 31
0
  0
LINE
  5
16F
100
AcDbEntity
  8
SEMA2D
100
AcDbLine
370
9
 62
9
  6
_SOLID
 10
4.0964639586
 20
4.9618833922
 30
0
 11
4.0838193269
 21
4.9618833937
 31
0
  0
LINE
  5
170
100
AcDbEntity
  8
SEMA2D
100
AcDbLine
370
9
 62
9
  6
_SOLID
 10
4.1063205559
 20
4.9618833918
 30
0
 11
4.1831288915
 21
4.9618833918
 31
0
  0
LINE
  5
171
100
AcDbEntity
  8
SEMA2D
100
AcDbLine
370
9
 62
9
  6
_SOLID
 10
4.1035971113
 20
4.9635454864
 30
0
 11
4.1858523361
 21
4.9635454864
 31
0
  0
LINE
  5
172
100
AcDbEntity
  8
SEMA2D
100
AcDbLine
370
9
 62
9
  6
_SOLID
 10
4.1902620443
 20
4.9635454864
 30
0
 11
4.2056301286
 21
4.9635454861
 31
0
  0
LINE
  5
173
100
AcDbEntity
  8
SEMA2D
100
AcDbLine
370
9
 62
9
  6
_SOLID
 10
4.0991874031
 20
4.9635454864
 30
0
 11
4.083819318
 21
4.9635454859
 31
0
  0
LINE
  5
174
100
AcDbEntity
  8
SEMA2D
100
AcDbLine
370
9
 62
9
  6
_SOLID
 10
4.1918761096
 20
4.9636850428
 30
0
 11
4.1902620443
 21
4.9636850428
 31
0
  0
LINE
  5
175
100
AcDbEntity
  8
SEMA2D
100
AcDbLine
370
9
 62
9
  6
_SOLID
 10
4.1052111766
 20
4.9636850428
 30
0
 11
4.1035971113
 21
4.9636850428
 31
0
  0
LINE
  5
176
100
AcDbEntity
  8
SEMA2D
100
AcDbLine
370
9
 62
9
  6
_SOLID
 10
4.0975733378
 20
4.9636850428
 30
0
 11
4.0991874031
 21
4.9636850428
 31
0
  0
LINE
  5
177
100
AcDbEntity
  8
SEMA2D
100
AcDbLine
370
9
 62
9
  6
_SOLID
 10
4.1842382708
 20
4.9636850428
 30
0
 11
4.1858523361
 21
4.9636850428
 31
0
  0
LINE
  5
178
100
AcDbEntity
  8
SEMA2D
100
AcDbLine
370
9
 62
9
  6
_SOLID
 10
4.1896006987
 20
4.9661725909
 30
0
 11
4.1865136816
 21
4.9661725909
 31
0
  0
LINE
  5
179
100
AcDbEntity
  8
SEMA2D
100
AcDbLine
370
9
 62
9
  6
_SOLID
 10
4.1029357657
 20
4.9661725909
 30
0
 11
4.0998487486
 21
4.9661725909
 31
0
  0
LINE
  5
17A
100
AcDbEntity
  8
SEMA2D
100
AcDbLine
370
9
 62
9
  6
_SOLID
 10
4.1896007256
 20
4.9673334053
 30
0
 11
4.1865136549
 21
4.9673334053
 31
0
  0
LINE
  5
17B
100
AcDbEntity
  8
SEMA2D
100
AcDbLine
370
9
 62
9
  6
_SOLID
 10
4.1029357926
 20
4.9673334053
 30
0
 11
4.0998487219
 21
4.9673334053
 31
0
  0
LINE
  5
17C
100
AcDbEntity
  8
SEMA2D
100
AcDbLine
370
9
 62
9
  6
_SOLID
 10
4.2236107686
 20
4.9741452712
 30
0
 11
4.0658386788
 21
4.9741452712
 31
0
  0
LINE
  5
17D
100
AcDbEntity
  8
SEMA2D
100
AcDbLine
370
9
 62
9
  6
_SOLID
 10
4.2236107686
 20
4.9760426674
 30
0
 11
4.0658386788
 21
4.9760426674
 31
0
  0
LINE
  5
17E
100
AcDbEntity
  8
SEMA2D
100
AcDbLine
370
9
 62
7
  6
_SOLID
 10
4.0608554337
 20
4.9765208589
 30
0
 11
4.2285940137
 21
4.9765208589
 31
0
  0
LINE
  5
17F
100
AcDbEntity
  8
SEMA2D
100
AcDbLine
370
9
 62
7
  6
_SOLID
 10
4.060156523
 20
4.9772333589
 30
0
 11
4.2292929245
 21
4.9772333589
 31
0
  0
ARC
  5
180
100
AcDbEntity
  8
SEMA2D
100
AcDbCircle
370
9
 62
9
  6
_SOLID
 10
4.0264882799
 20
4.5070351834
 30
0
 40
0.1362183626
100
AcDbArc
 50
58.4198429752728
 51
60.5328508274282
  0
ARC
  5
181
100
AcDbEntity
  8
SEMA2D
100
AcDbCircle
370
9
 62
9
  6
_SOLID
 10
4.057954997
 20
4.4884823689
 30
0
 40
0.1362183626
100
AcDbArc
 50
58.419842975273
 51
60.5328508274287
  0
ARC
  5
182
100
AcDbEntity
  8
SEMA2D
100
AcDbCircle
370
9
 62
9
  6
_SOLID
 10
4.0064265942
 20
4.9126543108
 30
0
 40
0.0976959583000001
100
AcDbArc
 50
338.108062543168
 51
339.156429078346
  0
ARC
  5
183
100
AcDbEntity
  8
SEMA2D
100
AcDbCircle
370
9
 62
9
  6
_SOLID
 10
4.1193578014
 20
4.9238466191
 30
0
 40
0.0362766056999999
100
AcDbArc
 50
179.389759333248
 51
179.986308027439
  0
ARC
  5
184
100
AcDbEntity
  8
SEMA2D
100
AcDbCircle
370
9
 62
9
  6
_SOLID
 10
4.0665783061
 20
4.923862832
 30
0
 40
0.0204362705999994
100
AcDbArc
 50
-0.0211510869907081
 51
2.29197642192549
  0
ARC
  5
185
100
AcDbEntity
  8
SEMA2D
100
AcDbCircle
370
9
 62
9
  6
_SOLID
 10
4.1347094238
 20
4.9238595141
 30
0
 40
0.0137420585999997
100
AcDbArc
 50
176.576465797198
 51
180.017719951955
  0
ARC
  5
186
100
AcDbEntity
  8
SEMA2D
100
AcDbCircle
370
9
 62
9
  6
_SOLID
 10
4.0719631161
 20
4.9238468605
 30
0
 40
0.0126914346000002
100
AcDbArc
 50
0.0380450421050062
 51
1.65713966851648
  0
ARC
  5
187
100
AcDbEntity
  8
SEMA2D
100
AcDbCircle
370
9
 62
9
  6
_SOLID
 10
4.1260983268
 20
4.9228209354
 30
0
 40
0.0105579115999994
100
AcDbArc
 50
325.831114015353
 51
0.0735416341033096
  0
ARC
  5
188
100
AcDbEntity
  8
SEMA2D
100
AcDbCircle
370
9
 62
9
  6
_SOLID
 10
4.1261525803
 20
4.9228221816
 30
0
 40
0.00887326610000017
100
AcDbArc
 50
325.825131615183
 51
0.0795160365260997
  0
ARC
  5
189
100
AcDbEntity
  8
SEMA2D
100
AcDbCircle
370
9
 62
9
  6
_SOLID
 10
4.1021521766
 20
4.881193746
 30
0
 40
0.00795058119999981
100
AcDbArc
 50
283.924687010502
 51
298.909286140936
  0
ARC
  5
18A
100
AcDbEntity
  8
SEMA2D
100
AcDbCircle
370
9
 62
9
  6
_SOLID
 10
4.1152168276
 20
4.8852149203
 30
0
 40
0.00640708619999941
100
AcDbArc
 50
300.599714289841
 51
304.332023490812
  0
ARC
  5
18B
100
AcDbEntity
  8
SEMA2D
100
AcDbCircle
370
9
 62
9
  6
_SOLID
 10
4.1028407285
 20
4.8783394003
 30
0
 40
0.00501445339999984
100
AcDbArc
 50
266.196994916345
 51
284.136874628971
  0
ARC
  5
18C
100
AcDbEntity
  8
SEMA2D
100
AcDbCircle
370
9
 62
9
  6
_SOLID
 10
4.1275659404
 20
4.9238563714
 30
0
 40
0.00498450910000026
100
AcDbArc
 50
174.314126992582
 51
180.012728572654
  0
ARC
  5
18D
100
AcDbEntity
  8
SEMA2D
100
AcDbCircle
370
9
 62
9
  6
_SOLID
 10
4.1036437339
 20
4.8808701794
 30
0
 40
0.00425640349999989
100
AcDbArc
 50
270
 51
284.911541897415
  0
ARC
  5
18E
100
AcDbEntity
  8
SEMA2D
100
AcDbCircle
370
9
 62
9
  6
_SOLID
 10
4.1147441531
 20
4.8845421545
 30
0
 40
0.00165274230000012
100
AcDbArc
 50
307.539569134903
 51
311.429400491866
  0
ARC
  5
18F
100
AcDbEntity
  8
SEMA2D
100
AcDbCircle
370
9
 62
9
  6
_SOLID
 10
3.7442031107
 20
5.3509196673
 30
0
 40
0.8543627515
100
AcDbArc
 50
299.467169500017
 51
301.580136678493
  0
ARC
  5
190
100
AcDbEntity
  8
SEMA2D
100
AcDbCircle
370
9
 62
9
  6
_SOLID
 10
3.7762942013
 20
5.3683875683
 30
0
 40
0.85311104
100
AcDbArc
 50
299.466504120556
 51
301.636140527075
  0
ARC
  5
191
100
AcDbEntity
  8
SEMA2D
100
AcDbCircle
370
9
 62
9
  6
_SOLID
 10
3.720179124
 20
5.3200655112
 30
0
 40
0.8399854518
100
AcDbArc
 50
300.721347538462
 51
301.587064902424
  0
ARC
  5
192
100
AcDbEntity
  8
SEMA2D
100
AcDbCircle
370
9
 62
9
  6
_SOLID
 10
3.7632523648
 20
5.244289631
 30
0
 40
0.750007652
100
AcDbArc
 50
302.303917963769
 51
304.523867375556
  0
ARC
  5
193
100
AcDbEntity
  8
SEMA2D
100
AcDbCircle
370
9
 62
9
  6
_SOLID
 10
3.795251475
 20
5.2620146802
 30
0
 40
0.7490234875
100
AcDbArc
 50
302.303334579327
 51
304.582589762563
  0
ARC
  5
194
100
AcDbEntity
  8
SEMA2D
100
AcDbCircle
370
9
 62
9
  6
_SOLID
 10
3.7376669906
 20
5.2170565857
 30
0
 40
0.739522851
100
AcDbArc
 50
303.621634457905
 51
304.529595423223
  0
ARC
  5
195
100
AcDbEntity
  8
SEMA2D
100
AcDbCircle
370
9
 62
9
  6
_SOLID
 10
4.0816320743
 20
5.0798193367
 30
0
 40
0.1888617805
100
AcDbArc
 50
276.385360261628
 51
277.923659956979
  0
ARC
  5
196
100
AcDbEntity
  8
SEMA2D
100
AcDbCircle
370
9
 62
9
  6
_SOLID
 10
4.1168527148
 20
4.9699876027
 30
0
 40
0.1239375069
100
AcDbArc
 50
324.500047450704
 51
329.472582274055
  0
ARC
  5
197
100
AcDbEntity
  8
SEMA2D
100
AcDbCircle
370
9
 62
9
  6
_SOLID
 10
4.0594673603
 20
4.9678889386
 30
0
 40
0.0996425572000001
100
AcDbArc
 50
303.73129593415
 51
328.829629004679
  0
ARC
  5
198
100
AcDbEntity
  8
SEMA2D
100
AcDbCircle
370
9
 62
9
  6
_SOLID
 10
4.060375959
 20
4.9666261543
 30
0
 40
0.0996252384999998
100
AcDbArc
 50
297.988231469841
 51
301.69181312109
  0
ARC
  5
199
100
AcDbEntity
  8
SEMA2D
100
AcDbCircle
370
9
 62
9
  6
_SOLID
 10
4.0597180886
 20
4.9678615548
 30
0
 40
0.0907763240999997
100
AcDbArc
 50
302.567186129379
 51
325.840862621112
  0
ARC
  5
19A
100
AcDbEntity
  8
SEMA2D
100
AcDbCircle
370
9
 62
9
  6
_SOLID
 10
4.059741243
 20
4.9678834505
 30
0
 40
0.0891290062999999
100
AcDbArc
 50
302.56630260966
 51
325.840692314834
  0
ARC
  5
19B
100
AcDbEntity
  8
SEMA2D
100
AcDbCircle
370
9
 62
9
  6
_SOLID
 10
4.059863071
 20
4.9678238005
 30
0
 40
0.0869441397000004
100
AcDbArc
 50
299.470239489949
 51
325.853561398278
  0
ARC
  5
19C
100
AcDbEntity
  8
SEMA2D
100
AcDbCircle
370
9
 62
9
  6
_SOLID
 10
4.119357768
 20
4.9447466195
 30
0
 40
0.0362765722999994
100
AcDbArc
 50
179.389759281685
 51
179.986308611856
  0
ARC
  5
19D
100
AcDbEntity
  8
SEMA2D
100
AcDbCircle
370
9
 62
9
  6
_SOLID
 10
4.1171272846
 20
4.9584983506
 30
0
 40
0.0208019986999997
100
AcDbArc
 50
179.995589617261
 51
184.54427358963
  0
ARC
  5
19E
100
AcDbEntity
  8
SEMA2D
100
AcDbCircle
370
9
 62
9
  6
_SOLID
 10
4.0857970675
 20
4.9584928076
 30
0
 40
0.0206621622000003
100
AcDbArc
 50
355.440326065789
 51
0.0198106693331474
  0
ARC
  5
19F
100
AcDbEntity
  8
SEMA2D
100
AcDbCircle
370
9
 62
9
  6
_SOLID
 10
4.066587506
 20
4.9447630143
 30
0
 40
0.0204270707999998
100
AcDbArc
 50
-0.0216720087966897
 51
2.29249756018089
  0
ARC
  5
1A0
100
AcDbEntity
  8
SEMA2D
100
AcDbCircle
370
9
 62
9
  6
_SOLID
 10
4.104484607
 20
4.9515162075
 30
0
 40
0.0199784580000002
100
AcDbArc
 50
159.539626157679
 51
164.755957196841
  0
ARC
  5
1A1
100
AcDbEntity
  8
SEMA2D
100
AcDbCircle
370
9
 62
9
  6
_SOLID
 10
4.0874232348
 20
4.9414007534
 30
0
 40
0.0155270824999998
100
AcDbArc
 50
95.7308023756882
 51
98.1982133490853
  0
ARC
  5
1A2
100
AcDbEntity
  8
SEMA2D
100
AcDbCircle
370
9
 62
9
  6
_SOLID
 10
4.1112682058
 20
4.9584988506
 30
0
 40
0.0133288539
100
AcDbArc
 50
179.995433022164
 51
185.677731885714
  0
ARC
  5
1A3
100
AcDbEntity
  8
SEMA2D
100
AcDbCircle
370
9
 62
9
  6
_SOLID
 10
4.0915851002
 20
4.9584954422
 30
0
 40
0.0132600631000006
100
AcDbArc
 50
354.307516532601
 51
0.0193185042890707
  0
ARC
  5
1A4
100
AcDbEntity
  8
SEMA2D
100
AcDbCircle
370
9
 62
9
  6
_SOLID
 10
4.0986111981
 20
4.9584990215
 30
0
 40
0.0128446738999997
100
AcDbArc
 50
179.995666089937
 51
187.375100349879
  0
ARC
  5
1A5
100
AcDbEntity
  8
SEMA2D
100
AcDbCircle
370
9
 62
9
  6
_SOLID
 10
4.0719630197
 20
4.9447468595
 30
0
 40
0.0126915310999998
100
AcDbArc
 50
0.0380494195053784
 51
1.65713199335684
  0
ARC
  5
1A6
100
AcDbEntity
  8
SEMA2D
100
AcDbCircle
370
9
 62
9
  6
_SOLID
 10
4.0863846884
 20
4.9425404274
 30
0
 40
0.00330349050000001
100
AcDbArc
 50
179.992826648594
 51
194.202166315922
  0
ARC
  5
1A7
100
AcDbEntity
  8
SEMA2D
100
AcDbCircle
370
9
 62
9
  6
_SOLID
 10
4.2629611675
 20
4.5070351833
 30
0
 40
0.136218362699999
100
AcDbArc
 50
119.467149118572
 51
121.580156962794
  0
ARC
  5
1A8
100
AcDbEntity
  8
SEMA2D
100
AcDbCircle
370
9
 62
9
  6
_SOLID
 10
4.2314944503
 20
4.4884823687
 30
0
 40
0.1362183626
100
AcDbArc
 50
119.467149113583
 51
121.580156970676
  0
ARC
  5
1A9
100
AcDbEntity
  8
SEMA2D
100
AcDbCircle
370
9
 62
9
  6
_SOLID
 10
4.2832351947
 20
4.9127340735
 30
0
 40
0.0979224690999994
100
AcDbArc
 50
200.842934515699
 51
201.888879950268
  0
ARC
  5
1AA
100
AcDbEntity
  8
SEMA2D
100
AcDbCircle
370
9
 62
9
  6
_SOLID
 10
4.170091687
 20
4.9238466195
 30
0
 40
0.0362765646999996
100
AcDbArc
 50
0.0136913423075253
 51
0.61024077560842
  0
ARC
  5
1AB
100
AcDbEntity
  8
SEMA2D
100
AcDbCircle
370
9
 62
9
  6
_SOLID
 10
4.1546272193
 20
4.9238561756
 30
0
 40
0.0138548621999997
100
AcDbArc
 50
-0.00367649828571702
 51
3.4093657022275
  0
ARC
  5
1AC
100
AcDbEntity
  8
SEMA2D
100
AcDbCircle
370
9
 62
9
  6
_SOLID
 10
4.2174864281
 20
4.9238468595
 30
0
 40
0.0126915313999998
100
AcDbArc
 50
178.342868041003
 51
179.961950511742
  0
ARC
  5
1AD
100
AcDbEntity
  8
SEMA2D
100
AcDbCircle
370
9
 62
9
  6
_SOLID
 10
4.1633511213
 20
4.9228209334
 30
0
 40
0.0105579117000003
100
AcDbArc
 50
179.926453598887
 51
214.168878761941
  0
ARC
  5
1AE
100
AcDbEntity
  8
SEMA2D
100
AcDbCircle
370
9
 62
9
  6
_SOLID
 10
4.1742327563
 20
4.8852151456
 30
0
 40
0.00640734940000032
100
AcDbArc
 50
235.668013427862
 51
239.400510174315
  0
ARC
  5
1AF
100
AcDbEntity
  8
SEMA2D
100
AcDbCircle
370
9
 62
9
  6
_SOLID
 10
4.1866069392
 20
4.878319694
 30
0
 40
0.00499491169999988
100
AcDbArc
 50
255.827451658716
 51
273.838115287458
  0
ARC
  5
1B0
100
AcDbEntity
  8
SEMA2D
100
AcDbCircle
370
9
 62
9
  6
_SOLID
 10
4.1618839592
 20
4.9238563917
 30
0
 40
0.00498405700000015
100
AcDbArc
 50
-0.0127048980337702
 51
5.6858971905232
  0
ARC
  5
1B1
100
AcDbEntity
  8
SEMA2D
100
AcDbCircle
370
9
 62
9
  6
_SOLID
 10
4.185805982
 20
4.8808722733
 30
0
 40
0.00425849600000028
100
AcDbArc
 50
255.092204834113
 51
270
  0
ARC
  5
1B2
100
AcDbEntity
  8
SEMA2D
100
AcDbCircle
370
9
 62
9
  6
_SOLID
 10
4.1747067587
 20
4.8845438715
 30
0
 40
0.00165499159999971
100
AcDbArc
 50
228.571388336826
 51
232.456808805734
  0
ARC
  5
1B3
100
AcDbEntity
  8
SEMA2D
100
AcDbCircle
370
9
 62
9
  6
_SOLID
 10
4.5452463367
 20
5.3509196674
 30
0
 40
0.8543627516
100
AcDbArc
 50
238.419863321507
 51
240.532830499983
  0
ARC
  5
1B4
100
AcDbEntity
  8
SEMA2D
100
AcDbCircle
370
9
 62
9
  6
_SOLID
 10
4.5131552775
 20
5.3683876227
 30
0
 40
0.8531111028
100
AcDbArc
 50
238.363858451955
 51
240.53349583824
  0
ARC
  5
1B5
100
AcDbEntity
  8
SEMA2D
100
AcDbCircle
370
9
 62
9
  6
_SOLID
 10
4.5546651745
 20
5.295905985
 30
0
 40
0.8117552196
100
AcDbArc
 50
238.397881294279
 51
239.293706737688
  0
ARC
  5
1B6
100
AcDbEntity
  8
SEMA2D
100
AcDbCircle
370
9
 62
9
  6
_SOLID
 10
4.5261970816
 20
5.2442896295
 30
0
 40
0.7500076502
100
AcDbArc
 50
235.476132624444
 51
237.696082056883
  0
ARC
  5
1B7
100
AcDbEntity
  8
SEMA2D
100
AcDbCircle
370
9
 62
9
  6
_SOLID
 10
4.4941979843
 20
5.2620146984
 30
0
 40
0.7490235093
100
AcDbArc
 50
235.417410278748
 51
237.696665420673
  0
ARC
  5
1B8
100
AcDbEntity
  8
SEMA2D
100
AcDbCircle
370
9
 62
9
  6
_SOLID
 10
4.5381477587
 20
5.1968997473
 30
0
 40
0.7151884168
100
AcDbArc
 50
235.454957466845
 51
236.393812677128
  0
ARC
  5
1B9
100
AcDbEntity
  8
SEMA2D
100
AcDbCircle
370
9
 62
9
  6
_SOLID
 10
4.2074892609
 20
5.0772053486
 30
0
 40
0.1862275211
100
AcDbArc
 50
262.065458547972
 51
263.62525770324
  0
ARC
  5
1BA
100
AcDbEntity
  8
SEMA2D
100
AcDbCircle
370
9
 62
9
  6
_SOLID
 10
4.1719711176
 20
4.9695811107
 30
0
 40
0.1231921355
100
AcDbArc
 50
210.512364972941
 51
215.515004819105
  0
ARC
  5
1BB
100
AcDbEntity
  8
SEMA2D
100
AcDbCircle
370
9
 62
9
  6
_SOLID
 10
4.1456323457
 20
4.9654179836
 30
0
 40
0.1008875309
100
AcDbArc
 50
230.038946876265
 51
234.885733167668
  0
ARC
  5
1BC
100
AcDbEntity
  8
SEMA2D
100
AcDbCircle
370
9
 62
9
  6
_SOLID
 10
4.1438257889
 20
4.965406677
 30
0
 40
0.100873285
100
AcDbArc
 50
305.113924545926
 51
309.961395735476
  0
ARC
  5
1BD
100
AcDbEntity
  8
SEMA2D
100
AcDbCircle
370
9
 62
9
  6
_SOLID
 10
4.2299820871
 20
4.9678889386
 30
0
 40
0.0996425572000001
100
AcDbArc
 50
211.170370995321
 51
236.268704061085
  0
ARC
  5
1BE
100
AcDbEntity
  8
SEMA2D
100
AcDbCircle
370
9
 62
9
  6
_SOLID
 10
4.2290734887
 20
4.9666261549
 30
0
 40
0.0996252392000003
100
AcDbArc
 50
238.308170429619
 51
242.011767610052
  0
ARC
  5
1BF
100
AcDbEntity
  8
SEMA2D
100
AcDbCircle
370
9
 62
9
  6
_SOLID
 10
4.1436835763
 20
4.9656948355
 30
0
 40
0.0991438942
100
AcDbArc
 50
298.69247486055
 51
323.723751002978
  0
ARC
  5
1C0
100
AcDbEntity
  8
SEMA2D
100
AcDbCircle
370
9
 62
9
  6
_SOLID
 10
4.1457658697
 20
4.9656948342
 30
0
 40
0.0991438922999999
100
AcDbArc
 50
216.276249386672
 51
241.307564006069
  0
ARC
  5
1C1
100
AcDbEntity
  8
SEMA2D
100
AcDbCircle
370
9
 62
9
  6
_SOLID
 10
4.2297313588
 20
4.9678615548
 30
0
 40
0.0907763239999997
100
AcDbArc
 50
214.159137841313
 51
237.43281387545
  0
ARC
  5
1C2
100
AcDbEntity
  8
SEMA2D
100
AcDbCircle
370
9
 62
9
  6
_SOLID
 10
4.229708205
 20
4.9678834507
 30
0
 40
0.0891290069000004
100
AcDbArc
 50
214.159307602535
 51
237.433697178967
  0
ARC
  5
1C3
100
AcDbEntity
  8
SEMA2D
100
AcDbCircle
370
9
 62
9
  6
_SOLID
 10
4.2295863711
 20
4.9678237956
 30
0
 40
0.0869441325999998
100
AcDbArc
 50
214.146437872273
 51
240.529927967067
  0
ARC
  5
1C4
100
AcDbEntity
  8
SEMA2D
100
AcDbCircle
370
9
 62
9
  6
_SOLID
 10
4.1700916873
 20
4.9447466195
 30
0
 40
0.0362765643999996
100
AcDbArc
 50
0.0136913251185778
 51
0.610240798525309
  0
ARC
  5
1C5
100
AcDbEntity
  8
SEMA2D
100
AcDbCircle
370
9
 62
9
  6
_SOLID
 10
4.2037922171
 20
4.9584983506
 30
0
 40
0.0208019981999996
100
AcDbArc
 50
179.995589611531
 51
184.544273606765
  0
ARC
  5
1C6
100
AcDbEntity
  8
SEMA2D
100
AcDbCircle
370
9
 62
9
  6
_SOLID
 10
4.1724620001
 20
4.9584928076
 30
0
 40
0.0206621625999999
100
AcDbArc
 50
355.4403260715
 51
0.0198106807937258
  0
ARC
  5
1C7
100
AcDbEntity
  8
SEMA2D
100
AcDbCircle
370
9
 62
9
  6
_SOLID
 10
4.1849646966
 20
4.9515161612
 30
0
 40
0.0199786089999998
100
AcDbArc
 50
15.2440626209297
 51
20.4603543165365
  0
ARC
  5
1C8
100
AcDbEntity
  8
SEMA2D
100
AcDbCircle
370
9
 62
9
  6
_SOLID
 10
4.2019998573
 20
4.9411850019
 30
0
 40
0.0157443881000003
100
AcDbArc
 50
81.8188169473819
 51
84.252167319524
  0
ARC
  5
1C9
100
AcDbEntity
  8
SEMA2D
100
AcDbCircle
370
9
 62
9
  6
_SOLID
 10
4.1979331391
 20
4.9584988507
 30
0
 40
0.0133288542000001
100
AcDbArc
 50
179.99543310811
 51
185.677731811027
  0
ARC
  5
1CA
100
AcDbEntity
  8
SEMA2D
100
AcDbCircle
370
9
 62
9
  6
_SOLID
 10
4.1782500333
 20
4.9584954421
 30
0
 40
0.0132600630000002
100
AcDbArc
 50
354.307516515497
 51
0.0193185386636975
  0
ARC
  5
1CB
100
AcDbEntity
  8
SEMA2D
100
AcDbCircle
370
9
 62
9
  6
_SOLID
 10
4.1908828561
 20
4.9584961484
 30
0
 40
0.0128000675999997
100
AcDbArc
 50
352.612023516449
 51
0.0172096642601948
  0
ARC
  5
1CC
100
AcDbEntity
  8
SEMA2D
100
AcDbCircle
370
9
 62
9
  6
_SOLID
 10
4.2174864292
 20
4.9447468595
 30
0
 40
0.0126915325999999
100
AcDbArc
 50
178.342868063913
 51
179.961950488824
  0
ARC
  5
1CD
100
AcDbEntity
  8
SEMA2D
100
AcDbCircle
370
9
 62
9
  6
_SOLID
 10
4.2030647593
 20
4.9425404274
 30
0
 40
0.00330349019999954
100
AcDbArc
 50
345.797848985324
 51
0.00717391289234932
  0
ARC
  5
1CE
100
AcDbEntity
  8
SEMA2D
100
AcDbCircle
370
9
 62
9
  6
_SOLID
 10
4.2025956558
 20
4.942897368
 30
0
 40
0.00229139890000019
100
AcDbArc
 50
316.124534516926
 51
340.41273856039
  0
ARC
  5
1CF
100
AcDbEntity
  8
SEMA2D
100
AcDbCircle
370
9
 62
7
  6
_SOLID
 10
4.1448222405
 20
4.6060208589
 30
0
 40
0.0102124999999997
100
AcDbArc
 50
239.956802077694
 51
300.043197922306
  0
LINE
  5
1D0
100
AcDbEntity
  8
SEMA2D
100
AcDbLine
370
9
 62
7
  6
_SOLID
 10
4.0615543445
 20
5.0822158296
 30
0
 11
4.0617059698
 21
5.0793226448
 31
0
  0
LINE
  5
1D1
100
AcDbEntity
  8
SEMA2D
100
AcDbLine
370
9
 62
7
  6
_SOLID
 10
4.060156523
 20
5.0822158296
 30
0
 11
4.060156523
 21
5.0850114726
 31
0
  0
LINE
  5
1D2
100
AcDbEntity
  8
SEMA2D
100
AcDbLine
370
9
 62
7
  6
_SOLID
 10
4.0611856594
 20
5.0913125535
 30
0
 11
4.0608554337
 21
5.0850114726
 31
0
  0
LINE
  5
1D3
100
AcDbEntity
  8
SEMA2D
100
AcDbLine
370
9
 62
9
  6
_SOLID
 10
4.0659345787
 20
5.0793226448
 30
0
 11
4.0658586671
 21
5.0822158296
 31
0
  0
LINE
  5
1D4
100
AcDbEntity
  8
SEMA2D
100
AcDbLine
370
9
 62
9
  6
_SOLID
 10
4.0651588438
 20
5.0822158296
 30
0
 11
4.0651588438
 21
5.0850114726
 31
0
  0
LINE
  5
1D5
100
AcDbEntity
  8
SEMA2D
100
AcDbLine
370
9
 62
9
  6
_SOLID
 10
4.0655087554
 20
5.0850114726
 30
0
 11
4.0656788299
 21
5.0914934306
 31
0
  0
LINE
  5
1D6
100
AcDbEntity
  8
SEMA2D
100
AcDbLine
370
9
 62
7
  6
_SOLID
 10
4.0920874011
 20
5.07557368
 30
0
 11
4.0954308302
 21
5.0630958325
 31
0
  0
LINE
  5
1D7
100
AcDbEntity
  8
SEMA2D
100
AcDbLine
370
9
 62
9
  6
_SOLID
 10
4.0945647777
 20
5.0766440614
 30
0
 11
4.0945647777
 21
5.0775564246
 31
0
  0
LINE
  5
1D8
100
AcDbEntity
  8
SEMA2D
100
AcDbLine
370
9
 62
9
  6
_SOLID
 10
4.0981524809
 20
5.0617144476
 30
0
 11
4.0981524809
 21
5.063254571
 31
0
  0
LINE
  5
1D9
100
AcDbEntity
  8
SEMA2D
100
AcDbLine
370
9
 62
7
  6
_SOLID
 10
4.0986493813
 20
5.0957281041
 30
0
 11
4.0995909194
 21
5.0973588958
 31
0
  0
LINE
  5
1DA
100
AcDbEntity
  8
SEMA2D
100
AcDbLine
370
9
 62
9
  6
_SOLID
 10
4.094564799
 20
5.0766440614
 30
0
 11
4.0981524809
 21
5.0632545707
 31
0
  0
LINE
  5
1DB
100
AcDbEntity
  8
SEMA2D
100
AcDbLine
370
9
 62
9
  6
_SOLID
 10
4.1046236497
 20
5.0617144476
 30
0
 11
4.1046236497
 21
5.0632545707
 31
0
  0
LINE
  5
1DC
100
AcDbEntity
  8
SEMA2D
100
AcDbLine
370
9
 62
9
  6
_SOLID
 10
4.1082113529
 20
5.0766440614
 30
0
 11
4.1082113529
 21
5.0775564246
 31
0
  0
LINE
  5
1DD
100
AcDbEntity
  8
SEMA2D
100
AcDbLine
370
9
 62
9
  6
_SOLID
 10
4.104623617
 20
5.0632545707
 30
0
 11
4.1082113191
 21
5.0766440614
 31
0
  0
LINE
  5
1DE
100
AcDbEntity
  8
SEMA2D
100
AcDbLine
370
9
 62
7
  6
_SOLID
 10
4.1069336275
 20
5.0948509913
 30
0
 11
4.1067817632
 21
5.0947272399
 31
0
  0
LINE
  5
1DF
100
AcDbEntity
  8
SEMA2D
100
AcDbLine
370
9
 62
7
  6
_SOLID
 10
4.1067817632
 20
5.0947272399
 30
0
 11
4.1066188411
 21
5.0946092659
 31
0
  0
LINE
  5
1E0
100
AcDbEntity
  8
SEMA2D
100
AcDbLine
370
9
 62
7
  6
_SOLID
 10
4.1066188411
 20
5.0946092659
 30
0
 11
4.1064452846
 21
5.0944968864
 31
0
  0
LINE
  5
1E1
100
AcDbEntity
  8
SEMA2D
100
AcDbLine
370
9
 62
7
  6
_SOLID
 10
4.1064452846
 20
5.0944968864
 30
0
 11
4.1062625513
 21
5.0943906367
 31
0
  0
LINE
  5
1E2
100
AcDbEntity
  8
SEMA2D
100
AcDbLine
370
9
 62
7
  6
_SOLID
 10
4.1062625513
 20
5.0943906367
 30
0
 11
4.1060717001
 21
5.0942907343
 31
0
  0
LINE
  5
1E3
100
AcDbEntity
  8
SEMA2D
100
AcDbLine
370
9
 62
7
  6
_SOLID
 10
4.1060717001
 20
5.0942907343
 30
0
 11
4.1058733133
 21
5.0941971431
 31
0
  0
LINE
  5
1E4
100
AcDbEntity
  8
SEMA2D
100
AcDbLine
370
9
 62
7
  6
_SOLID
 10
4.1058733133
 20
5.0941971431
 30
0
 11
4.1056679447
 21
5.0941098432
 31
0
  0
LINE
  5
1E5
100
AcDbEntity
  8
SEMA2D
100
AcDbLine
370
9
 62
7
  6
_SOLID
 10
4.1056679447
 20
5.0941098432
 30
0
 11
4.1055175019
 21
5.0940523234
 31
0
  0
LINE
  5
1E6
100
AcDbEntity
  8
SEMA2D
100
AcDbLine
370
9
 62
9
  6
_SOLID
 10
4.1076937868
 20
5.063161396
 30
0
 11
4.1113438981
 21
5.0767838234
 31
0
  0
LINE
  5
1E7
100
AcDbEntity
  8
SEMA2D
100
AcDbLine
370
9
 62
9
  6
_SOLID
 10
4.1163312304
 20
5.0767838234
 30
0
 11
4.1126811275
 21
5.063161396
 31
0
  0
LINE
  5
1E8
100
AcDbEntity
  8
SEMA2D
100
AcDbLine
370
9
 62
7
  6
_SOLID
 10
4.1181282247
 20
5.0754843472
 30
0
 11
4.1148087322
 21
5.0630958325
 31
0
  0
LINE
  5
1E9
100
AcDbEntity
  8
SEMA2D
100
AcDbLine
370
9
 62
7
  6
_SOLID
 10
4.103193595
 20
5.0973588958
 30
0
 11
4.1041351331
 21
5.0957281041
 31
0
  0
LINE
  5
1EA
100
AcDbEntity
  8
SEMA2D
100
AcDbLine
370
9
 62
7
  6
_SOLID
 10
4.1130084763
 20
5.0617144476
 30
0
 11
4.0972310861
 21
5.0617144476
 31
0
  0
LINE
  5
1EB
100
AcDbEntity
  8
SEMA2D
100
AcDbLine
370
9
 62
7
  6
_SOLID
 10
4.1764409711
 20
5.0617144476
 30
0
 11
4.1922183613
 21
5.0617144476
 31
0
  0
LINE
  5
1EC
100
AcDbEntity
  8
SEMA2D
100
AcDbLine
370
9
 62
9
  6
_SOLID
 10
4.1126811275
 20
5.063161396
 30
0
 11
4.1076937868
 21
5.063161396
 31
0
  0
LINE
  5
1ED
100
AcDbEntity
  8
SEMA2D
100
AcDbLine
370
9
 62
9
  6
_SOLID
 10
4.1767683199
 20
5.063161396
 30
0
 11
4.1817556707
 21
5.063161396
 31
0
  0
LINE
  5
1EE
100
AcDbEntity
  8
SEMA2D
100
AcDbLine
370
9
 62
9
  6
_SOLID
 10
4.104623617
 20
5.0632545707
 30
0
 11
4.0981524809
 21
5.0632545707
 31
0
  0
LINE
  5
1EF
100
AcDbEntity
  8
SEMA2D
100
AcDbLine
370
9
 62
9
  6
_SOLID
 10
4.1848258305
 20
5.0632545707
 30
0
 11
4.1912969665
 21
5.0632545707
 31
0
  0
LINE
  5
1F0
100
AcDbEntity
  8
SEMA2D
100
AcDbLine
370
9
 62
7
  6
_SOLID
 10
4.1046706268
 20
5.0946081965
 30
0
 11
4.1045179937
 21
5.0947254435
 31
0
  0
LINE
  5
1F1
100
AcDbEntity
  8
SEMA2D
100
AcDbLine
370
9
 62
7
  6
_SOLID
 10
4.1045179937
 20
5.0947254435
 30
0
 11
4.1043606191
 21
5.0948502193
 31
0
  0
LINE
  5
1F2
100
AcDbEntity
  8
SEMA2D
100
AcDbLine
370
9
 62
7
  6
_SOLID
 10
4.1043606191
 20
5.0948502193
 30
0
 11
4.104199015
 21
5.0949824822
 31
0
  0
LINE
  5
1F3
100
AcDbEntity
  8
SEMA2D
100
AcDbLine
370
9
 62
7
  6
_SOLID
 10
4.1038701762
 20
5.0952431074
 30
0
 11
4.1037150088
 21
5.0953451335
 31
0
  0
LINE
  5
1F4
100
AcDbEntity
  8
SEMA2D
100
AcDbLine
370
9
 62
7
  6
_SOLID
 10
4.1037150088
 20
5.0953451335
 30
0
 11
4.1035538421
 21
5.095437091
 31
0
  0
LINE
  5
1F5
100
AcDbEntity
  8
SEMA2D
100
AcDbLine
370
9
 62
7
  6
_SOLID
 10
4.1035538421
 20
5.095437091
 30
0
 11
4.1033887086
 21
5.0955173305
 31
0
  0
LINE
  5
1F6
100
AcDbEntity
  8
SEMA2D
100
AcDbLine
370
9
 62
7
  6
_SOLID
 10
4.1033887086
 20
5.0955173305
 30
0
 11
4.1032206281
 21
5.0955851512
 31
0
  0
LINE
  5
1F7
100
AcDbEntity
  8
SEMA2D
100
AcDbLine
370
9
 62
7
  6
_SOLID
 10
4.1032206281
 20
5.0955851512
 30
0
 11
4.1030518515
 21
5.0956397214
 31
0
  0
LINE
  5
1F8
100
AcDbEntity
  8
SEMA2D
100
AcDbLine
370
9
 62
7
  6
_SOLID
 10
4.1030518515
 20
5.0956397214
 30
0
 11
4.10288387
 21
5.0956809393
 31
0
  0
LINE
  5
1F9
100
AcDbEntity
  8
SEMA2D
100
AcDbLine
370
9
 62
7
  6
_SOLID
 10
4.10288387
 20
5.0956809393
 30
0
 11
4.1027188881
 21
5.0957088962
 31
0
  0
LINE
  5
1FA
100
AcDbEntity
  8
SEMA2D
100
AcDbLine
370
9
 62
7
  6
_SOLID
 10
4.1027188881
 20
5.0957088962
 30
0
 11
4.102559032
 21
5.0957241998
 31
0
  0
LINE
  5
1FB
100
AcDbEntity
  8
SEMA2D
100
AcDbLine
370
9
 62
9
  6
_SOLID
 10
4.1397093238
 20
5.0822158296
 30
0
 11
4.1397093238
 21
5.0850114726
 31
0
  0
LINE
  5
1FC
100
AcDbEntity
  8
SEMA2D
100
AcDbLine
370
9
 62
9
  6
_SOLID
 10
4.1404850587
 20
5.0793226448
 30
0
 11
4.1404091471
 21
5.0822158296
 31
0
  0
LINE
  5
1FD
100
AcDbEntity
  8
SEMA2D
100
AcDbLine
370
9
 62
9
  6
_SOLID
 10
4.1400592354
 20
5.0850114726
 30
0
 11
4.1401526327
 21
5.0885728906
 31
0
  0
LINE
  5
1FE
100
AcDbEntity
  8
SEMA2D
100
AcDbLine
370
9
 62
9
  6
_SOLID
 10
4.094564799
 20
5.0766440614
 30
0
 11
4.1082113191
 21
5.0766440614
 31
0
  0
LINE
  5
1FF
100
AcDbEntity
  8
SEMA2D
100
AcDbLine
370
9
 62
9
  6
_SOLID
 10
4.1812381283
 20
5.0766440614
 30
0
 11
4.1948846484
 21
5.0766440614
 31
0
  0
LINE
  5
200
100
AcDbEntity
  8
SEMA2D
100
AcDbLine
370
9
 62
9
  6
_SOLID
 10
4.1113438981
 20
5.0767838234
 30
0
 11
4.1163312304
 21
5.0767838234
 31
0
  0
LINE
  5
201
100
AcDbEntity
  8
SEMA2D
100
AcDbLine
370
9
 62
9
  6
_SOLID
 10
4.173118217
 20
5.0767838234
 30
0
 11
4.1781055493
 21
5.0767838234
 31
0
  0
LINE
  5
202
100
AcDbEntity
  8
SEMA2D
100
AcDbLine
370
9
 62
7
  6
_SOLID
 10
4.2020431259
 20
5.0775564246
 30
0
 11
4.1988989479
 21
5.0775564246
 31
0
  0
LINE
  5
203
100
AcDbEntity
  8
SEMA2D
100
AcDbLine
370
9
 62
7
  6
_SOLID
 10
4.2258822698
 20
5.0775564246
 30
0
 11
4.0635671776
 21
5.0775564246
 31
0
  0
LINE
  5
204
100
AcDbEntity
  8
SEMA2D
100
AcDbLine
370
9
 62
9
  6
_SOLID
 10
4.2277434776
 20
5.0793226448
 30
0
 11
4.0617059698
 21
5.0793226448
 31
0
  0
LINE
  5
205
100
AcDbEntity
  8
SEMA2D
100
AcDbLine
370
9
 62
7
  6
_SOLID
 10
4.0894146046
 20
5.0775564222
 30
0
 11
4.0895974291
 21
5.0775500812
 31
0
  0
LINE
  5
206
100
AcDbEntity
  8
SEMA2D
100
AcDbLine
370
9
 62
9
  6
_SOLID
 10
4.149390212
 20
5.0850114726
 30
0
 11
4.1492968222
 21
5.0885728914
 31
0
  0
LINE
  5
207
100
AcDbEntity
  8
SEMA2D
100
AcDbLine
370
9
 62
9
  6
_SOLID
 10
4.1497401236
 20
5.0822158296
 30
0
 11
4.1497401236
 21
5.0850114726
 31
0
  0
LINE
  5
208
100
AcDbEntity
  8
SEMA2D
100
AcDbLine
370
9
 62
9
  6
_SOLID
 10
4.1489643887
 20
5.0793226448
 30
0
 11
4.1490403003
 21
5.0822158296
 31
0
  0
LINE
  5
209
100
AcDbEntity
  8
SEMA2D
100
AcDbLine
370
9
 62
7
  6
_SOLID
 10
4.2292929245
 20
5.0822158296
 30
0
 11
4.060156523
 21
5.0822158296
 31
0
  0
LINE
  5
20A
100
AcDbEntity
  8
SEMA2D
100
AcDbLine
370
9
 62
7
  6
_SOLID
 10
4.2292929245
 20
5.0850114726
 30
0
 11
4.060156523
 21
5.0850114726
 31
0
  0
LINE
  5
20B
100
AcDbEntity
  8
SEMA2D
100
AcDbLine
370
9
 62
7
  6
_SOLID
 10
4.1844425697
 20
5.0943639986
 30
0
 11
4.1842562503
 21
5.0942413671
 31
0
  0
LINE
  5
20C
100
AcDbEntity
  8
SEMA2D
100
AcDbLine
370
9
 62
7
  6
_SOLID
 10
4.1842562503
 20
5.0942413671
 30
0
 11
4.184071461
 21
5.0941295878
 31
0
  0
LINE
  5
20D
100
AcDbEntity
  8
SEMA2D
100
AcDbLine
370
9
 62
7
  6
_SOLID
 10
4.184071461
 20
5.0941295878
 30
0
 11
4.183889852
 21
5.0940290022
 31
0
  0
LINE
  5
20E
100
AcDbEntity
  8
SEMA2D
100
AcDbLine
370
9
 62
7
  6
_SOLID
 10
4.183889852
 20
5.0940290022
 30
0
 11
4.1837127842
 21
5.0939396452
 31
0
  0
LINE
  5
20F
100
AcDbEntity
  8
SEMA2D
100
AcDbLine
370
9
 62
7
  6
_SOLID
 10
4.1837127842
 20
5.0939396452
 30
0
 11
4.1835418176
 21
5.0938615072
 31
0
  0
LINE
  5
210
100
AcDbEntity
  8
SEMA2D
100
AcDbLine
370
9
 62
7
  6
_SOLID
 10
4.1835418176
 20
5.0938615072
 30
0
 11
4.1833787874
 21
5.0937945381
 31
0
  0
LINE
  5
211
100
AcDbEntity
  8
SEMA2D
100
AcDbLine
370
9
 62
7
  6
_SOLID
 10
4.1833787874
 20
5.0937945381
 30
0
 11
4.1832239249
 21
5.0937379122
 31
0
  0
LINE
  5
212
100
AcDbEntity
  8
SEMA2D
100
AcDbLine
370
9
 62
7
  6
_SOLID
 10
4.1852504276
 20
5.0949824784
 30
0
 11
4.1850888241
 21
5.0948502155
 31
0
  0
LINE
  5
213
100
AcDbEntity
  8
SEMA2D
100
AcDbLine
370
9
 62
7
  6
_SOLID
 10
4.1850888241
 20
5.0948502155
 30
0
 11
4.1849314508
 21
5.09472544
 31
0
  0
LINE
  5
214
100
AcDbEntity
  8
SEMA2D
100
AcDbLine
370
9
 62
7
  6
_SOLID
 10
4.1849314508
 20
5.09472544
 30
0
 11
4.1847788193
 21
5.094608196
 31
0
  0
LINE
  5
215
100
AcDbEntity
  8
SEMA2D
100
AcDbLine
370
9
 62
7
  6
_SOLID
 10
4.1868901129
 20
5.0957241815
 30
0
 11
4.1867300849
 21
5.0957088337
 31
0
  0
LINE
  5
216
100
AcDbEntity
  8
SEMA2D
100
AcDbLine
370
9
 62
7
  6
_SOLID
 10
4.1867300849
 20
5.0957088337
 30
0
 11
4.1865649469
 21
5.0956808083
 31
0
  0
LINE
  5
217
100
AcDbEntity
  8
SEMA2D
100
AcDbLine
370
9
 62
7
  6
_SOLID
 10
4.1865649469
 20
5.0956808083
 30
0
 11
4.1863968377
 21
5.0956395062
 31
0
  0
LINE
  5
218
100
AcDbEntity
  8
SEMA2D
100
AcDbLine
370
9
 62
7
  6
_SOLID
 10
4.1863968377
 20
5.0956395062
 30
0
 11
4.1862279773
 21
5.0955848452
 31
0
  0
LINE
  5
219
100
AcDbEntity
  8
SEMA2D
100
AcDbLine
370
9
 62
7
  6
_SOLID
 10
4.1862279773
 20
5.0955848452
 30
0
 11
4.1860598641
 21
5.0955169418
 31
0
  0
LINE
  5
21A
100
AcDbEntity
  8
SEMA2D
100
AcDbLine
370
9
 62
7
  6
_SOLID
 10
4.1860598641
 20
5.0955169418
 30
0
 11
4.1858947613
 21
5.0954366458
 31
0
  0
LINE
  5
21B
100
AcDbEntity
  8
SEMA2D
100
AcDbLine
370
9
 62
7
  6
_SOLID
 10
4.1858947613
 20
5.0954366458
 30
0
 11
4.1857336936
 21
5.0953446768
 31
0
  0
LINE
  5
21C
100
AcDbEntity
  8
SEMA2D
100
AcDbLine
370
9
 62
7
  6
_SOLID
 10
4.1857336936
 20
5.0953446768
 30
0
 11
4.1855786987
 21
5.0952427066
 31
0
  0
LINE
  5
21D
100
AcDbEntity
  8
SEMA2D
100
AcDbLine
370
9
 62
7
  6
_SOLID
 10
4.1823204672
 20
5.0935664157
 30
0
 11
4.1767353372
 21
5.0935664157
 31
0
  0
LINE
  5
21E
100
AcDbEntity
  8
SEMA2D
100
AcDbLine
370
9
 62
7
  6
_SOLID
 10
4.1127140856
 20
5.0935664157
 30
0
 11
4.1071291068
 21
5.0935664157
 31
0
  0
LINE
  5
21F
100
AcDbEntity
  8
SEMA2D
100
AcDbLine
370
9
 62
9
  6
_SOLID
 10
4.0808355907
 20
5.0945632528
 30
0
 11
4.0876005882
 21
5.0945632528
 31
0
  0
LINE
  5
220
100
AcDbEntity
  8
SEMA2D
100
AcDbLine
370
9
 62
9
  6
_SOLID
 10
4.2018488593
 20
5.0945632528
 30
0
 11
4.2086138567
 21
5.0945632528
 31
0
  0
LINE
  5
221
100
AcDbEntity
  8
SEMA2D
100
AcDbLine
370
9
 62
9
  6
_SOLID
 10
4.1848296738
 20
5.0946472599
 30
0
 11
4.1827782283
 21
5.0946472599
 31
0
  0
LINE
  5
222
100
AcDbEntity
  8
SEMA2D
100
AcDbLine
370
9
 62
9
  6
_SOLID
 10
4.1066713109
 20
5.0946472599
 30
0
 11
4.1046197737
 21
5.0946472599
 31
0
  0
LINE
  5
223
100
AcDbEntity
  8
SEMA2D
100
AcDbLine
370
9
 62
9
  6
_SOLID
 10
4.1820679703
 20
5.0947314564
 30
0
 11
4.1756526484
 21
5.094731267
 31
0
  0
LINE
  5
224
100
AcDbEntity
  8
SEMA2D
100
AcDbLine
370
9
 62
9
  6
_SOLID
 10
4.1136574335
 20
5.0947962231
 30
0
 11
4.1074405977
 21
5.0947962231
 31
0
  0
LINE
  5
225
100
AcDbEntity
  8
SEMA2D
100
AcDbLine
370
9
 62
9
  6
_SOLID
 10
4.1757920139
 20
5.0947962231
 30
0
 11
4.1820088497
 21
5.0947962231
 31
0
  0
LINE
  5
226
100
AcDbEntity
  8
SEMA2D
100
AcDbLine
370
9
 62
7
  6
_SOLID
 10
4.1931806221
 20
5.0957281041
 30
0
 11
4.191390284
 21
5.0957281041
 31
0
  0
LINE
  5
227
100
AcDbEntity
  8
SEMA2D
100
AcDbLine
370
9
 62
7
  6
_SOLID
 10
4.1755437027
 20
5.0957281041
 30
0
 11
4.1746088603
 21
5.0957281041
 31
0
  0
LINE
  5
228
100
AcDbEntity
  8
SEMA2D
100
AcDbLine
370
9
 62
7
  6
_SOLID
 10
4.1744492489
 20
5.0957281041
 30
0
 11
4.1708193053
 21
5.0957281041
 31
0
  0
LINE
  5
229
100
AcDbEntity
  8
SEMA2D
100
AcDbLine
370
9
 62
7
  6
_SOLID
 10
4.1138387228
 20
5.0957281041
 30
0
 11
4.1148464581
 21
5.0957281041
 31
0
  0
LINE
  5
22A
100
AcDbEntity
  8
SEMA2D
100
AcDbLine
370
9
 62
7
  6
_SOLID
 10
4.1151428437
 20
5.0957281041
 30
0
 11
4.1186301421
 21
5.0957281041
 31
0
  0
LINE
  5
22B
100
AcDbEntity
  8
SEMA2D
100
AcDbLine
370
9
 62
7
  6
_SOLID
 10
4.0658386788
 20
5.0957281041
 30
0
 11
4.2236107686
 21
5.0957281041
 31
0
  0
LINE
  5
22C
100
AcDbEntity
  8
SEMA2D
100
AcDbLine
370
9
 62
7
  6
_SOLID
 10
4.1062270078
 20
5.0937374028
 30
0
 11
4.1060721008
 21
5.0937939795
 31
0
  0
LINE
  5
22D
100
AcDbEntity
  8
SEMA2D
100
AcDbLine
370
9
 62
7
  6
_SOLID
 10
4.1060721008
 20
5.0937939795
 30
0
 11
4.1059088592
 21
5.0938609745
 31
0
  0
LINE
  5
22E
100
AcDbEntity
  8
SEMA2D
100
AcDbLine
370
9
 62
7
  6
_SOLID
 10
4.1059088592
 20
5.0938609745
 30
0
 11
4.1057374927
 21
5.0939392468
 31
0
  0
LINE
  5
22F
100
AcDbEntity
  8
SEMA2D
100
AcDbLine
370
9
 62
7
  6
_SOLID
 10
4.1057374927
 20
5.0939392468
 30
0
 11
4.1055599771
 21
5.0940288004
 31
0
  0
LINE
  5
230
100
AcDbEntity
  8
SEMA2D
100
AcDbLine
370
9
 62
7
  6
_SOLID
 10
4.1055599771
 20
5.0940288004
 30
0
 11
4.1053779801
 21
5.0941295914
 31
0
  0
LINE
  5
231
100
AcDbEntity
  8
SEMA2D
100
AcDbLine
370
9
 62
7
  6
_SOLID
 10
4.1053779801
 20
5.0941295914
 30
0
 11
4.1051929459
 21
5.0942415255
 31
0
  0
LINE
  5
232
100
AcDbEntity
  8
SEMA2D
100
AcDbLine
370
9
 62
7
  6
_SOLID
 10
4.1886476913
 20
5.0980578066
 30
0
 11
4.1874666891
 21
5.0980578066
 31
0
  0
LINE
  5
233
100
AcDbEntity
  8
SEMA2D
100
AcDbLine
370
9
 62
7
  6
_SOLID
 10
4.1019827583
 20
5.0980578066
 30
0
 11
4.1008017561
 21
5.0980578066
 31
0
  0
LINE
  5
234
100
AcDbEntity
  8
SEMA2D
100
AcDbLine
370
9
 62
7
  6
_SOLID
 10
4.1853143143
 20
5.0957281041
 30
0
 11
4.1862558524
 21
5.0973588958
 31
0
  0
LINE
  5
235
100
AcDbEntity
  8
SEMA2D
100
AcDbLine
370
9
 62
7
  6
_SOLID
 10
4.183787898
 20
5.0941072683
 30
0
 11
4.1835823303
 21
5.0941943728
 31
0
  0
LINE
  5
236
100
AcDbEntity
  8
SEMA2D
100
AcDbLine
370
9
 62
7
  6
_SOLID
 10
4.1835823303
 20
5.0941943728
 30
0
 11
4.1833837245
 21
5.0942877693
 31
0
  0
LINE
  5
237
100
AcDbEntity
  8
SEMA2D
100
AcDbLine
370
9
 62
7
  6
_SOLID
 10
4.1833837245
 20
5.0942877693
 30
0
 11
4.183192636
 21
5.0943874763
 31
0
  0
LINE
  5
238
100
AcDbEntity
  8
SEMA2D
100
AcDbLine
370
9
 62
7
  6
_SOLID
 10
4.183192636
 20
5.0943874763
 30
0
 11
4.1830096442
 21
5.0944935305
 31
0
  0
LINE
  5
239
100
AcDbEntity
  8
SEMA2D
100
AcDbLine
370
9
 62
7
  6
_SOLID
 10
4.1830096442
 20
5.0944935305
 30
0
 11
4.1828358016
 21
5.0946057173
 31
0
  0
LINE
  5
23A
100
AcDbEntity
  8
SEMA2D
100
AcDbLine
370
9
 62
7
  6
_SOLID
 10
4.1828358016
 20
5.0946057173
 30
0
 11
4.1826725544
 21
5.09472351
 31
0
  0
LINE
  5
23B
100
AcDbEntity
  8
SEMA2D
100
AcDbLine
370
9
 62
7
  6
_SOLID
 10
4.1826725544
 20
5.09472351
 30
0
 11
4.1825203429
 21
5.094847077
 31
0
  0
LINE
  5
23C
100
AcDbEntity
  8
SEMA2D
100
AcDbLine
370
9
 62
7
  6
_SOLID
 10
4.1746407152
 20
5.0630958325
 30
0
 11
4.1713212227
 21
5.0754843472
 31
0
  0
LINE
  5
23D
100
AcDbEntity
  8
SEMA2D
100
AcDbLine
370
9
 62
9
  6
_SOLID
 10
4.1767683199
 20
5.063161396
 30
0
 11
4.173118217
 21
5.0767838234
 31
0
  0
LINE
  5
23E
100
AcDbEntity
  8
SEMA2D
100
AcDbLine
370
9
 62
9
  6
_SOLID
 10
4.1781055493
 20
5.0767838234
 30
0
 11
4.1817556707
 21
5.063161396
 31
0
  0
LINE
  5
23F
100
AcDbEntity
  8
SEMA2D
100
AcDbLine
370
9
 62
9
  6
_SOLID
 10
4.1812381283
 20
5.0766440614
 30
0
 11
4.1848258305
 21
5.0632545707
 31
0
  0
LINE
  5
240
100
AcDbEntity
  8
SEMA2D
100
AcDbLine
370
9
 62
9
  6
_SOLID
 10
4.1812380945
 20
5.0766440614
 30
0
 11
4.1812380945
 21
5.0775564246
 31
0
  0
LINE
  5
241
100
AcDbEntity
  8
SEMA2D
100
AcDbLine
370
9
 62
9
  6
_SOLID
 10
4.1848257977
 20
5.0632545707
 30
0
 11
4.1848257977
 21
5.0617144476
 31
0
  0
LINE
  5
242
100
AcDbEntity
  8
SEMA2D
100
AcDbLine
370
9
 62
9
  6
_SOLID
 10
4.1912969665
 20
5.063254571
 30
0
 11
4.1912969665
 21
5.0617144476
 31
0
  0
LINE
  5
243
100
AcDbEntity
  8
SEMA2D
100
AcDbLine
370
9
 62
9
  6
_SOLID
 10
4.1948846697
 20
5.0766440616
 30
0
 11
4.1948846697
 21
5.0775564246
 31
0
  0
LINE
  5
244
100
AcDbEntity
  8
SEMA2D
100
AcDbLine
370
9
 62
9
  6
_SOLID
 10
4.1912969665
 20
5.0632545707
 30
0
 11
4.1948846484
 21
5.0766440614
 31
0
  0
LINE
  5
245
100
AcDbEntity
  8
SEMA2D
100
AcDbLine
370
9
 62
7
  6
_SOLID
 10
4.1940186172
 20
5.0630958325
 30
0
 11
4.1973620463
 21
5.0755736799
 31
0
  0
LINE
  5
246
100
AcDbEntity
  8
SEMA2D
100
AcDbLine
370
9
 62
7
  6
_SOLID
 10
4.189858528
 20
5.0973588958
 30
0
 11
4.1908000661
 21
5.0957281041
 31
0
  0
LINE
  5
247
100
AcDbEntity
  8
SEMA2D
100
AcDbLine
370
9
 62
7
  6
_SOLID
 10
4.2285940137
 20
5.0850114726
 30
0
 11
4.228263788
 21
5.0913125535
 31
0
  0
LINE
  5
248
100
AcDbEntity
  8
SEMA2D
100
AcDbLine
370
9
 62
9
  6
_SOLID
 10
4.223940692
 20
5.0850114726
 30
0
 11
4.223770603
 21
5.0914934248
 31
0
  0
LINE
  5
249
100
AcDbEntity
  8
SEMA2D
100
AcDbLine
370
9
 62
9
  6
_SOLID
 10
4.2242906036
 20
5.0822158296
 30
0
 11
4.2242906036
 21
5.0850114726
 31
0
  0
LINE
  5
24A
100
AcDbEntity
  8
SEMA2D
100
AcDbLine
370
9
 62
7
  6
_SOLID
 10
4.2292929245
 20
5.0822158296
 30
0
 11
4.2292929245
 21
5.0850114726
 31
0
  0
LINE
  5
24B
100
AcDbEntity
  8
SEMA2D
100
AcDbLine
370
9
 62
9
  6
_SOLID
 10
4.2235148687
 20
5.0793226448
 30
0
 11
4.2235907803
 21
5.0822158296
 31
0
  0
LINE
  5
24C
100
AcDbEntity
  8
SEMA2D
100
AcDbLine
370
9
 62
7
  6
_SOLID
 10
4.227895103
 20
5.0822158296
 30
0
 11
4.2277434776
 21
5.0793226448
 31
0
  0
ARC
  5
24D
100
AcDbEntity
  8
SEMA2D
100
AcDbCircle
370
9
 62
7
  6
_SOLID
 10
4.0658386788
 20
5.0910686991
 30
0
 40
0.00465940499999995
100
AcDbArc
 50
63.6962056306776
 51
177.000000002598
  0
ARC
  5
24E
100
AcDbEntity
  8
SEMA2D
100
AcDbCircle
370
9
 62
7
  6
_SOLID
 10
4.0635671776
 20
5.0794201866
 30
0
 40
0.00186376199999971
100
AcDbArc
 50
182.999999997403
 51
270
  0
ARC
  5
24F
100
AcDbEntity
  8
SEMA2D
100
AcDbCircle
370
9
 62
9
  6
_SOLID
 10
4.079927674
 20
5.12353613
 30
0
 40
0.0350679977999997
100
AcDbArc
 50
246.026097847282
 51
292.765200108353
  0
ARC
  5
250
100
AcDbEntity
  8
SEMA2D
100
AcDbCircle
370
9
 62
7
  6
_SOLID
 10
4.0975246481
 20
5.0858492111
 30
0
 40
0.0093188099999999
100
AcDbArc
 50
67.2351333656224
 51
112.765692743899
  0
ARC
  5
251
100
AcDbEntity
  8
SEMA2D
100
AcDbCircle
370
9
 62
9
  6
_SOLID
 10
4.0956610103
 20
5.0860443001
 30
0
 40
0.00559128049999957
100
AcDbArc
 50
67.2346979013077
 51
112.765301669854
  0
ARC
  5
252
100
AcDbEntity
  8
SEMA2D
100
AcDbCircle
370
9
 62
9
  6
_SOLID
 10
4.0891131931
 20
5.076185244
 30
0
 40
0.00293590149999989
100
AcDbArc
 50
16.1448174352919
 51
27.848822364442
  0
ARC
  5
253
100
AcDbEntity
  8
SEMA2D
100
AcDbCircle
370
9
 62
7
  6
_SOLID
 10
4.0894109539
 20
5.0747607816
 30
0
 40
0.00279564300000024
100
AcDbArc
 50
14.9999999996979
 51
90
  0
ARC
  5
254
100
AcDbEntity
  8
SEMA2D
100
AcDbCircle
370
9
 62
7
  6
_SOLID
 10
4.0972310861
 20
5.0635782096
 30
0
 40
0.00186376199999971
100
AcDbArc
 50
194.999999999687
 51
270
  0
ARC
  5
255
100
AcDbEntity
  8
SEMA2D
100
AcDbCircle
370
9
 62
7
  6
_SOLID
 10
4.0817912895
 20
5.1233409733
 30
0
 40
0.0313403931999998
100
AcDbArc
 50
243.696176932124
 51
292.765270687274
  0
ARC
  5
256
100
AcDbEntity
  8
SEMA2D
100
AcDbCircle
370
9
 62
9
  6
_SOLID
 10
4.0842180798
 20
5.1190003843
 30
0
 40
0.0246701166999999
100
AcDbArc
 50
262.119424480178
 51
277.880625101626
  0
ARC
  5
257
100
AcDbEntity
  8
SEMA2D
100
AcDbCircle
370
9
 62
7
  6
_SOLID
 10
4.0975733378
 20
5.0975918661
 30
0
 40
0.00186376200000016
100
AcDbArc
 50
270
 51
330.000000000463
  0
ARC
  5
258
100
AcDbEntity
  8
SEMA2D
100
AcDbCircle
370
9
 62
9
  6
_SOLID
 10
4.1305481799
 20
4.6111796836
 30
0
 40
0.4660000223
100
AcDbArc
 50
92.3618796446335
 51
92.7474214606877
  0
ARC
  5
259
100
AcDbEntity
  8
SEMA2D
100
AcDbCircle
370
9
 62
7
  6
_SOLID
 10
4.1208286085
 20
5.0747607816
 30
0
 40
0.00279564300000024
100
AcDbArc
 50
90
 51
165.000000000302
  0
ARC
  5
25A
100
AcDbEntity
  8
SEMA2D
100
AcDbCircle
370
9
 62
9
  6
_SOLID
 10
4.1208134163
 20
5.0747682314
 30
0
 40
0.00278840530000046
100
AcDbArc
 50
90
 51
164.381087616803
  0
ARC
  5
25B
100
AcDbEntity
  8
SEMA2D
100
AcDbCircle
370
9
 62
7
  6
_SOLID
 10
4.1130084763
 20
5.0635782096
 30
0
 40
0.00186376199999971
100
AcDbArc
 50
270
 51
345.000000000313
  0
ARC
  5
25C
100
AcDbEntity
  8
SEMA2D
100
AcDbCircle
370
9
 62
9
  6
_SOLID
 10
4.1185177641
 20
5.0942472106
 30
0
 40
0.0017750892999997
100
AcDbArc
 50
270
 51
278.095482601824
  0
ARC
  5
25D
100
AcDbEntity
  8
SEMA2D
100
AcDbCircle
370
9
 62
9
  6
_SOLID
 10
4.1182384174
 20
5.0938586883
 30
0
 40
0.00144039870000023
100
AcDbArc
 50
270
 51
279.584628449965
  0
ARC
  5
25E
100
AcDbEntity
  8
SEMA2D
100
AcDbCircle
370
9
 62
9
  6
_SOLID
 10
4.1096620641
 20
5.1303920684
 30
0
 40
0.0359583999000002
100
AcDbArc
 50
258.318485305211
 51
259.593592882521
  0
ARC
  5
25F
100
AcDbEntity
  8
SEMA2D
100
AcDbCircle
370
9
 62
9
  6
_SOLID
 10
4.1113943878
 20
5.1235361203
 30
0
 40
0.0350679866000001
100
AcDbArc
 50
247.234731852693
 51
292.765211143111
  0
ARC
  5
260
100
AcDbEntity
  8
SEMA2D
100
AcDbCircle
370
9
 62
7
  6
_SOLID
 10
4.1132580066
 20
5.1233409733
 30
0
 40
0.0313403932000003
100
AcDbArc
 50
247.23472629057
 51
292.765589248873
  0
ARC
  5
261
100
AcDbEntity
  8
SEMA2D
100
AcDbCircle
370
9
 62
9
  6
_SOLID
 10
4.1107914305
 20
5.1130714034
 30
0
 40
0.0195908379999996
100
AcDbArc
 50
247.096065737415
 51
248.531331611984
  0
ARC
  5
262
100
AcDbEntity
  8
SEMA2D
100
AcDbCircle
370
9
 62
7
  6
_SOLID
 10
4.1052111766
 20
5.0975918661
 30
0
 40
0.00186376200000016
100
AcDbArc
 50
209.999999999537
 51
270
  0
ARC
  5
263
100
AcDbEntity
  8
SEMA2D
100
AcDbCircle
370
9
 62
7
  6
_SOLID
 10
4.1289913652
 20
5.0858492111
 30
0
 40
0.0093188099999999
100
AcDbArc
 50
67.2338779347799
 51
112.764239024553
  0
ARC
  5
264
100
AcDbEntity
  8
SEMA2D
100
AcDbCircle
370
9
 62
9
  6
_SOLID
 10
4.1271277274
 20
5.0860443001
 30
0
 40
0.00559128049999957
100
AcDbArc
 50
67.234697875738
 51
112.765301669854
  0
ARC
  5
265
100
AcDbEntity
  8
SEMA2D
100
AcDbCircle
370
9
 62
9
  6
_SOLID
 10
4.1428605644
 20
5.123533921
 30
0
 40
0.0350657459999999
100
AcDbArc
 50
247.234155618807
 51
265.570957303272
  0
ARC
  5
266
100
AcDbEntity
  8
SEMA2D
100
AcDbCircle
370
9
 62
9
  6
_SOLID
 10
4.1255684789
 20
5.7027586397
 30
0
 40
0.639846966
100
AcDbArc
 50
268.124134915988
 51
268.399183338312
  0
ARC
  5
267
100
AcDbEntity
  8
SEMA2D
100
AcDbCircle
370
9
 62
9
  6
_SOLID
 10
4.1592691964
 20
4.6194261349
 30
0
 40
0.4577454147
100
AcDbArc
 50
87.249102259395
 51
87.6415966490176
  0
ARC
  5
268
100
AcDbEntity
  8
SEMA2D
100
AcDbCircle
370
9
 62
7
  6
_SOLID
 10
4.1604580822
 20
5.0858492111
 30
0
 40
0.0093188099999999
100
AcDbArc
 50
67.2346841626135
 51
112.765317203671
  0
ARC
  5
269
100
AcDbEntity
  8
SEMA2D
100
AcDbCircle
370
9
 62
9
  6
_SOLID
 10
4.1623217199
 20
5.0860443001
 30
0
 40
0.00559128049999957
100
AcDbArc
 50
67.2346970691943
 51
112.765300948368
  0
ARC
  5
26A
100
AcDbEntity
  8
SEMA2D
100
AcDbCircle
370
9
 62
9
  6
_SOLID
 10
4.1465888864
 20
5.1235339103
 30
0
 40
0.0350657347999999
100
AcDbArc
 50
274.429050868528
 51
292.765846073198
  0
ARC
  5
26B
100
AcDbEntity
  8
SEMA2D
100
AcDbCircle
370
9
 62
7
  6
_SOLID
 10
4.1447247237
 20
5.1233409733
 30
0
 40
0.0313403931999998
100
AcDbArc
 50
247.234731311019
 51
292.765268663415
  0
ARC
  5
26C
100
AcDbEntity
  8
SEMA2D
100
AcDbCircle
370
9
 62
7
  6
_SOLID
 10
4.1686208389
 20
5.0747607816
 30
0
 40
0.00279564300000024
100
AcDbArc
 50
14.9999999996979
 51
90
  0
ARC
  5
26D
100
AcDbEntity
  8
SEMA2D
100
AcDbCircle
370
9
 62
9
  6
_SOLID
 10
4.168634936
 20
5.0747674564
 30
0
 40
0.00278966909999978
100
AcDbArc
 50
15.6281852620402
 51
80.3061807953366
  0
ARC
  5
26E
100
AcDbEntity
  8
SEMA2D
100
AcDbCircle
370
9
 62
9
  6
_SOLID
 10
4.1686392862
 20
5.0747863516
 30
0
 40
0.00277007520000039
100
AcDbArc
 50
81.6815932216811
 51
90
  0
ARC
  5
26F
100
AcDbEntity
  8
SEMA2D
100
AcDbCircle
370
9
 62
7
  6
_SOLID
 10
4.1764409711
 20
5.0635782096
 30
0
 40
0.00186376199999971
100
AcDbArc
 50
194.999999999687
 51
270
  0
ARC
  5
270
100
AcDbEntity
  8
SEMA2D
100
AcDbCircle
370
9
 62
9
  6
_SOLID
 10
4.1709316712
 20
5.0942472106
 30
0
 40
0.00177508699999995
100
AcDbArc
 50
261.904413088578
 51
270
  0
ARC
  5
271
100
AcDbEntity
  8
SEMA2D
100
AcDbCircle
370
9
 62
9
  6
_SOLID
 10
4.1712111003
 20
5.0938606025
 30
0
 40
0.00144229640000049
100
AcDbArc
 50
260.425087838965
 51
270
  0
ARC
  5
272
100
AcDbEntity
  8
SEMA2D
100
AcDbCircle
370
9
 62
9
  6
_SOLID
 10
4.1780550785
 20
5.1235360577
 30
0
 40
0.0350679179999998
100
AcDbArc
 50
247.234720756233
 51
292.765279243767
  0
ARC
  5
273
100
AcDbEntity
  8
SEMA2D
100
AcDbCircle
370
9
 62
7
  6
_SOLID
 10
4.1761914408
 20
5.1233409733
 30
0
 40
0.0313403931999998
100
AcDbArc
 50
247.234730928031
 51
292.765273827547
  0
ARC
  5
274
100
AcDbEntity
  8
SEMA2D
100
AcDbCircle
370
9
 62
9
  6
_SOLID
 10
4.1746398186
 20
5.1132100978
 30
0
 40
0.0215091508
100
AcDbArc
 50
297.917578803217
 51
301.343190510642
  0
ARC
  5
275
100
AcDbEntity
  8
SEMA2D
100
AcDbCircle
370
9
 62
9
  6
_SOLID
 10
4.1784832172
 20
5.113499957
 30
0
 40
0.0200536348
100
AcDbArc
 50
291.485282322864
 51
292.887362804076
  0
ARC
  5
276
100
AcDbEntity
  8
SEMA2D
100
AcDbCircle
370
9
 62
7
  6
_SOLID
 10
4.1842382708
 20
5.0975918661
 30
0
 40
0.00186376200000016
100
AcDbArc
 50
270
 51
330.000000000463
  0
ARC
  5
277
100
AcDbEntity
  8
SEMA2D
100
AcDbCircle
370
9
 62
9
  6
_SOLID
 10
4.193788437
 20
5.0860443001
 30
0
 40
0.00559128049999957
100
AcDbArc
 50
67.2346970691943
 51
112.765300912236
  0
ARC
  5
278
100
AcDbEntity
  8
SEMA2D
100
AcDbCircle
370
9
 62
9
  6
_SOLID
 10
4.2003388634
 20
5.0761842756
 30
0
 40
0.00293867699999995
100
AcDbArc
 50
152.839569467697
 51
163.851017937673
  0
ARC
  5
279
100
AcDbEntity
  8
SEMA2D
100
AcDbCircle
370
9
 62
9
  6
_SOLID
 10
4.2000357806
 20
5.0747507248
 30
0
 40
0.00284163209999999
100
AcDbArc
 50
98.9378427836701
 51
104.233622851112
  0
ARC
  5
27A
100
AcDbEntity
  8
SEMA2D
100
AcDbCircle
370
9
 62
9
  6
_SOLID
 10
4.2000293414
 20
5.0747754585
 30
0
 40
0.0028160703000002
100
AcDbArc
 50
105.571369779591
 51
107.879672320086
  0
ARC
  5
27B
100
AcDbEntity
  8
SEMA2D
100
AcDbCircle
370
9
 62
7
  6
_SOLID
 10
4.2000384935
 20
5.0747607816
 30
0
 40
0.00279564300000024
100
AcDbArc
 50
90
 51
165.000000000302
  0
ARC
  5
27C
100
AcDbEntity
  8
SEMA2D
100
AcDbCircle
370
9
 62
7
  6
_SOLID
 10
4.1922183613
 20
5.0635782096
 30
0
 40
0.00186376199999971
100
AcDbArc
 50
270
 51
345.000000000313
  0
ARC
  5
27D
100
AcDbEntity
  8
SEMA2D
100
AcDbCircle
370
9
 62
7
  6
_SOLID
 10
4.1918761096
 20
5.0975918661
 30
0
 40
0.00186376200000016
100
AcDbArc
 50
209.999999999537
 51
270
  0
ARC
  5
27E
100
AcDbEntity
  8
SEMA2D
100
AcDbCircle
370
9
 62
7
  6
_SOLID
 10
4.2236107686
 20
5.0910686991
 30
0
 40
0.00465940499999995
100
AcDbArc
 50
2.99999999740246
 51
116.303794369322
  0
ARC
  5
27F
100
AcDbEntity
  8
SEMA2D
100
AcDbCircle
370
9
 62
7
  6
_SOLID
 10
4.2258822698
 20
5.0794201866
 30
0
 40
0.00186376199999971
100
AcDbArc
 50
270
 51
-2.99999999740332
  0
ARC
  5
280
100
AcDbEntity
  8
SEMA2D
100
AcDbCircle
370
9
 62
9
  6
_SOLID
 10
4.1638803011
 20
5.7027801488
 30
0
 40
0.6398684855
100
AcDbArc
 50
271.600823505577
 51
271.875861787894
  0
ARC
  5
281
100
AcDbEntity
  8
SEMA2D
100
AcDbCircle
370
9
 62
9
  6
_SOLID
 10
4.1447247239
 20
5.1883041811
 30
0
 40
0.0998360404
100
AcDbArc
 50
267.375164413016
 51
272.624839636481
  0
LINE
  5
282
100
AcDbEntity
  8
SEMA2D
100
AcDbLine
370
9
 62
9
  6
_SOLID
 10
4.1863231061
 20
5.0957281079
 30
0
 11
4.1874663978
 21
5.0980578047
 31
0
  0
LINE
  5
283
100
AcDbEntity
  8
SEMA2D
100
AcDbLine
370
9
 62
9
  6
_SOLID
 10
4.1886479826
 20
5.0980578047
 30
0
 11
4.1897912743
 21
5.0957281079
 31
0
  0
LINE
  5
284
100
AcDbEntity
  8
SEMA2D
100
AcDbLine
370
9
 62
9
  6
_SOLID
 10
4.0996581731
 20
5.0957281079
 30
0
 11
4.1008014648
 21
5.0980578047
 31
0
  0
LINE
  5
285
100
AcDbEntity
  8
SEMA2D
100
AcDbLine
370
9
 62
9
  6
_SOLID
 10
4.1019830496
 20
5.0980578047
 30
0
 11
4.1031263413
 21
5.0957281079
 31
0
  0
LINE
  5
286
100
AcDbEntity
  8
SEMA2D
100
AcDbLine
370
9
 62
7
  6
_SOLID
 10
3.941859498
 20
4.5958084205
 30
0
 11
3.944655141
 21
4.5958084205
 31
0
  0
LINE
  5
287
100
AcDbEntity
  8
SEMA2D
100
AcDbLine
370
9
 62
7
  6
_SOLID
 10
3.9384053758
 20
4.5967054631
 30
0
 11
3.941859498
 21
4.5965209205
 31
0
  0
LINE
  5
288
100
AcDbEntity
  8
SEMA2D
100
AcDbLine
370
9
 62
7
  6
_SOLID
 10
3.944655141
 20
4.5972334205
 30
0
 11
3.9472052603
 21
4.5973696651
 31
0
  0
ARC
  5
289
100
AcDbEntity
  8
SEMA2D
100
AcDbCircle
370
9
 62
7
  6
_SOLID
 10
3.9470863865
 20
4.5995946513
 30
0
 40
0.00222815950000022
100
AcDbArc
 50
270
 51
0
  0
LINE
  5
28A
100
AcDbEntity
  8
SEMA2D
100
AcDbLine
370
9
 62
9
  6
_SOLID
 10
3.9475483257
 20
4.5985478434
 30
0
 11
3.944655141
 21
4.5984140371
 31
0
  0
LINE
  5
28B
100
AcDbEntity
  8
SEMA2D
100
AcDbLine
370
9
 62
9
  6
_SOLID
 10
3.944655141
 20
4.5971804884
 30
0
 11
3.941859498
 21
4.5971804884
 31
0
  0
LINE
  5
28C
100
AcDbEntity
  8
SEMA2D
100
AcDbLine
370
9
 62
9
  6
_SOLID
 10
3.941859498
 20
4.5977972628
 30
0
 11
3.9382980791
 21
4.5979620066
 31
0
  0
LINE
  5
28D
100
AcDbEntity
  8
SEMA2D
100
AcDbLine
370
9
 62
9
  6
_SOLID
 10
3.9475483257
 20
4.642502897
 30
0
 11
3.944655141
 21
4.6423690907
 31
0
  0
LINE
  5
28E
100
AcDbEntity
  8
SEMA2D
100
AcDbLine
370
9
 62
9
  6
_SOLID
 10
3.944655141
 20
4.641135542
 30
0
 11
3.941859498
 21
4.641135542
 31
0
  0
LINE
  5
28F
100
AcDbEntity
  8
SEMA2D
100
AcDbLine
370
9
 62
9
  6
_SOLID
 10
3.941859498
 20
4.6417523164
 30
0
 11
3.9353775457
 21
4.64205209
 31
0
  0
LINE
  5
290
100
AcDbEntity
  8
SEMA2D
100
AcDbLine
370
9
 62
9
  6
_SOLID
 10
3.949314546
 20
4.6499759741
 30
0
 11
3.9355584171
 21
4.6499759741
 31
0
  0
LINE
  5
291
100
AcDbEntity
  8
SEMA2D
100
AcDbLine
370
9
 62
7
  6
_SOLID
 10
3.9326342067
 20
4.6059085287
 30
0
 11
3.9331651089
 21
4.605091404
 31
0
  0
LINE
  5
292
100
AcDbEntity
  8
SEMA2D
100
AcDbLine
370
9
 62
7
  6
_SOLID
 10
3.9331630277
 20
4.6050947652
 30
0
 11
3.9335189489
 21
4.6044864013
 31
0
  0
LINE
  5
293
100
AcDbEntity
  8
SEMA2D
100
AcDbLine
370
9
 62
7
  6
_SOLID
 10
3.9324310196
 20
4.6062623433
 30
0
 11
3.9326342067
 21
4.6059085287
 31
0
  0
LINE
  5
294
100
AcDbEntity
  8
SEMA2D
100
AcDbLine
370
9
 62
7
  6
_SOLID
 10
3.9323974392
 20
4.6433355659
 30
0
 11
3.9329724241
 21
4.6424999351
 31
0
  0
LINE
  5
295
100
AcDbEntity
  8
SEMA2D
100
AcDbLine
370
9
 62
7
  6
_SOLID
 10
3.9329724241
 20
4.6424999351
 30
0
 11
3.9333614217
 21
4.6418701398
 31
0
  0
LINE
  5
296
100
AcDbEntity
  8
SEMA2D
100
AcDbLine
370
9
 62
7
  6
_SOLID
 10
3.9333614217
 20
4.6418701398
 30
0
 11
3.9337079854
 21
4.641235979
 31
0
  0
LINE
  5
297
100
AcDbEntity
  8
SEMA2D
100
AcDbLine
370
9
 62
7
  6
_SOLID
 10
3.9337079854
 20
4.641235979
 30
0
 11
3.9340126967
 21
4.6405949655
 31
0
  0
LINE
  5
298
100
AcDbEntity
  8
SEMA2D
100
AcDbLine
370
9
 62
7
  6
_SOLID
 10
3.9340126967
 20
4.6405949655
 30
0
 11
3.9342752367
 21
4.6399447544
 31
0
  0
LINE
  5
299
100
AcDbEntity
  8
SEMA2D
100
AcDbLine
370
9
 62
7
  6
_SOLID
 10
3.9342752367
 20
4.6399447544
 30
0
 11
3.9344930297
 21
4.6392872204
 31
0
  0
LINE
  5
29A
100
AcDbEntity
  8
SEMA2D
100
AcDbLine
370
9
 62
7
  6
_SOLID
 10
3.9344930297
 20
4.6392872204
 30
0
 11
3.9346631469
 21
4.6386254123
 31
0
  0
LINE
  5
29B
100
AcDbEntity
  8
SEMA2D
100
AcDbLine
370
9
 62
7
  6
_SOLID
 10
3.9346631469
 20
4.6386254123
 30
0
 11
3.9347846155
 21
4.6379534731
 31
0
  0
LINE
  5
29C
100
AcDbEntity
  8
SEMA2D
100
AcDbLine
370
9
 62
7
  6
_SOLID
 10
3.9347846155
 20
4.6379534731
 30
0
 11
3.9348545995
 21
4.6372648766
 31
0
  0
LINE
  5
29D
100
AcDbEntity
  8
SEMA2D
100
AcDbLine
370
9
 62
7
  6
_SOLID
 10
3.9348545995
 20
4.6372648766
 30
0
 11
3.93487039
 21
4.636744951
 31
0
  0
LINE
  5
29E
100
AcDbEntity
  8
SEMA2D
100
AcDbLine
370
9
 62
7
  6
_SOLID
 10
3.9331691771
 20
4.6236376408
 30
0
 11
3.9335201077
 21
4.6230371111
 31
0
  0
LINE
  5
29F
100
AcDbEntity
  8
SEMA2D
100
AcDbLine
370
9
 62
7
  6
_SOLID
 10
3.9335201077
 20
4.6230371111
 30
0
 11
3.93383221
 21
4.6224332756
 31
0
  0
LINE
  5
2A0
100
AcDbEntity
  8
SEMA2D
100
AcDbLine
370
9
 62
7
  6
_SOLID
 10
3.93383221
 20
4.6224332756
 30
0
 11
3.9341059712
 21
4.6218240698
 31
0
  0
LINE
  5
2A1
100
AcDbEntity
  8
SEMA2D
100
AcDbLine
370
9
 62
7
  6
_SOLID
 10
3.9341059712
 20
4.6218240698
 30
0
 11
3.9343411107
 21
4.6212077143
 31
0
  0
LINE
  5
2A2
100
AcDbEntity
  8
SEMA2D
100
AcDbLine
370
9
 62
7
  6
_SOLID
 10
3.9343411107
 20
4.6212077143
 30
0
 11
3.9345356579
 21
4.62058536
 31
0
  0
LINE
  5
2A3
100
AcDbEntity
  8
SEMA2D
100
AcDbLine
370
9
 62
7
  6
_SOLID
 10
3.9345356579
 20
4.62058536
 30
0
 11
3.934687241
 21
4.6199594077
 31
0
  0
LINE
  5
2A4
100
AcDbEntity
  8
SEMA2D
100
AcDbLine
370
9
 62
7
  6
_SOLID
 10
3.934687241
 20
4.6199594077
 30
0
 11
3.9347951183
 21
4.619324207
 31
0
  0
LINE
  5
2A5
100
AcDbEntity
  8
SEMA2D
100
AcDbLine
370
9
 62
7
  6
_SOLID
 10
3.9347951183
 20
4.619324207
 30
0
 11
3.9348568732
 21
4.6186734194
 31
0
  0
LINE
  5
2A6
100
AcDbEntity
  8
SEMA2D
100
AcDbLine
370
9
 62
7
  6
_SOLID
 10
3.9348568732
 20
4.6186734194
 30
0
 11
3.9348703901
 21
4.6181925746
 31
0
  0
LINE
  5
2A7
100
AcDbEntity
  8
SEMA2D
100
AcDbLine
370
9
 62
7
  6
_SOLID
 10
3.933517093
 20
4.6044897694
 30
0
 11
3.9338399891
 21
4.6038643301
 31
0
  0
LINE
  5
2A8
100
AcDbEntity
  8
SEMA2D
100
AcDbLine
370
9
 62
7
  6
_SOLID
 10
3.9322562611
 20
4.6066150831
 30
0
 11
3.932433976
 21
4.606256812
 31
0
  0
LINE
  5
2A9
100
AcDbEntity
  8
SEMA2D
100
AcDbLine
370
9
 62
7
  6
_SOLID
 10
3.9318191088
 20
4.6443463308
 30
0
 11
3.9319987004
 21
4.6439993108
 31
0
  0
LINE
  5
2AA
100
AcDbEntity
  8
SEMA2D
100
AcDbLine
370
9
 62
7
  6
_SOLID
 10
3.9319987004
 20
4.6439993108
 30
0
 11
3.9321918471
 21
4.6436612079
 31
0
  0
LINE
  5
2AB
100
AcDbEntity
  8
SEMA2D
100
AcDbLine
370
9
 62
7
  6
_SOLID
 10
3.9321918471
 20
4.6436612079
 30
0
 11
3.9323974392
 21
4.6433355659
 31
0
  0
LINE
  5
2AC
100
AcDbEntity
  8
SEMA2D
100
AcDbLine
370
9
 62
7
  6
_SOLID
 10
3.9338383615
 20
4.6038677099
 30
0
 11
3.9341220576
 21
4.6032323464
 31
0
  0
LINE
  5
2AD
100
AcDbEntity
  8
SEMA2D
100
AcDbLine
370
9
 62
7
  6
_SOLID
 10
3.9321060235
 20
4.6069717152
 30
0
 11
3.9322586069
 21
4.6066099652
 31
0
  0
LINE
  5
2AE
100
AcDbEntity
  8
SEMA2D
100
AcDbLine
370
9
 62
7
  6
_SOLID
 10
3.9341206695
 20
4.6032357198
 30
0
 11
3.9343616442
 21
4.6025952175
 31
0
  0
LINE
  5
2AF
100
AcDbEntity
  8
SEMA2D
100
AcDbLine
370
9
 62
7
  6
_SOLID
 10
3.9316526918
 20
4.6447013004
 30
0
 11
3.9318191088
 21
4.6443463308
 31
0
  0
LINE
  5
2B0
100
AcDbEntity
  8
SEMA2D
100
AcDbLine
370
9
 62
7
  6
_SOLID
 10
3.9315301993
 20
4.644986633
 30
0
 11
3.9316541829
 21
4.6446978269
 31
0
  0
LINE
  5
2B1
100
AcDbEntity
  8
SEMA2D
100
AcDbLine
370
9
 62
7
  6
_SOLID
 10
3.9319802063
 20
4.6073308032
 30
0
 11
3.9321078347
 21
4.6069670208
 31
0
  0
LINE
  5
2B2
100
AcDbEntity
  8
SEMA2D
100
AcDbLine
370
9
 62
7
  6
_SOLID
 10
3.9343605108
 20
4.6025985422
 30
0
 11
3.9345557433
 21
4.6019591159
 31
0
  0
LINE
  5
2B3
100
AcDbEntity
  8
SEMA2D
100
AcDbLine
370
9
 62
7
  6
_SOLID
 10
3.9318782712
 20
4.6076922203
 30
0
 11
3.9319815545
 21
4.6073265408
 31
0
  0
LINE
  5
2B4
100
AcDbEntity
  8
SEMA2D
100
AcDbLine
370
9
 62
7
  6
_SOLID
 10
3.9345548691
 20
4.6019623592
 30
0
 11
3.9347023304
 21
4.6013319534
 31
0
  0
LINE
  5
2B5
100
AcDbEntity
  8
SEMA2D
100
AcDbLine
370
9
 62
7
  6
_SOLID
 10
3.9347023304
 20
4.6013319534
 30
0
 11
3.9347982137
 21
4.6007478756
 31
0
  0
LINE
  5
2B6
100
AcDbEntity
  8
SEMA2D
100
AcDbLine
370
9
 62
7
  6
_SOLID
 10
3.9317998667
 20
4.6080556638
 30
0
 11
3.9318792234
 21
4.6076883953
 31
0
  0
LINE
  5
2B7
100
AcDbEntity
  8
SEMA2D
100
AcDbLine
370
9
 62
7
  6
_SOLID
 10
3.9349130829
 20
4.5999302057
 30
0
 11
3.9349535037
 21
4.5997056569
 31
0
  0
LINE
  5
2B8
100
AcDbEntity
  8
SEMA2D
100
AcDbLine
370
9
 62
7
  6
_SOLID
 10
3.9349535037
 20
4.5997056569
 30
0
 11
3.9350069645
 21
4.5994838977
 31
0
  0
LINE
  5
2B9
100
AcDbEntity
  8
SEMA2D
100
AcDbLine
370
9
 62
7
  6
_SOLID
 10
3.9350069645
 20
4.5994838977
 30
0
 11
3.9350732705
 21
4.5992657156
 31
0
  0
LINE
  5
2BA
100
AcDbEntity
  8
SEMA2D
100
AcDbLine
370
9
 62
7
  6
_SOLID
 10
3.9350732705
 20
4.5992657156
 30
0
 11
3.9351522061
 21
4.5990519603
 31
0
  0
LINE
  5
2BB
100
AcDbEntity
  8
SEMA2D
100
AcDbLine
370
9
 62
7
  6
_SOLID
 10
3.9351522061
 20
4.5990519603
 30
0
 11
3.9352435581
 21
4.5988434506
 31
0
  0
LINE
  5
2BC
100
AcDbEntity
  8
SEMA2D
100
AcDbLine
370
9
 62
7
  6
_SOLID
 10
3.9352435581
 20
4.5988434506
 30
0
 11
3.9353470815
 21
4.5986410542
 31
0
  0
LINE
  5
2BD
100
AcDbEntity
  8
SEMA2D
100
AcDbLine
370
9
 62
7
  6
_SOLID
 10
3.9353470815
 20
4.5986410542
 30
0
 11
3.9354624874
 21
4.5984455886
 31
0
  0
LINE
  5
2BE
100
AcDbEntity
  8
SEMA2D
100
AcDbLine
370
9
 62
7
  6
_SOLID
 10
3.9354624874
 20
4.5984455886
 30
0
 11
3.9355892209
 21
4.5982577529
 31
0
  0
LINE
  5
2BF
100
AcDbEntity
  8
SEMA2D
100
AcDbLine
370
9
 62
7
  6
_SOLID
 10
3.9355892209
 20
4.5982577529
 30
0
 11
3.93572662
 21
4.5980781907
 31
0
  0
LINE
  5
2C0
100
AcDbEntity
  8
SEMA2D
100
AcDbLine
370
9
 62
7
  6
_SOLID
 10
3.93572662
 20
4.5980781907
 30
0
 11
3.9358740552
 21
4.5979074782
 31
0
  0
LINE
  5
2C1
100
AcDbEntity
  8
SEMA2D
100
AcDbLine
370
9
 62
7
  6
_SOLID
 10
3.9358740552
 20
4.5979074782
 30
0
 11
3.9360308607
 21
4.5977462183
 31
0
  0
LINE
  5
2C2
100
AcDbEntity
  8
SEMA2D
100
AcDbLine
370
9
 62
7
  6
_SOLID
 10
3.9360308607
 20
4.5977462183
 30
0
 11
3.9361964668
 21
4.5975949067
 31
0
  0
LINE
  5
2C3
100
AcDbEntity
  8
SEMA2D
100
AcDbLine
370
9
 62
7
  6
_SOLID
 10
3.9361964668
 20
4.5975949067
 30
0
 11
3.9363702898
 21
4.5974540667
 31
0
  0
LINE
  5
2C4
100
AcDbEntity
  8
SEMA2D
100
AcDbLine
370
9
 62
7
  6
_SOLID
 10
3.9363702898
 20
4.5974540667
 30
0
 11
3.9365517632
 21
4.5973242152
 31
0
  0
LINE
  5
2C5
100
AcDbEntity
  8
SEMA2D
100
AcDbLine
370
9
 62
7
  6
_SOLID
 10
3.9365517632
 20
4.5973242152
 30
0
 11
3.9367403472
 21
4.5972058607
 31
0
  0
LINE
  5
2C6
100
AcDbEntity
  8
SEMA2D
100
AcDbLine
370
9
 62
7
  6
_SOLID
 10
3.9367403472
 20
4.5972058607
 30
0
 11
3.9369353748
 21
4.5970994642
 31
0
  0
LINE
  5
2C7
100
AcDbEntity
  8
SEMA2D
100
AcDbLine
370
9
 62
7
  6
_SOLID
 10
3.9369353748
 20
4.5970994642
 30
0
 11
3.9371360706
 21
4.5970052402
 31
0
  0
LINE
  5
2C8
100
AcDbEntity
  8
SEMA2D
100
AcDbLine
370
9
 62
7
  6
_SOLID
 10
3.9371360706
 20
4.5970052402
 30
0
 11
3.9373416576
 21
4.5969233607
 31
0
  0
LINE
  5
2C9
100
AcDbEntity
  8
SEMA2D
100
AcDbLine
370
9
 62
7
  6
_SOLID
 10
3.9373416576
 20
4.5969233607
 30
0
 11
3.9375513541
 21
4.596853998
 31
0
  0
LINE
  5
2CA
100
AcDbEntity
  8
SEMA2D
100
AcDbLine
370
9
 62
7
  6
_SOLID
 10
3.9375513541
 20
4.596853998
 30
0
 11
3.9377644106
 21
4.5967973129
 31
0
  0
LINE
  5
2CB
100
AcDbEntity
  8
SEMA2D
100
AcDbLine
370
9
 62
7
  6
_SOLID
 10
3.9377644106
 20
4.5967973129
 30
0
 11
3.937980087
 21
4.596753467
 31
0
  0
LINE
  5
2CC
100
AcDbEntity
  8
SEMA2D
100
AcDbLine
370
9
 62
7
  6
_SOLID
 10
3.937980087
 20
4.596753467
 30
0
 11
3.9381976105
 21
4.5967226284
 31
0
  0
LINE
  5
2CD
100
AcDbEntity
  8
SEMA2D
100
AcDbLine
370
9
 62
7
  6
_SOLID
 10
3.9381976105
 20
4.5967226284
 30
0
 11
3.9384053789
 21
4.5967055206
 31
0
  0
LINE
  5
2CE
100
AcDbEntity
  8
SEMA2D
100
AcDbLine
370
9
 62
7
  6
_SOLID
 10
3.9317447409
 20
4.6084202156
 30
0
 11
3.9318004886
 21
4.6080522749
 31
0
  0
LINE
  5
2CF
100
AcDbEntity
  8
SEMA2D
100
AcDbLine
370
9
 62
7
  6
_SOLID
 10
3.9348817939
 20
4.600142241
 30
0
 11
3.9349130829
 21
4.5999302057
 31
0
  0
LINE
  5
2D0
100
AcDbEntity
  8
SEMA2D
100
AcDbLine
370
9
 62
7
  6
_SOLID
 10
3.9348523719
 20
4.6003487131
 30
0
 11
3.9348817939
 21
4.600142241
 31
0
  0
LINE
  5
2D1
100
AcDbEntity
  8
SEMA2D
100
AcDbLine
370
9
 62
7
  6
_SOLID
 10
3.9348148249
 20
4.6006234659
 30
0
 11
3.9348523719
 21
4.6003487131
 31
0
  0
LINE
  5
2D2
100
AcDbEntity
  8
SEMA2D
100
AcDbLine
370
9
 62
7
  6
_SOLID
 10
3.9317126366
 20
4.6087852184
 30
0
 11
3.9317450934
 21
4.6084172706
 31
0
  0
LINE
  5
2D3
100
AcDbEntity
  8
SEMA2D
100
AcDbLine
370
9
 62
7
  6
_SOLID
 10
3.931143305
 20
4.6469666393
 30
0
 11
3.9311540598
 21
4.6466515993
 31
0
  0
LINE
  5
2D4
100
AcDbEntity
  8
SEMA2D
100
AcDbLine
370
9
 62
7
  6
_SOLID
 10
3.9311540598
 20
4.6466515993
 30
0
 11
3.9311822748
 21
4.6463370767
 31
0
  0
LINE
  5
2D5
100
AcDbEntity
  8
SEMA2D
100
AcDbLine
370
9
 62
7
  6
_SOLID
 10
3.9311822748
 20
4.6463370767
 30
0
 11
3.9312285081
 21
4.6460252411
 31
0
  0
LINE
  5
2D6
100
AcDbEntity
  8
SEMA2D
100
AcDbLine
370
9
 62
7
  6
_SOLID
 10
3.9312285081
 20
4.6460252411
 30
0
 11
3.9312931981
 21
4.645717119
 31
0
  0
LINE
  5
2D7
100
AcDbEntity
  8
SEMA2D
100
AcDbLine
370
9
 62
7
  6
_SOLID
 10
3.9312931981
 20
4.645717119
 30
0
 11
3.9313758854
 21
4.645416163
 31
0
  0
LINE
  5
2D8
100
AcDbEntity
  8
SEMA2D
100
AcDbLine
370
9
 62
7
  6
_SOLID
 10
3.9313758854
 20
4.645416163
 30
0
 11
3.9314753046
 21
4.6451257095
 31
0
  0
LINE
  5
2D9
100
AcDbEntity
  8
SEMA2D
100
AcDbLine
370
9
 62
7
  6
_SOLID
 10
3.9317032806
 20
4.6091157478
 30
0
 11
3.9317127778
 21
4.6087827338
 31
0
  0
LINE
  5
2DA
100
AcDbEntity
  8
SEMA2D
100
AcDbLine
370
9
 62
7
  6
_SOLID
 10
3.9317032806
 20
4.6276685624
 30
0
 11
3.9317127778
 21
4.6273355483
 31
0
  0
LINE
  5
2DB
100
AcDbEntity
  8
SEMA2D
100
AcDbLine
370
9
 62
7
  6
_SOLID
 10
3.9317127778
 20
4.6273355483
 30
0
 11
3.9317450934
 21
4.6269700852
 31
0
  0
LINE
  5
2DC
100
AcDbEntity
  8
SEMA2D
100
AcDbLine
370
9
 62
7
  6
_SOLID
 10
3.9317450934
 20
4.6269700852
 30
0
 11
3.9318004886
 21
4.6266050895
 31
0
  0
LINE
  5
2DD
100
AcDbEntity
  8
SEMA2D
100
AcDbLine
370
9
 62
7
  6
_SOLID
 10
3.9318004886
 20
4.6266050895
 30
0
 11
3.9318792234
 21
4.6262412099
 31
0
  0
LINE
  5
2DE
100
AcDbEntity
  8
SEMA2D
100
AcDbLine
370
9
 62
7
  6
_SOLID
 10
3.9318792234
 20
4.6262412099
 30
0
 11
3.9319815545
 21
4.6258793554
 31
0
  0
LINE
  5
2DF
100
AcDbEntity
  8
SEMA2D
100
AcDbLine
370
9
 62
7
  6
_SOLID
 10
3.9319815545
 20
4.6258793554
 30
0
 11
3.9321078347
 21
4.6255198355
 31
0
  0
LINE
  5
2E0
100
AcDbEntity
  8
SEMA2D
100
AcDbLine
370
9
 62
7
  6
_SOLID
 10
3.9321078347
 20
4.6255198355
 30
0
 11
3.9322586069
 21
4.6251627799
 31
0
  0
LINE
  5
2E1
100
AcDbEntity
  8
SEMA2D
100
AcDbLine
370
9
 62
7
  6
_SOLID
 10
3.9322586069
 20
4.6251627799
 30
0
 11
3.932433976
 21
4.6248096267
 31
0
  0
LINE
  5
2E2
100
AcDbEntity
  8
SEMA2D
100
AcDbLine
370
9
 62
7
  6
_SOLID
 10
3.932433976
 20
4.6248096267
 30
0
 11
3.9326342067
 21
4.6244613434
 31
0
  0
LINE
  5
2E3
100
AcDbEntity
  8
SEMA2D
100
AcDbLine
370
9
 62
7
  6
_SOLID
 10
3.9326342067
 20
4.6244613434
 30
0
 11
3.9331691771
 21
4.6236376408
 31
0
  0
LINE
  5
2E4
100
AcDbEntity
  8
SEMA2D
100
AcDbLine
370
9
 62
7
  6
_SOLID
 10
3.9311428665
 20
4.9741803574
 30
0
 11
3.931143305
 21
4.6469666393
 31
0
  0
ARC
  5
2E5
100
AcDbEntity
  8
SEMA2D
100
AcDbCircle
370
9
 62
7
  6
_SOLID
 10
3.9330078525
 20
4.9741803599
 30
0
 40
0.00186498600000018
100
AcDbArc
 50
90
 51
180.000076787796
  0
LINE
  5
2E6
100
AcDbEntity
  8
SEMA2D
100
AcDbLine
370
9
 62
7
  6
_SOLID
 10
3.9317029495
 20
4.6445938938
 30
0
 11
3.9317029495
 21
4.6091154701
 31
0
  0
LINE
  5
2E7
100
AcDbEntity
  8
SEMA2D
100
AcDbLine
370
9
 62
9
  6
_SOLID
 10
3.9324289075
 20
4.6103642563
 30
0
 11
3.9324289045
 21
4.6248198395
 31
0
  0
LINE
  5
2E8
100
AcDbEntity
  8
SEMA2D
100
AcDbLine
370
9
 62
9
  6
_SOLID
 10
3.9324289072
 20
4.6289170706
 30
0
 11
3.9324289084
 21
4.6432900732
 31
0
  0
LINE
  5
2E9
100
AcDbEntity
  8
SEMA2D
100
AcDbLine
370
9
 62
9
  6
_SOLID
 10
3.9355584171
 20
4.974286878
 30
0
 11
3.9355584171
 21
4.6499759741
 31
0
  0
LINE
  5
2EA
100
AcDbEntity
  8
SEMA2D
100
AcDbLine
370
9
 62
7
  6
_SOLID
 10
3.941859498
 20
4.9772334205
 30
0
 11
3.941859498
 21
4.595808466
 31
0
  0
LINE
  5
2EB
100
AcDbEntity
  8
SEMA2D
100
AcDbLine
370
9
 62
7
  6
_SOLID
 10
3.944655141
 20
4.9772334205
 30
0
 11
3.944655141
 21
4.595808466
 31
0
  0
LINE
  5
2EC
100
AcDbEntity
  8
SEMA2D
100
AcDbLine
370
9
 62
9
  6
_SOLID
 10
3.9475483257
 20
4.9737564509
 30
0
 11
3.9475483257
 21
4.597387994
 31
0
  0
LINE
  5
2ED
100
AcDbEntity
  8
SEMA2D
100
AcDbLine
370
9
 62
7
  6
_SOLID
 10
3.949314546
 20
4.9737564509
 30
0
 11
3.949314546
 21
4.5995946513
 31
0
  0
LINE
  5
2EE
100
AcDbEntity
  8
SEMA2D
100
AcDbLine
370
9
 62
9
  6
_SOLID
 10
3.9513866233
 20
4.9568168487
 30
0
 11
3.9513866233
 21
4.9705601702
 31
0
  0
LINE
  5
2EF
100
AcDbEntity
  8
SEMA2D
100
AcDbLine
370
9
 62
9
  6
_SOLID
 10
3.9637751381
 20
4.9581341909
 30
0
 11
3.9637751381
 21
4.9631533773
 31
0
  0
LINE
  5
2F0
100
AcDbEntity
  8
SEMA2D
100
AcDbLine
370
9
 62
7
  6
_SOLID
 10
3.965156523
 20
4.9574652119
 30
0
 11
3.965156523
 21
4.9660651268
 31
0
  0
ARC
  5
2F1
100
AcDbEntity
  8
SEMA2D
100
AcDbCircle
370
9
 62
7
  6
_SOLID
 10
3.9629483775
 20
4.9574652119
 30
0
 40
0.00220814550000004
100
AcDbArc
 50
280.190397765732
 51
0
  0
ARC
  5
2F2
100
AcDbEntity
  8
SEMA2D
100
AcDbCircle
370
9
 62
7
  6
_SOLID
 10
3.9633089759
 20
4.9660651268
 30
0
 40
0.00184754709999968
100
AcDbArc
 50
0
 51
59.1258054674473
  0
LINE
  5
2F3
100
AcDbEntity
  8
SEMA2D
100
AcDbLine
370
9
 62
7
  6
_SOLID
 10
3.9633390422
 20
4.9552918993
 30
0
 11
3.949314546
 21
4.9527709205
 31
0
  0
LINE
  5
2F4
100
AcDbEntity
  8
SEMA2D
100
AcDbLine
370
9
 62
9
  6
_SOLID
 10
3.9637751381
 20
4.9581341909
 30
0
 11
3.9512972907
 21
4.9558911661
 31
0
  0
LINE
  5
2F5
100
AcDbEntity
  8
SEMA2D
100
AcDbLine
370
9
 62
9
  6
_SOLID
 10
3.9637751381
 20
4.9631533773
 30
0
 11
3.9513866233
 21
4.9705601702
 31
0
  0
LINE
  5
2F6
100
AcDbEntity
  8
SEMA2D
100
AcDbLine
370
9
 62
7
  6
_SOLID
 10
3.9642570534
 20
4.9676508693
 30
0
 11
3.9519810003
 21
4.9749904281
 31
0
  0
LINE
  5
2F7
100
AcDbEntity
  8
SEMA2D
100
AcDbLine
370
9
 62
7
  6
_SOLID
 10
3.941859498
 20
4.9765209205
 30
0
 11
3.9329083542
 21
4.9760426899
 31
0
  0
LINE
  5
2F8
100
AcDbEntity
  8
SEMA2D
100
AcDbLine
370
9
 62
9
  6
_SOLID
 10
3.9513866233
 20
4.9568168487
 30
0
 11
3.949314546
 21
4.9568168487
 31
0
  0
LINE
  5
2F9
100
AcDbEntity
  8
SEMA2D
100
AcDbLine
370
9
 62
9
  6
_SOLID
 10
3.9637751381
 20
4.9581341909
 30
0
 11
3.965156523
 21
4.9581341909
 31
0
  0
LINE
  5
2FA
100
AcDbEntity
  8
SEMA2D
100
AcDbLine
370
9
 62
9
  6
_SOLID
 10
3.9637751381
 20
4.9631533773
 30
0
 11
3.965156523
 21
4.9631533773
 31
0
  0
LINE
  5
2FB
100
AcDbEntity
  8
SEMA2D
100
AcDbLine
370
9
 62
9
  6
_SOLID
 10
3.9513866233
 20
4.9705601742
 30
0
 11
3.949314546
 21
4.9705601742
 31
0
  0
LINE
  5
2FC
100
AcDbEntity
  8
SEMA2D
100
AcDbLine
370
9
 62
9
  6
_SOLID
 10
3.949314546
 20
4.9737564509
 30
0
 11
3.9475483257
 21
4.9737564509
 31
0
  0
LINE
  5
2FD
100
AcDbEntity
  8
SEMA2D
100
AcDbLine
370
9
 62
7
  6
_SOLID
 10
3.944655141
 20
4.9772334205
 30
0
 11
3.941859498
 21
4.9772334205
 31
0
  0
LINE
  5
2FE
100
AcDbEntity
  8
SEMA2D
100
AcDbLine
370
9
 62
9
  6
_SOLID
 10
3.944655141
 20
4.9739110244
 30
0
 11
3.9475483257
 21
4.9737564509
 31
0
  0
LINE
  5
2FF
100
AcDbEntity
  8
SEMA2D
100
AcDbLine
370
9
 62
7
  6
_SOLID
 10
3.944655141
 20
4.9758084205
 30
0
 11
3.9502903654
 21
4.9755073487
 31
0
  0
ARC
  5
300
100
AcDbEntity
  8
SEMA2D
100
AcDbCircle
370
9
 62
9
  6
_SOLID
 10
3.7379556524
 20
4.9756524276
 30
0
 40
0.2133334286
100
AcDbArc
 50
358.816524828806
 51
359.191266365231
  0
ARC
  5
301
100
AcDbEntity
  8
SEMA2D
100
AcDbCircle
370
9
 62
9
  6
_SOLID
 10
3.9376796511
 20
4.6011241724
 30
0
 40
0.00290590670000035
100
AcDbArc
 50
187.629149908189
 51
202.759116658626
  0
ARC
  5
302
100
AcDbEntity
  8
SEMA2D
100
AcDbCircle
370
9
 62
9
  6
_SOLID
 10
4.0335817074
 20
4.9880557159
 30
0
 40
0.0840364567000007
100
AcDbArc
 50
191.538468276698
 51
192.016300374066
  0
ARC
  5
303
100
AcDbEntity
  8
SEMA2D
100
AcDbCircle
370
9
 62
9
  6
_SOLID
 10
3.9465478745
 20
4.9568166586
 30
0
 40
0.00483874890000013
100
AcDbArc
 50
348.973271792485
 51
0.0022509964828017
  0
ARC
  5
304
100
AcDbEntity
  8
SEMA2D
100
AcDbCircle
370
9
 62
7
  6
_SOLID
 10
3.9500931057
 20
4.971839687
 30
0
 40
0.00367285090000014
100
AcDbArc
 50
59.0703521086933
 51
83.4462787530871
  0
ARC
  5
305
100
AcDbEntity
  8
SEMA2D
100
AcDbCircle
370
9
 62
7
  6
_SOLID
 10
3.9500938883
 20
4.9718616874
 30
0
 40
0.00365089999999979
100
AcDbArc
 50
84.9267237501527
 51
86.9151206646309
  0
ARC
  5
306
100
AcDbEntity
  8
SEMA2D
100
AcDbCircle
370
9
 62
9
  6
_SOLID
 10
3.9502133423
 20
4.9719984031
 30
0
 40
0.00347514390000025
100
AcDbArc
 50
59.4256567533358
 51
86.6871691420189
  0
ARC
  5
307
100
AcDbEntity
  8
SEMA2D
100
AcDbCircle
370
9
 62
7
  6
_SOLID
 10
3.9473702865
 20
4.9737546719
 30
0
 40
0.00194432989999971
100
AcDbArc
 50
7.53071421416859
 51
11.8010700071609
  0
ARC
  5
308
100
AcDbEntity
  8
SEMA2D
100
AcDbCircle
370
9
 62
7
  6
_SOLID
 10
3.9473768385
 20
4.9737554107
 30
0
 40
0.00193773620000015
100
AcDbArc
 50
4.06559377041956
 51
7.53207982582377
  0
ARC
  5
309
100
AcDbEntity
  8
SEMA2D
100
AcDbCircle
370
9
 62
7
  6
_SOLID
 10
3.9473802479
 20
4.9737571248
 30
0
 40
0.00193408029999986
100
AcDbArc
 50
11.7929158137778
 51
19.3806657029817
  0
ARC
  5
30A
100
AcDbEntity
  8
SEMA2D
100
AcDbCircle
370
9
 62
7
  6
_SOLID
 10
3.9473914689
 20
4.9737563275
 30
0
 40
0.00192307709999984
100
AcDbArc
 50
0.00325809013678788
 51
3.84644272949165
  0
ARC
  5
30B
100
AcDbEntity
  8
SEMA2D
100
AcDbCircle
370
9
 62
7
  6
_SOLID
 10
3.9474014885
 20
4.9737633378
 30
0
 40
0.00191202799999979
100
AcDbArc
 50
25.5008462615042
 51
28.562800724351
  0
ARC
  5
30C
100
AcDbEntity
  8
SEMA2D
100
AcDbCircle
370
9
 62
7
  6
_SOLID
 10
3.9474112394
 20
4.9737678199
 30
0
 40
0.00190129589999999
100
AcDbArc
 50
19.3865497367891
 51
23.8456625342529
  0
LINE
  5
30D
100
AcDbEntity
  8
SEMA2D
100
AcDbLine
370
9
 62
9
  6
_SOLID
 10
3.9384028298
 20
4.5967056458
 30
0
 11
3.9382980828
 21
4.5979620064
 31
0
  0
LINE
  5
30E
100
AcDbEntity
  8
SEMA2D
100
AcDbLine
370
9
 62
9
  6
_SOLID
 10
3.9355584171
 20
4.974286878
 30
0
 11
3.9311428665
 21
4.9741453328
 31
0
  0
CIRCLE
  5
30F
100
AcDbEntity
  8
SEMA2D
100
AcDbCircle
370
9
 62
7
  6
_SOLID
 10
4.105156523
 20
4.9272333589
 30
0
 40
0.00300000000000011
  0
CIRCLE
  5
310
100
AcDbEntity
  8
SEMA2D
100
AcDbCircle
370
9
 62
7
  6
_SOLID
 10
4.1842929245
 20
4.9272333589
 30
0
 40
0.00300000000000011
  0
LINE
  5
311
100
AcDbEntity
  8
SEMA2D
100
AcDbLine
370
9
 62
7
  6
_SOLID
 10
3.949314546
 20
4.9527709205
 30
0
 11
3.979314546
 21
4.9527709205
 31
0
  0
LINE
  5
312
100
AcDbEntity
  8
SEMA2D
100
AcDbLine
370
9
 62
7
  6
_SOLID
 10
3.979314546
 20
4.9527709205
 30
0
 11
3.979314546
 21
4.9027709205
 31
0
  0
LINE
  5
313
100
AcDbEntity
  8
SEMA2D
100
AcDbLine
370
9
 62
7
  6
_SOLID
 10
3.979314546
 20
4.9027709205
 30
0
 11
3.949314546
 21
4.9027709205
 31
0
  0
LINE
  5
314
100
AcDbEntity
  8
SEMA2D
100
AcDbLine
370
9
 62
7
  6
_SOLID
 10
3.949314546
 20
4.9027709205
 30
0
 11
3.949314546
 21
4.9527709205
 31
0
  0
LINE
  5
315
100
AcDbEntity
  8
SEMA2D
100
AcDbLine
370
9
 62
7
  6
_SOLID
 10
3.979314546
 20
4.9527709205
 30
0
 11
3.949314546
 21
4.9027709205
 31
0
  0
LINE
  5
316
100
AcDbEntity
  8
SEMA2D
100
AcDbLine
370
9
 62
7
  6
_SOLID
 10
3.949314546
 20
4.9527709205
 30
0
 11
3.979314546
 21
4.9027709205
 31
0
  0
LINE
  5
317
100
AcDbEntity
  8
SEMA2D
100
AcDbLine
370
9
 62
7
  6
_SOLID
 10
3.944655141
 20
4.9772334205
 30
0
 11
3.944655141
 21
4.9527709205
 31
0
  0
LINE
  5
318
100
AcDbEntity
  8
SEMA2D
100
AcDbLine
370
9
 62
7
  6
_DOT
 10
3.9311428665
 20
5.0072333589
 30
0
 11
3.9311428665
 21
4.9760426899
 31
0
  0
LINE
  5
319
100
AcDbEntity
  8
SEMA2D
100
AcDbLine
370
9
 62
7
  6
_DOT
 10
3.949314546
 20
5.0072333589
 30
0
 11
3.949314546
 21
4.9754885368
 31
0
  0
LINE
  5
31A
100
AcDbEntity
  8
SEMA2D
100
AcDbLine
370
9
 62
7
  6
_DOT
 10
3.965156523
 20
5.0072333589
 30
0
 11
3.965156523
 21
4.9660651268
 31
0
  0
LINE
  5
31B
100
AcDbEntity
  8
SEMA2D
100
AcDbLine
370
9
 62
7
  6
_DOT
 10
4.011655141
 20
4.9772334205
 30
0
 11
3.944655141
 21
4.9772334205
 31
0
  0
LINE
  5
31C
100
AcDbEntity
  8
SEMA2D
100
AcDbLine
370
9
 62
7
  6
_DOT
 10
4.011655141
 20
4.9273334205
 30
0
 11
3.9802671776
 21
4.9273334205
 31
0
  0
LINE
  5
31D
100
AcDbEntity
  8
SEMA2D
100
AcDbLine
370
9
 62
7
  6
_DOT
 10
3.994655141
 20
4.9527709205
 30
0
 11
3.9512972907
 21
4.9527709205
 31
0
  0
LINE
  5
31E
100
AcDbEntity
  8
SEMA2D
100
AcDbLine
370
9
 62
7
  6
_DOT
 10
3.913314546
 20
4.9527709205
 30
0
 11
3.9512972907
 21
4.9527709205
 31
0
  0
LINE
  5
31F
100
AcDbEntity
  8
SEMA2D
100
AcDbLine
370
9
 62
7
  6
_DOT
 10
3.913314546
 20
4.9772334205
 30
0
 11
3.941859498
 21
4.9772334205
 31
0
  0
LINE
  5
320
100
AcDbEntity
  8
SEMA2D
100
AcDbLine
370
9
 62
7
  6
_DOT
 10
3.994655141
 20
4.5971804884
 30
0
 11
3.944655141
 21
4.5971804884
 31
0
  0
LINE
  5
321
100
AcDbEntity
  8
SEMA2D
100
AcDbLine
370
9
 62
7
  6
_DOT
 10
4.2592929245
 20
4.5971804884
 30
0
 11
4.1479232288
 21
4.5971804884
 31
0
  0
LINE
  5
322
100
AcDbEntity
  8
SEMA2D
100
AcDbLine
370
9
 62
7
  6
_DOT
 10
4.2592929245
 20
4.9772333589
 30
0
 11
4.2285940137
 21
4.9772333589
 31
0
  0
LINE
  5
323
100
AcDbEntity
  8
SEMA2D
100
AcDbLine
370
9
 62
7
  6
_DOT
 10
4.2292929245
 20
5.0072333589
 30
0
 11
4.2292929245
 21
4.9772333589
 31
0
  0
LINE
  5
324
100
AcDbEntity
  8
SEMA2D
100
AcDbLine
370
9
 62
7
  6
_DOT
 10
4.060156523
 20
5.0072333589
 30
0
 11
4.060156523
 21
4.9772333589
 31
0
  0
LINE
  5
325
100
AcDbEntity
  8
SEMA2D
100
AcDbLine
370
9
 62
7
  6
_SOLID
 10
3.9700056776
 20
4.9248262105
 30
0
 11
3.9693018376
 21
4.9260286105
 31
0
  0
LINE
  5
326
100
AcDbEntity
  8
SEMA2D
100
AcDbLine
370
9
 62
7
  6
_SOLID
 10
3.9693018376
 20
4.9260286105
 30
0
 11
3.9685979876
 21
4.9286238105
 31
0
  0
LINE
  5
327
100
AcDbEntity
  8
SEMA2D
100
AcDbLine
370
9
 62
7
  6
_SOLID
 10
3.9685979876
 20
4.9286238105
 30
0
 11
3.9685979876
 21
4.9298262105
 31
0
  0
LINE
  5
328
100
AcDbEntity
  8
SEMA2D
100
AcDbLine
370
9
 62
7
  6
_SOLID
 10
3.9685979876
 20
4.9298262105
 30
0
 11
3.9693018376
 21
4.9286382205
 31
0
  0
LINE
  5
329
100
AcDbEntity
  8
SEMA2D
100
AcDbLine
370
9
 62
7
  6
_SOLID
 10
3.9693018376
 20
4.9286382205
 30
0
 11
3.9702402776
 21
4.9260286105
 31
0
  0
LINE
  5
32A
100
AcDbEntity
  8
SEMA2D
100
AcDbLine
370
9
 62
7
  6
_SOLID
 10
3.9702402776
 20
4.9260286105
 30
0
 11
3.9700056776
 21
4.9248262105
 31
0
  0
LINE
  5
32B
100
AcDbEntity
  8
SEMA2D
100
AcDbLine
370
9
 62
7
  6
_SOLID
 10
3.9700056776
 20
4.9248262105
 30
0
 11
3.9685979876
 21
4.9298262105
 31
0
  0
LINE
  5
32C
100
AcDbEntity
  8
SEMA2D
100
AcDbLine
370
9
 62
7
  6
_SOLID
 10
3.9726978676
 20
4.9248262105
 30
0
 11
3.9719940276
 21
4.9260286105
 31
0
  0
LINE
  5
32D
100
AcDbEntity
  8
SEMA2D
100
AcDbLine
370
9
 62
7
  6
_SOLID
 10
3.9719940276
 20
4.9260286105
 30
0
 11
3.9712901876
 21
4.9286238105
 31
0
  0
LINE
  5
32E
100
AcDbEntity
  8
SEMA2D
100
AcDbLine
370
9
 62
7
  6
_SOLID
 10
3.9712901876
 20
4.9286238105
 30
0
 11
3.9712901876
 21
4.9298262105
 31
0
  0
LINE
  5
32F
100
AcDbEntity
  8
SEMA2D
100
AcDbLine
370
9
 62
7
  6
_SOLID
 10
3.9712901876
 20
4.9298262105
 30
0
 11
3.9719940276
 21
4.9286382205
 31
0
  0
LINE
  5
330
100
AcDbEntity
  8
SEMA2D
100
AcDbLine
370
9
 62
7
  6
_SOLID
 10
3.9719940276
 20
4.9286382205
 30
0
 11
3.9729324676
 21
4.9260286105
 31
0
  0
LINE
  5
331
100
AcDbEntity
  8
SEMA2D
100
AcDbLine
370
9
 62
7
  6
_SOLID
 10
3.9729324676
 20
4.9260286105
 30
0
 11
3.9726978676
 21
4.9248262105
 31
0
  0
LINE
  5
332
100
AcDbEntity
  8
SEMA2D
100
AcDbLine
370
9
 62
7
  6
_SOLID
 10
3.9726978676
 20
4.9248262105
 30
0
 11
3.9712901876
 21
4.9298262105
 31
0
  0
LINE
  5
333
100
AcDbEntity
  8
SEMA2D
100
AcDbLine
370
9
 62
7
  6
_SOLID
 10
3.9693018376
 20
4.9286238105
 30
0
 11
3.9712901876
 21
4.9286238105
 31
0
  0
LINE
  5
334
100
AcDbEntity
  8
SEMA2D
100
AcDbLine
370
9
 62
7
  6
_SOLID
 10
3.9702402776
 20
4.9260286105
 30
0
 11
3.9719940276
 21
4.9260286105
 31
0
  0
LINE
  5
335
100
AcDbEntity
  8
SEMA2D
100
AcDbLine
370
9
 62
7
  6
_SOLID
 10
3.9775822576
 20
4.9254274105
 30
0
 11
3.9771131876
 21
4.9263805705
 31
0
  0
LINE
  5
336
100
AcDbEntity
  8
SEMA2D
100
AcDbLine
370
9
 62
7
  6
_SOLID
 10
3.9771131876
 20
4.9263805705
 30
0
 11
3.9766435176
 21
4.9282718605
 31
0
  0
LINE
  5
337
100
AcDbEntity
  8
SEMA2D
100
AcDbLine
370
9
 62
7
  6
_SOLID
 10
3.9766435176
 20
4.9282718605
 30
0
 11
3.9766435176
 21
4.9292250105
 31
0
  0
LINE
  5
338
100
AcDbEntity
  8
SEMA2D
100
AcDbLine
370
9
 62
7
  6
_SOLID
 10
3.9766435176
 20
4.9292250105
 30
0
 11
3.9771131876
 21
4.9282718605
 31
0
  0
LINE
  5
339
100
AcDbEntity
  8
SEMA2D
100
AcDbLine
370
9
 62
7
  6
_SOLID
 10
3.9771131876
 20
4.9282718605
 30
0
 11
3.9778164876
 21
4.9263805705
 31
0
  0
LINE
  5
33A
100
AcDbEntity
  8
SEMA2D
100
AcDbLine
370
9
 62
7
  6
_SOLID
 10
3.9778164876
 20
4.9263805705
 30
0
 11
3.9775822576
 21
4.9254274105
 31
0
  0
LINE
  5
33B
100
AcDbEntity
  8
SEMA2D
100
AcDbLine
370
9
 62
7
  6
_SOLID
 10
3.9775822576
 20
4.9254274105
 30
0
 11
3.9766435176
 21
4.9292250105
 31
0
  0
LINE
  5
33C
100
AcDbEntity
  8
SEMA2D
100
AcDbLine
370
9
 62
7
  6
_SOLID
 10
3.9747692976
 20
4.9283186805
 30
0
 11
3.9802671776
 21
4.9273334205
 31
0
  0
LINE
  5
33D
100
AcDbEntity
  8
SEMA2D
100
AcDbLine
370
9
 62
7
  6
_SOLID
 10
3.9719940276
 20
4.9286238105
 30
0
 11
3.9740283376
 21
4.9283890405
 31
0
  0
LINE
  5
33E
100
AcDbEntity
  8
SEMA2D
100
AcDbLine
370
9
 62
7
  6
_SOLID
 10
3.9746406176
 20
4.9262615505
 30
0
 11
3.9729324676
 21
4.9260286105
 31
0
  0
LINE
  5
33F
100
AcDbEntity
  8
SEMA2D
100
AcDbLine
370
9
 62
7
  6
_SOLID
 10
3.9755134276
 20
4.9263805705
 30
0
 11
3.9802671776
 21
4.9273334205
 31
0
  0
LINE
  5
340
100
AcDbEntity
  8
SEMA2D
100
AcDbLine
370
9
 62
7
  6
_SOLID
 10
3.9673134876
 20
4.9248262105
 30
0
 11
3.9666096476
 21
4.9260286105
 31
0
  0
LINE
  5
341
100
AcDbEntity
  8
SEMA2D
100
AcDbLine
370
9
 62
7
  6
_SOLID
 10
3.9666096476
 20
4.9260286105
 30
0
 11
3.9659057976
 21
4.9286238105
 31
0
  0
LINE
  5
342
100
AcDbEntity
  8
SEMA2D
100
AcDbLine
370
9
 62
7
  6
_SOLID
 10
3.9659057976
 20
4.9286238105
 30
0
 11
3.9659057976
 21
4.9298262105
 31
0
  0
LINE
  5
343
100
AcDbEntity
  8
SEMA2D
100
AcDbLine
370
9
 62
7
  6
_SOLID
 10
3.9659057976
 20
4.9298262105
 30
0
 11
3.9666096476
 21
4.9286382205
 31
0
  0
LINE
  5
344
100
AcDbEntity
  8
SEMA2D
100
AcDbLine
370
9
 62
7
  6
_SOLID
 10
3.9666096476
 20
4.9286382205
 30
0
 11
3.9675480776
 21
4.9260286105
 31
0
  0
LINE
  5
345
100
AcDbEntity
  8
SEMA2D
100
AcDbLine
370
9
 62
7
  6
_SOLID
 10
3.9675480776
 20
4.9260286105
 30
0
 11
3.9673134876
 21
4.9248262105
 31
0
  0
LINE
  5
346
100
AcDbEntity
  8
SEMA2D
100
AcDbLine
370
9
 62
7
  6
_SOLID
 10
3.9673134876
 20
4.9248262105
 30
0
 11
3.9659057976
 21
4.9298262105
 31
0
  0
LINE
  5
347
100
AcDbEntity
  8
SEMA2D
100
AcDbLine
370
9
 62
7
  6
_SOLID
 10
3.9666096476
 20
4.9286238105
 30
0
 11
3.9685979876
 21
4.9286238105
 31
0
  0
LINE
  5
348
100
AcDbEntity
  8
SEMA2D
100
AcDbLine
370
9
 62
7
  6
_SOLID
 10
3.9675480776
 20
4.9260286105
 30
0
 11
3.9693018376
 21
4.9260286105
 31
0
  0
LINE
  5
349
100
AcDbEntity
  8
SEMA2D
100
AcDbLine
370
9
 62
7
  6
_SOLID
 10
3.9646212976
 20
4.9248262105
 30
0
 11
3.9639174476
 21
4.9260286105
 31
0
  0
LINE
  5
34A
100
AcDbEntity
  8
SEMA2D
100
AcDbLine
370
9
 62
7
  6
_SOLID
 10
3.9639174476
 20
4.9260286105
 30
0
 11
3.9632136076
 21
4.9286238105
 31
0
  0
LINE
  5
34B
100
AcDbEntity
  8
SEMA2D
100
AcDbLine
370
9
 62
7
  6
_SOLID
 10
3.9632136076
 20
4.9286238105
 30
0
 11
3.9632136076
 21
4.9298262105
 31
0
  0
LINE
  5
34C
100
AcDbEntity
  8
SEMA2D
100
AcDbLine
370
9
 62
7
  6
_SOLID
 10
3.9632136076
 20
4.9298262105
 30
0
 11
3.9639174476
 21
4.9286382205
 31
0
  0
LINE
  5
34D
100
AcDbEntity
  8
SEMA2D
100
AcDbLine
370
9
 62
7
  6
_SOLID
 10
3.9639174476
 20
4.9286382205
 30
0
 11
3.9648558876
 21
4.9260286105
 31
0
  0
LINE
  5
34E
100
AcDbEntity
  8
SEMA2D
100
AcDbLine
370
9
 62
7
  6
_SOLID
 10
3.9648558876
 20
4.9260286105
 30
0
 11
3.9646212976
 21
4.9248262105
 31
0
  0
LINE
  5
34F
100
AcDbEntity
  8
SEMA2D
100
AcDbLine
370
9
 62
7
  6
_SOLID
 10
3.9646212976
 20
4.9248262105
 30
0
 11
3.9632136076
 21
4.9298262105
 31
0
  0
LINE
  5
350
100
AcDbEntity
  8
SEMA2D
100
AcDbLine
370
9
 62
7
  6
_SOLID
 10
3.9639174476
 20
4.9286238105
 30
0
 11
3.9659057976
 21
4.9286238105
 31
0
  0
LINE
  5
351
100
AcDbEntity
  8
SEMA2D
100
AcDbLine
370
9
 62
7
  6
_SOLID
 10
3.9648558876
 20
4.9260286105
 30
0
 11
3.9666096476
 21
4.9260286105
 31
0
  0
LINE
  5
352
100
AcDbEntity
  8
SEMA2D
100
AcDbLine
370
9
 62
7
  6
_SOLID
 10
3.9619290976
 20
4.9248262105
 30
0
 11
3.9612252576
 21
4.9260286105
 31
0
  0
LINE
  5
353
100
AcDbEntity
  8
SEMA2D
100
AcDbLine
370
9
 62
7
  6
_SOLID
 10
3.9612252576
 20
4.9260286105
 30
0
 11
3.9605214176
 21
4.9286238105
 31
0
  0
LINE
  5
354
100
AcDbEntity
  8
SEMA2D
100
AcDbLine
370
9
 62
7
  6
_SOLID
 10
3.9605214176
 20
4.9286238105
 30
0
 11
3.9605214176
 21
4.9298262105
 31
0
  0
LINE
  5
355
100
AcDbEntity
  8
SEMA2D
100
AcDbLine
370
9
 62
7
  6
_SOLID
 10
3.9605214176
 20
4.9298262105
 30
0
 11
3.9612252576
 21
4.9286382205
 31
0
  0
LINE
  5
356
100
AcDbEntity
  8
SEMA2D
100
AcDbLine
370
9
 62
7
  6
_SOLID
 10
3.9612252576
 20
4.9286382205
 30
0
 11
3.9621636976
 21
4.9260286105
 31
0
  0
LINE
  5
357
100
AcDbEntity
  8
SEMA2D
100
AcDbLine
370
9
 62
7
  6
_SOLID
 10
3.9621636976
 20
4.9260286105
 30
0
 11
3.9619290976
 21
4.9248262105
 31
0
  0
LINE
  5
358
100
AcDbEntity
  8
SEMA2D
100
AcDbLine
370
9
 62
7
  6
_SOLID
 10
3.9619290976
 20
4.9248262105
 30
0
 11
3.9605214176
 21
4.9298262105
 31
0
  0
LINE
  5
359
100
AcDbEntity
  8
SEMA2D
100
AcDbLine
370
9
 62
7
  6
_SOLID
 10
3.9612252576
 20
4.9286238105
 30
0
 11
3.9632136076
 21
4.9286238105
 31
0
  0
LINE
  5
35A
100
AcDbEntity
  8
SEMA2D
100
AcDbLine
370
9
 62
7
  6
_SOLID
 10
3.9621636976
 20
4.9260286105
 30
0
 11
3.9639174476
 21
4.9260286105
 31
0
  0
LINE
  5
35B
100
AcDbEntity
  8
SEMA2D
100
AcDbLine
370
9
 62
7
  6
_SOLID
 10
3.9592369076
 20
4.9248262105
 30
0
 11
3.9585330676
 21
4.9260286105
 31
0
  0
LINE
  5
35C
100
AcDbEntity
  8
SEMA2D
100
AcDbLine
370
9
 62
7
  6
_SOLID
 10
3.9585330676
 20
4.9260286105
 30
0
 11
3.9578292176
 21
4.9286238105
 31
0
  0
LINE
  5
35D
100
AcDbEntity
  8
SEMA2D
100
AcDbLine
370
9
 62
7
  6
_SOLID
 10
3.9578292176
 20
4.9286238105
 30
0
 11
3.9578292176
 21
4.9298262105
 31
0
  0
LINE
  5
35E
100
AcDbEntity
  8
SEMA2D
100
AcDbLine
370
9
 62
7
  6
_SOLID
 10
3.9578292176
 20
4.9298262105
 30
0
 11
3.9585330676
 21
4.9286382205
 31
0
  0
LINE
  5
35F
100
AcDbEntity
  8
SEMA2D
100
AcDbLine
370
9
 62
7
  6
_SOLID
 10
3.9585330676
 20
4.9286382205
 30
0
 11
3.9594715076
 21
4.9260286105
 31
0
  0
LINE
  5
360
100
AcDbEntity
  8
SEMA2D
100
AcDbLine
370
9
 62
7
  6
_SOLID
 10
3.9594715076
 20
4.9260286105
 30
0
 11
3.9592369076
 21
4.9248262105
 31
0
  0
LINE
  5
361
100
AcDbEntity
  8
SEMA2D
100
AcDbLine
370
9
 62
7
  6
_SOLID
 10
3.9592369076
 20
4.9248262105
 30
0
 11
3.9578292176
 21
4.9298262105
 31
0
  0
LINE
  5
362
100
AcDbEntity
  8
SEMA2D
100
AcDbLine
370
9
 62
7
  6
_SOLID
 10
3.9585330676
 20
4.9286238105
 30
0
 11
3.9605214176
 21
4.9286238105
 31
0
  0
LINE
  5
363
100
AcDbEntity
  8
SEMA2D
100
AcDbLine
370
9
 62
7
  6
_SOLID
 10
3.9594715076
 20
4.9260286105
 30
0
 11
3.9612252576
 21
4.9260286105
 31
0
  0
LINE
  5
364
100
AcDbEntity
  8
SEMA2D
100
AcDbLine
370
9
 62
7
  6
_SOLID
 10
3.9565447176
 20
4.9248262105
 30
0
 11
3.9558408776
 21
4.9260286105
 31
0
  0
LINE
  5
365
100
AcDbEntity
  8
SEMA2D
100
AcDbLine
370
9
 62
7
  6
_SOLID
 10
3.9558408776
 20
4.9260286105
 30
0
 11
3.9551370276
 21
4.9286238105
 31
0
  0
LINE
  5
366
100
AcDbEntity
  8
SEMA2D
100
AcDbLine
370
9
 62
7
  6
_SOLID
 10
3.9551370276
 20
4.9286238105
 30
0
 11
3.9551370276
 21
4.9298262105
 31
0
  0
LINE
  5
367
100
AcDbEntity
  8
SEMA2D
100
AcDbLine
370
9
 62
7
  6
_SOLID
 10
3.9551370276
 20
4.9298262105
 30
0
 11
3.9558408776
 21
4.9286382205
 31
0
  0
LINE
  5
368
100
AcDbEntity
  8
SEMA2D
100
AcDbLine
370
9
 62
7
  6
_SOLID
 10
3.9558408776
 20
4.9286382205
 30
0
 11
3.9567793076
 21
4.9260286105
 31
0
  0
LINE
  5
369
100
AcDbEntity
  8
SEMA2D
100
AcDbLine
370
9
 62
7
  6
_SOLID
 10
3.9567793076
 20
4.9260286105
 30
0
 11
3.9565447176
 21
4.9248262105
 31
0
  0
LINE
  5
36A
100
AcDbEntity
  8
SEMA2D
100
AcDbLine
370
9
 62
7
  6
_SOLID
 10
3.9565447176
 20
4.9248262105
 30
0
 11
3.9551370276
 21
4.9298262105
 31
0
  0
LINE
  5
36B
100
AcDbEntity
  8
SEMA2D
100
AcDbLine
370
9
 62
7
  6
_SOLID
 10
3.9558408776
 20
4.9286238105
 30
0
 11
3.9578292176
 21
4.9286238105
 31
0
  0
LINE
  5
36C
100
AcDbEntity
  8
SEMA2D
100
AcDbLine
370
9
 62
7
  6
_SOLID
 10
3.9567793076
 20
4.9260286105
 30
0
 11
3.9585330676
 21
4.9260286105
 31
0
  0
LINE
  5
36D
100
AcDbEntity
  8
SEMA2D
100
AcDbLine
370
9
 62
7
  6
_SOLID
 10
3.9332671776
 20
4.9286238105
 30
0
 11
3.9551370276
 21
4.9286238105
 31
0
  0
LINE
  5
36E
100
AcDbEntity
  8
SEMA2D
100
AcDbLine
370
9
 62
7
  6
_SOLID
 10
3.9332671776
 20
4.9260286105
 30
0
 11
3.9558408776
 21
4.9260286105
 31
0
  0
LINE
  5
36F
100
AcDbEntity
  8
SEMA2D
100
AcDbLine
370
9
 62
7
  6
_SOLID
 10
3.9753900676
 20
4.9248262105
 30
0
 11
3.9746862176
 21
4.9260286105
 31
0
  0
LINE
  5
370
100
AcDbEntity
  8
SEMA2D
100
AcDbLine
370
9
 62
7
  6
_SOLID
 10
3.9746862176
 20
4.9260286105
 30
0
 11
3.9739823776
 21
4.9286238105
 31
0
  0
LINE
  5
371
100
AcDbEntity
  8
SEMA2D
100
AcDbLine
370
9
 62
7
  6
_SOLID
 10
3.9739823776
 20
4.9286238105
 30
0
 11
3.9739823776
 21
4.9298262105
 31
0
  0
LINE
  5
372
100
AcDbEntity
  8
SEMA2D
100
AcDbLine
370
9
 62
7
  6
_SOLID
 10
3.9739823776
 20
4.9298262105
 30
0
 11
3.9746862176
 21
4.9286382205
 31
0
  0
LINE
  5
373
100
AcDbEntity
  8
SEMA2D
100
AcDbLine
370
9
 62
7
  6
_SOLID
 10
3.9746862176
 20
4.9286382205
 30
0
 11
3.9756246576
 21
4.9260286105
 31
0
  0
LINE
  5
374
100
AcDbEntity
  8
SEMA2D
100
AcDbLine
370
9
 62
7
  6
_SOLID
 10
3.9756246576
 20
4.9260286105
 30
0
 11
3.9753900676
 21
4.9248262105
 31
0
  0
LINE
  5
375
100
AcDbEntity
  8
SEMA2D
100
AcDbLine
370
9
 62
7
  6
_SOLID
 10
3.9753900676
 20
4.9248262105
 30
0
 11
3.9739823776
 21
4.9298262105
 31
0
  0
LINE
  5
376
100
AcDbEntity
  8
SEMA2D
100
AcDbLine
370
9
 62
7
  6
_SOLID
 10
3.9332671776
 20
4.9286238105
 30
0
 11
3.9302671776
 21
4.9323262105
 31
0
  0
LINE
  5
377
100
AcDbEntity
  8
SEMA2D
100
AcDbLine
370
9
 62
7
  6
_SOLID
 10
3.9302671776
 20
4.9323262105
 30
0
 11
3.9302671776
 21
4.9223262105
 31
0
  0
LINE
  5
378
100
AcDbEntity
  8
SEMA2D
100
AcDbLine
370
9
 62
7
  6
_SOLID
 10
3.9302671776
 20
4.9223262105
 30
0
 11
3.9332671776
 21
4.9260286105
 31
0
  0
ENDSEC
  0
SECTION
  2
OBJECTS
  0
DICTIONARY
  5
389
100
AcDbDictionary
  3
ACAD_GROUP
350
38A
  3
ACAD_MATERIAL
350
38B
  3
ACAD_WIPEOUT_VARS
350
38C
  3
ACAD_MLINESTYLE
350
38D
  3
ACAD_LAYOUT
350
38E
  0
DICTIONARY
  5
38A
330
389
100
AcDbDictionary
  0
DICTIONARY
  5
38B
330
389
100
AcDbDictionary
  0
WIPEOUTVARIABLES
  5
38C
330
389
100
AcDbWipeoutVariables
 70
1
  0
DICTIONARY
  5
38D
330
389
100
AcDbDictionary
  3
STANDARD
350
38F
  0
MLINESTYLE
  5
38F
100
AcDbMlineStyle
  2
STANDARD
 70
0
  3

 62
256
 51
90
 52
90
 71
2
 49
0.5
 62
256
  6
ByLayer
 49
-0.5
 62
256
  6
ByLayer
  0
DICTIONARY
  5
38E
100
AcDbDictionary
281
1
  3
Model
350
379
  0
LAYOUT
  5
379
102
{ACAD_REACTORS
330
38E
102
}
330
38E
100
AcDbPlotSettings
  1

  2
none_device
  4

  6

 40
0
 41
0
 42
0
 43
0
 44
0
 45
0
 46
0
 47
0
 48
0
 49
0
 70
1712
 72
1
 73
0
 74
5
 75
16
 76
0
 77
0
 78
100
140
0
141
0
142
1
143
1
147
1
148
0
149
0
100
AcDbLayout
  1
Model
 70
1
 71
1
 10
3.904914546
 20
4.5958083589
 11
4.27186416923513
 21
5.132886600433
 12
0
 22
0
 32
0
 14
3.904914546
 24
4.5958083589
 34
0
 15
4.27186416923513
 25
5.132886600433
 35
0
146
0
 13
0
 23
0
 33
0
 16
1
 26
0
 36
0
 17
0
 27
1
 37
0
 76
0
330
2A
  0
DICTIONARY
  5
390
100
AcDbDictionary
280
1
  3
XINFO
360
391
  0
XRECORD
  5
391
102
{ACAD_REACTORS
330
390
102
}
330
390
100
AcDbXrecord
280
0
310
0000000002001400
311
C42441A05980D65E
  0
ENDSEC
  0
EOF
