999
Created by Soft Gold Ltd. www.cadsofttools.com
999

  0
SECTION
  2
HEADER
  9
$ACADVER
  1
AC1021
  9
$DWGCODEPAGE
  3
ANSI_1252
  9
$CLAYER
  8
0
  9
$CELTYPE
  6
BYLAYER
  9
$CELTSCALE
 40
1
  9
$CELWEIGHT
370
-1
  9
$DIMALT
 70
0
  9
$DIMALTF
 40
1
  9
$DIMPOST
  1

  9
$DIMAPOST
  1

  9
$DIMSCALE
 40
1
  9
$DIMASZ
 40
0.18
  9
$DIMCLRD
 70
0
  9
$DIMCLRE
 70
0
  9
$DIMCLRT
 70
0
  9
$DIMEXE
 40
0.18
  9
$DIMEXO
 40
0.0625
  9
$DIMGAP
 40
0.0625
  9
$DIMLFAC
 40
1
  9
$DIMDEC
 70
4
  9
$DIMTAD
 70
0
  9
$DIMCEN
 40
0.09
  9
$DIMTIH
 70
1
  9
$DIMTIX
 70
0
  9
$DIMTOH
 70
1
  9
$DIMSE1
 70
0
  9
$DIMSE2
 70
0
  9
$DIMSD1
 70
0
  9
$DIMSD2
 70
0
  9
$DIMLWD
 70
-1
  9
$DIMLWE
 70
-1
  9
$DIMSAH
 70
0
  9
$DIMBLK
  1

  9
$DIMBLK1
  1

  9
$DIMBLK2
  1

  9
$DIMLDRBLK
  1

  9
$DIMSTYLE
  2
STANDARD
  9
$DIMTP
 40
0
  9
$DIMTM
 40
0
  9
$DIMTXT
 40
0.18
  9
$DIMLUNIT
 70
2
  9
$DIMDSEP
 70
46
  9
$DIMTXSTY
  7
STANDARD
  9
$TEXTSIZE
 40
0.18
  9
$TEXTSTYLE
  7
STANDARD
  9
$HANDSEED
  5
0000000000000251
  9
$FILLETRAD
 40
0.5
  9
$INSUNITS
 70
4
  9
$LIMMIN
 10
3.94277307914848
 20
4.95691708108337
  9
$LIMMAX
 10
4.40306529666372
 20
5.42678309024963
  9
$FILLMODE
 70
1
  9
$LTSCALE
 40
1
  9
$MEASUREMENT
 70
0
  9
$ATTMODE
 70
1
  9
$PDMODE
 70
0
  9
$PDSIZE
 40
0
  9
$TILEMODE
 70
1
  9
$UCSORG
 10
0
 20
0
 30
0
  9
$UCSXDIR
 10
1
 20
0
 30
0
  9
$UCSYDIR
 10
0
 20
1
 30
0
  9
$INSBASE
 10
0
 20
0
 30
0
  9
$XCLIPFRAME
290
1
  9
$DIMASSOC
280
2
  9
$TDCREATE
 40
2459018.59715001
  9
$TDINDWG
 40
1.41203703703704E-6
  9
$TDUPDATE
 40
2459018.59715142
  0
ENDSEC
  0
SECTION
  2
CLASSES
  0
CLASS
  1
IMAGE
  2
AcDbRasterImage
  3
ISM
 90
2175
 91
1
280
0
281
1
  0
CLASS
  1
IMAGEDEF
  2
AcDbRasterImageDef
  3
ISM
 90
0
 91
1
280
0
281
0
  0
CLASS
  1
WIPEOUT
  2
AcDbWipeout
  3
"WipeOut"
 90
2175
 91
1
280
0
281
1
  0
CLASS
  1
WIPEOUTVARIABLES
  2
AcDbWipeoutVariables
  3
"WipeOut"
 90
0
 91
1
280
0
281
0
  0
CLASS
  1
MPOLYGON
  2
AcDbMPolygon
  3
"AcMPolygonObj15"
 90
3071
 91
1
280
0
281
1
  0
ENDSEC
  0
SECTION
  2
TABLES
  0
TABLE
  2
APPID
  5
239
100
AcDbSymbolTable
  0
APPID
  5
23A
100
AcDbSymbolTableRecord
100
AcDbRegAppTableRecord
  2
ACAD
 70
0
  0
APPID
  5
12
100
AcDbSymbolTableRecord
100
AcDbRegAppTableRecord
  2
CSTINVENTORY
 70
0
  0
APPID
  5
23B
100
AcDbSymbolTableRecord
100
AcDbRegAppTableRecord
  2
PE_URL
 70
0
  0
ENDTAB
  0
TABLE
  2
BLOCK_RECORD
  5
23C
100
AcDbSymbolTable
  0
BLOCK_RECORD
  5
2A
100
AcDbSymbolTableRecord
100
AcDbBlockTableRecord
  2
*MODEL_SPACE
  0
BLOCK_RECORD
  5
23D
100
AcDbSymbolTableRecord
100
AcDbBlockTableRecord
  2
*PAPER_SPACE
  0
BLOCK_RECORD
  5
10
100
AcDbSymbolTableRecord
100
AcDbBlockTableRecord
  2
_CLOSEDFILLED
  0
ENDTAB
  0
TABLE
  2
STYLE
  5
3
100
AcDbSymbolTable
  0
STYLE
  5
A
100
AcDbSymbolTableRecord
100
AcDbTextStyleTableRecord
  2
STANDARD
 70
0
 40
0
 41
1
 50
0
 71
0
 42
2.5
  3
txt
  4

1001
ACAD
1000
txt
1071
0
  0
ENDTAB
  0
TABLE
  2
LTYPE
  5
1
100
AcDbSymbolTable
  0
LTYPE
  5
9
100
AcDbSymbolTableRecord
100
AcDbLinetypeTableRecord
  2
CONTINUOUS
 70
0
  3

 72
65
 73
0
 40
0
  0
LTYPE
  5
7
100
AcDbSymbolTableRecord
100
AcDbLinetypeTableRecord
  2
BYLAYER
 70
0
  3

 72
65
 73
0
 40
0
  0
LTYPE
  5
8
100
AcDbSymbolTableRecord
100
AcDbLinetypeTableRecord
  2
BYBLOCK
 70
0
  3

 72
65
 73
0
 40
0
  0
LTYPE
  5
13
100
AcDbSymbolTableRecord
100
AcDbLinetypeTableRecord
  2
_SOLID
 70
0
  3
_.
 72
65
 73
2
 40
5
 49
5
 74
0
 49
0
 74
0
  0
LTYPE
  5
14
100
AcDbSymbolTableRecord
100
AcDbLinetypeTableRecord
  2
_DASH
 70
0
  3
_ 
 72
65
 73
2
 40
7
 49
5
 74
0
 49
-2
 74
0
  0
LTYPE
  5
15
100
AcDbSymbolTableRecord
100
AcDbLinetypeTableRecord
  2
_DOT
 70
0
  3
_ 
 72
65
 73
2
 40
4
 49
2
 74
0
 49
-2
 74
0
  0
LTYPE
  5
16
100
AcDbSymbolTableRecord
100
AcDbLinetypeTableRecord
  2
_DASHDOT
 70
0
  3
_ _ 
 72
65
 73
4
 40
11
 49
5
 74
0
 49
-2
 74
0
 49
2
 74
0
 49
-2
 74
0
  0
LTYPE
  5
17
100
AcDbSymbolTableRecord
100
AcDbLinetypeTableRecord
  2
_DASHDOTDOT
 70
0
  3
_ _ _ 
 72
65
 73
6
 40
15
 49
5
 74
0
 49
-2
 74
0
 49
2
 74
0
 49
-2
 74
0
 49
2
 74
0
 49
-2
 74
0
  0
LTYPE
  5
18
100
AcDbSymbolTableRecord
100
AcDbLinetypeTableRecord
  2
ISO128-20-02
 70
0
  3
_ 
 72
65
 73
2
 40
5
 49
4
 74
0
 49
-1
 74
0
  0
LTYPE
  5
19
100
AcDbSymbolTableRecord
100
AcDbLinetypeTableRecord
  2
ISO128-20-03
 70
0
  3
_ 
 72
65
 73
2
 40
10
 49
4
 74
0
 49
-6
 74
0
  0
LTYPE
  5
1A
100
AcDbSymbolTableRecord
100
AcDbLinetypeTableRecord
  2
ISO128-20-04
 70
0
  3
_ . 
 72
65
 73
4
 40
10
 49
8
 74
0
 49
-1
 74
0
 49
0
 74
0
 49
-1
 74
0
  0
LTYPE
  5
1B
100
AcDbSymbolTableRecord
100
AcDbLinetypeTableRecord
  2
ISO128-20-05
 70
0
  3
_ . . 
 72
65
 73
6
 40
11
 49
8
 74
0
 49
-1
 74
0
 49
0
 74
0
 49
-1
 74
0
 49
0
 74
0
 49
-1
 74
0
  0
LTYPE
  5
1C
100
AcDbSymbolTableRecord
100
AcDbLinetypeTableRecord
  2
ISO128-20-06
 70
0
  3
_ . . . 
 72
65
 73
8
 40
12
 49
8
 74
0
 49
-1
 74
0
 49
0
 74
0
 49
-1
 74
0
 49
0
 74
0
 49
-1
 74
0
 49
0
 74
0
 49
-1
 74
0
  0
LTYPE
  5
1D
100
AcDbSymbolTableRecord
100
AcDbLinetypeTableRecord
  2
ISO128-20-07
 70
0
  3
. 
 72
65
 73
2
 40
1
 49
0
 74
0
 49
-1
 74
0
  0
LTYPE
  5
1E
100
AcDbSymbolTableRecord
100
AcDbLinetypeTableRecord
  2
ISO128-20-08
 70
0
  3
_ _ 
 72
65
 73
4
 40
12
 49
8
 74
0
 49
-1
 74
0
 49
2
 74
0
 49
-1
 74
0
  0
LTYPE
  5
1F
100
AcDbSymbolTableRecord
100
AcDbLinetypeTableRecord
  2
ISO128-20-09
 70
0
  3
_ _ _ 
 72
65
 73
6
 40
15
 49
8
 74
0
 49
-1
 74
0
 49
2
 74
0
 49
-1
 74
0
 49
2
 74
0
 49
-1
 74
0
  0
LTYPE
  5
20
100
AcDbSymbolTableRecord
100
AcDbLinetypeTableRecord
  2
ISO128-20-10
 70
0
  3
_ . 
 72
65
 73
4
 40
10
 49
8
 74
0
 49
-1
 74
0
 49
0
 74
0
 49
-1
 74
0
  0
LTYPE
  5
21
100
AcDbSymbolTableRecord
100
AcDbLinetypeTableRecord
  2
ISO128-20-11
 70
0
  3
_ _ . 
 72
65
 73
6
 40
11
 49
4
 74
0
 49
-1
 74
0
 49
4
 74
0
 49
-1
 74
0
 49
0
 74
0
 49
-1
 74
0
  0
LTYPE
  5
22
100
AcDbSymbolTableRecord
100
AcDbLinetypeTableRecord
  2
ISO128-20-12
 70
0
  3
_ . . 
 72
65
 73
6
 40
7
 49
4
 74
0
 49
-1
 74
0
 49
0
 74
0
 49
-1
 74
0
 49
0
 74
0
 49
-1
 74
0
  0
LTYPE
  5
23
100
AcDbSymbolTableRecord
100
AcDbLinetypeTableRecord
  2
ISO128-20-13
 70
0
  3
_ _ . . 
 72
65
 73
8
 40
12
 49
4
 74
0
 49
-1
 74
0
 49
4
 74
0
 49
-1
 74
0
 49
0
 74
0
 49
-1
 74
0
 49
0
 74
0
 49
-1
 74
0
  0
LTYPE
  5
24
100
AcDbSymbolTableRecord
100
AcDbLinetypeTableRecord
  2
ISO128-20-14
 70
0
  3
_ . . . 
 72
65
 73
8
 40
8
 49
4
 74
0
 49
-1
 74
0
 49
0
 74
0
 49
-1
 74
0
 49
0
 74
0
 49
-1
 74
0
 49
0
 74
0
 49
-1
 74
0
  0
LTYPE
  5
25
100
AcDbSymbolTableRecord
100
AcDbLinetypeTableRecord
  2
ISO128-20-15
 70
0
  3
_ _ . . . 
 72
65
 73
10
 40
13
 49
4
 74
0
 49
-1
 74
0
 49
4
 74
0
 49
-1
 74
0
 49
0
 74
0
 49
-1
 74
0
 49
0
 74
0
 49
-1
 74
0
 49
0
 74
0
 49
-1
 74
0
  0
LTYPE
  5
26
100
AcDbSymbolTableRecord
100
AcDbLinetypeTableRecord
  2
kurzgestrichelt
 70
0
  3
_ 
 72
65
 73
2
 40
3
 49
2
 74
0
 49
-1
 74
0
  0
ENDTAB
  0
TABLE
  2
LAYER
  5
2
100
AcDbSymbolTable
  0
LAYER
  5
E
100
AcDbSymbolTableRecord
100
AcDbLayerTableRecord
  2
0
 70
0
 62
7
  6
CONTINUOUS
290
1
370
-3
390
0
  0
LAYER
  5
27
100
AcDbSymbolTableRecord
100
AcDbLayerTableRecord
  2
SEMA2D
 70
0
 62
7
290
1
370
-3
390
0
  0
LAYER
  5
2B
100
AcDbSymbolTableRecord
100
AcDbLayerTableRecord
  2
SEMATEXT
 70
0
 62
7
290
1
370
-3
390
0
  0
ENDTAB
  0
TABLE
  2
VPORT
  5
23E
100
AcDbSymbolTable
  0
VPORT
  5
240
100
AcDbSymbolTableRecord
100
AcDbViewportTableRecord
  2
*ACTIVE
 70
0
 10
0
 20
0
 11
1
 21
1
 12
4.1729191879061
 22
5.1918500856665
 32
0
 13
0
 23
0
 14
1
 24
1
 15
1
 25
1
 16
0
 26
0
 36
1
 17
0
 27
0
 37
0
 40
0.375892807333003
 41
0.97962442171972
 42
50
 43
0
 44
0
 50
0
 51
0
 71
0
 72
100
 73
1
 74
1
 75
0
 76
0
 77
0
 78
0
  0
ENDTAB
  0
TABLE
  2
VIEW
  5
241
100
AcDbSymbolTable
  0
ENDTAB
  0
TABLE
  2
UCS
  5
242
100
AcDbSymbolTable
  0
ENDTAB
  0
TABLE
  2
DIMSTYLE
  5
4
100
AcDbSymbolTable
 70
1
100
AcDbDimStyleTable
 71
0
  0
DIMSTYLE
105
B
100
AcDbSymbolTableRecord
100
AcDbDimStyleTableRecord
  2
STANDARD
 70
0
  3

 40
1
 41
0.18
 42
0.0625
 44
0.18
 47
0
 48
0
 73
1
 74
1
 75
0
 76
0
 77
0
140
0.18
141
0.09
144
1
147
0.0625
173
0
174
0
176
0
177
0
178
0
277
2
278
46
281
0
282
0
271
4
340
A
371
-1
372
-1
  0
ENDTAB
  0
ENDSEC
  0
SECTION
  2
BLOCKS
  0
BLOCK
  5
243
100
AcDbEntity
  8
0
100
AcDbBlockBegin
  2
*MODEL_SPACE
 70
0
 10
0
 20
0
  0
ENDBLK
  5
244
100
AcDbEntity
  8
0
100
AcDbBlockEnd
  0
BLOCK
  5
245
100
AcDbEntity
  8
0
100
AcDbBlockBegin
  2
*PAPER_SPACE
 70
0
 10
0
 20
0
  0
ENDBLK
  5
246
100
AcDbEntity
  8
0
100
AcDbBlockEnd
  0
BLOCK
  5
F
100
AcDbEntity
  8
0
100
AcDbBlockBegin
  2
_CLOSEDFILLED
 70
0
 10
0
 20
0
 30
0
  3
_CLOSEDFILLED
  1

  0
SOLID
  5
C
100
AcDbEntity
  8
0
100
AcDbTrace
370
-2
 62
0
 10
-1
 20
0.166666666666667
 30
0
 11
0
 21
0
 31
0
 12
-1
 22
0.166666666666667
 32
0
 13
-1
 23
-0.166666666666667
 33
0
  0
LINE
  5
D
100
AcDbEntity
  8
0
100
AcDbLine
370
-2
 62
0
 10
-1
 20
0
 30
0
 11
-2
 21
0
 31
0
  0
ENDBLK
  5
247
100
AcDbEntity
  8
0
100
AcDbBlockEnd
  0
ENDSEC
  0
SECTION
  2
ENTITIES
  0
LINE
  5
28
100
AcDbEntity
  8
SEMA2D
100
AcDbLine
370
9
 62
7
  6
_SOLID
 10
4.3446357274
 20
5.2279388908
 30
0
 11
4.3446357274
 21
5.0039388908
 31
0
  0
MTEXT
  5
2C
100
AcDbEntity
  8
SEMATEXT
100
AcDbMText
370
9
 62
7
 10
4.34656007491219
 20
5.10480345134007
 30
0
 40
0.010476
  1
{\fHelveticaNeueLT Com 55 Roman;224}
 50
90
 41
0
  7
STANDARD
 71
0
 73
1
 44
1
  0
LINE
  5
31
100
AcDbEntity
  8
SEMA2D
100
AcDbLine
370
9
 62
7
  6
_SOLID
 10
4.3446357274
 20
5.2279388908
 30
0
 11
4.3530357274
 21
5.2279388908
 31
0
  0
LINE
  5
32
100
AcDbEntity
  8
SEMA2D
100
AcDbLine
370
9
 62
7
  6
_SOLID
 10
4.3446357274
 20
5.2279388908
 30
0
 11
4.3362357274
 21
5.2279388908
 31
0
  0
LINE
  5
33
100
AcDbEntity
  8
SEMA2D
100
AcDbLine
370
9
 62
7
  6
_SOLID
 10
4.3446357274
 20
5.0039388908
 30
0
 11
4.3530357274
 21
5.0039388908
 31
0
  0
LINE
  5
34
100
AcDbEntity
  8
SEMA2D
100
AcDbLine
370
9
 62
7
  6
_SOLID
 10
4.3446357274
 20
5.0039388908
 30
0
 11
4.3362357274
 21
5.0039388908
 31
0
  0
LINE
  5
35
100
AcDbEntity
  8
SEMA2D
100
AcDbLine
370
9
 62
7
  6
_SOLID
 10
4.0646573489
 20
5.2034764524
 30
0
 11
4.0646573489
 21
5.0039388908
 31
0
  0
MTEXT
  5
36
100
AcDbEntity
  8
SEMATEXT
100
AcDbMText
370
9
 62
7
 10
4.06658169641219
 20
5.09574097626028
 30
0
 40
0.010476
  1
{\fHelveticaNeueLT Com 55 Roman;20}
 50
90
 41
0
  7
STANDARD
 71
0
 73
1
 44
1
  0
LINE
  5
3B
100
AcDbEntity
  8
SEMA2D
100
AcDbLine
370
9
 62
7
  6
_SOLID
 10
4.0646573489
 20
5.2034764524
 30
0
 11
4.0730573489
 21
5.2034764524
 31
0
  0
LINE
  5
3C
100
AcDbEntity
  8
SEMA2D
100
AcDbLine
370
9
 62
7
  6
_SOLID
 10
4.0646573489
 20
5.2034764524
 30
0
 11
4.0562573489
 21
5.2034764524
 31
0
  0
LINE
  5
3D
100
AcDbEntity
  8
SEMA2D
100
AcDbLine
370
9
 62
7
  6
_SOLID
 10
4.0646573489
 20
5.0039388908
 30
0
 11
4.0730573489
 21
5.0039388908
 31
0
  0
LINE
  5
3E
100
AcDbEntity
  8
SEMA2D
100
AcDbLine
370
9
 62
7
  6
_SOLID
 10
4.0646573489
 20
5.0039388908
 30
0
 11
4.0562573489
 21
5.0039388908
 31
0
  0
LINE
  5
3F
100
AcDbEntity
  8
SEMA2D
100
AcDbLine
370
9
 62
7
  6
_SOLID
 10
4.1454993259
 20
5.2579388908
 30
0
 11
4.3146357274
 21
5.2579388908
 31
0
  0
MTEXT
  5
40
100
AcDbEntity
  8
SEMATEXT
100
AcDbMText
370
9
 62
7
 10
4.2189645331831
 20
5.27589946758049
 30
0
 40
0.010476
  1
{\fHelveticaNeueLT Com 55 Roman;169}
 50
0
 41
0
  7
STANDARD
 71
0
 73
1
 44
1
  0
LINE
  5
45
100
AcDbEntity
  8
SEMA2D
100
AcDbLine
370
9
 62
7
  6
_SOLID
 10
4.1454993259
 20
5.2579388908
 30
0
 11
4.1454993259
 21
5.2663388908
 31
0
  0
LINE
  5
46
100
AcDbEntity
  8
SEMA2D
100
AcDbLine
370
9
 62
7
  6
_SOLID
 10
4.1454993259
 20
5.2579388908
 30
0
 11
4.1454993259
 21
5.2495388908
 31
0
  0
LINE
  5
47
100
AcDbEntity
  8
SEMA2D
100
AcDbLine
370
9
 62
7
  6
_SOLID
 10
4.3146357274
 20
5.2579388908
 30
0
 11
4.3146357274
 21
5.2663388908
 31
0
  0
LINE
  5
48
100
AcDbEntity
  8
SEMA2D
100
AcDbLine
370
9
 62
7
  6
_SOLID
 10
4.3146357274
 20
5.2579388908
 30
0
 11
4.3146357274
 21
5.2495388908
 31
0
  0
LINE
  5
49
100
AcDbEntity
  8
SEMA2D
100
AcDbLine
370
9
 62
7
  6
_SOLID
 10
4.0164856694
 20
5.2579388908
 30
0
 11
4.0346573489
 21
5.2579388908
 31
0
  0
MTEXT
  5
4A
100
AcDbEntity
  8
SEMATEXT
100
AcDbMText
370
9
 62
7
 10
4.01839771276498
 20
5.27589946758049
 30
0
 40
0.010476
  1
{\fHelveticaNeueLT Com 55 Roman;18}
 50
0
 41
0
  7
STANDARD
 71
0
 73
1
 44
1
  0
LINE
  5
4F
100
AcDbEntity
  8
SEMA2D
100
AcDbLine
370
9
 62
7
  6
_SOLID
 10
4.0164856694
 20
5.2579388908
 30
0
 11
4.0164856694
 21
5.2663388908
 31
0
  0
LINE
  5
50
100
AcDbEntity
  8
SEMA2D
100
AcDbLine
370
9
 62
7
  6
_SOLID
 10
4.0164856694
 20
5.2579388908
 30
0
 11
4.0164856694
 21
5.2495388908
 31
0
  0
LINE
  5
51
100
AcDbEntity
  8
SEMA2D
100
AcDbLine
370
9
 62
7
  6
_SOLID
 10
4.0346573489
 20
5.2579388908
 30
0
 11
4.0346573489
 21
5.2663388908
 31
0
  0
LINE
  5
52
100
AcDbEntity
  8
SEMA2D
100
AcDbLine
370
9
 62
7
  6
_SOLID
 10
4.0346573489
 20
5.2579388908
 30
0
 11
4.0346573489
 21
5.2495388908
 31
0
  0
LINE
  5
53
100
AcDbEntity
  8
SEMA2D
100
AcDbLine
370
9
 62
7
  6
_SOLID
 10
4.0346573489
 20
5.2579388908
 30
0
 11
4.0504993259
 21
5.2579388908
 31
0
  0
MTEXT
  5
54
100
AcDbEntity
  8
SEMATEXT
100
AcDbMText
370
9
 62
7
 10
4.03538020652021
 20
5.27589946758049
 30
0
 40
0.010476
  1
{\fHelveticaNeueLT Com 55 Roman;16}
 50
0
 41
0
  7
STANDARD
 71
0
 73
1
 44
1
  0
LINE
  5
59
100
AcDbEntity
  8
SEMA2D
100
AcDbLine
370
9
 62
7
  6
_SOLID
 10
4.0346573489
 20
5.2579388908
 30
0
 11
4.0346573489
 21
5.2663388908
 31
0
  0
LINE
  5
5A
100
AcDbEntity
  8
SEMA2D
100
AcDbLine
370
9
 62
7
  6
_SOLID
 10
4.0346573489
 20
5.2579388908
 30
0
 11
4.0346573489
 21
5.2495388908
 31
0
  0
LINE
  5
5B
100
AcDbEntity
  8
SEMA2D
100
AcDbLine
370
9
 62
7
  6
_SOLID
 10
4.0504993259
 20
5.2579388908
 30
0
 11
4.0504993259
 21
5.2663388908
 31
0
  0
LINE
  5
5C
100
AcDbEntity
  8
SEMA2D
100
AcDbLine
370
9
 62
7
  6
_SOLID
 10
4.0504993259
 20
5.2579388908
 30
0
 11
4.0504993259
 21
5.2495388908
 31
0
  0
LINE
  5
5D
100
AcDbEntity
  8
SEMA2D
100
AcDbLine
370
9
 62
7
  6
_SOLID
 10
3.9972023009
 20
5.2279389524
 30
0
 11
3.9972023009
 21
5.2034764524
 31
0
  0
MTEXT
  5
5E
100
AcDbEntity
  8
SEMATEXT
100
AcDbMText
370
9
 62
7
 10
3.9991266484122
 20
5.20853390601498
 30
0
 40
0.010476
  1
{\fHelveticaNeueLT Com 55 Roman;24}
 50
90
 41
0
  7
STANDARD
 71
0
 73
1
 44
1
  0
LINE
  5
63
100
AcDbEntity
  8
SEMA2D
100
AcDbLine
370
9
 62
7
  6
_SOLID
 10
3.9972023009
 20
5.2279389524
 30
0
 11
4.0056023009
 21
5.2279389524
 31
0
  0
LINE
  5
64
100
AcDbEntity
  8
SEMA2D
100
AcDbLine
370
9
 62
7
  6
_SOLID
 10
3.9972023009
 20
5.2279389524
 30
0
 11
3.9888023009
 21
5.2279389524
 31
0
  0
LINE
  5
65
100
AcDbEntity
  8
SEMA2D
100
AcDbLine
370
9
 62
7
  6
_SOLID
 10
3.9972023009
 20
5.2034764524
 30
0
 11
4.0056023009
 21
5.2034764524
 31
0
  0
LINE
  5
66
100
AcDbEntity
  8
SEMA2D
100
AcDbLine
370
9
 62
7
  6
_SOLID
 10
3.9972023009
 20
5.2034764524
 30
0
 11
3.9888023009
 21
5.2034764524
 31
0
  0
LINE
  5
67
100
AcDbEntity
  8
SEMA2D
100
AcDbLine
370
9
 62
7
  6
_SOLID
 10
4.1454993259
 20
5.3619213615
 30
0
 11
4.3146357274
 21
5.3619213615
 31
0
  0
MTEXT
  5
68
100
AcDbEntity
  8
SEMATEXT
100
AcDbMText
370
9
 62
7
 10
4.2189645331831
 20
5.37988193828049
 30
0
 40
0.010476
  1
{\fHelveticaNeueLT Com 55 Roman;169}
 50
0
 41
0
  7
STANDARD
 71
0
 73
1
 44
1
  0
LINE
  5
6D
100
AcDbEntity
  8
SEMA2D
100
AcDbLine
370
9
 62
7
  6
_SOLID
 10
4.1454993259
 20
5.3619213615
 30
0
 11
4.1454993259
 21
5.3703213615
 31
0
  0
LINE
  5
6E
100
AcDbEntity
  8
SEMA2D
100
AcDbLine
370
9
 62
7
  6
_SOLID
 10
4.1454993259
 20
5.3619213615
 30
0
 11
4.1454993259
 21
5.3535213615
 31
0
  0
LINE
  5
6F
100
AcDbEntity
  8
SEMA2D
100
AcDbLine
370
9
 62
7
  6
_SOLID
 10
4.3146357274
 20
5.3619213615
 30
0
 11
4.3146357274
 21
5.3703213615
 31
0
  0
LINE
  5
70
100
AcDbEntity
  8
SEMA2D
100
AcDbLine
370
9
 62
7
  6
_SOLID
 10
4.3146357274
 20
5.3619213615
 30
0
 11
4.3146357274
 21
5.3535213615
 31
0
  0
LINE
  5
71
100
AcDbEntity
  8
SEMA2D
100
AcDbLine
370
9
 62
7
  6
_SOLID
 10
4.1468971474
 20
5.3329213615
 30
0
 11
4.1470487727
 21
5.3300281767
 31
0
  0
LINE
  5
72
100
AcDbEntity
  8
SEMA2D
100
AcDbLine
370
9
 62
7
  6
_SOLID
 10
4.1454993259
 20
5.3329213615
 30
0
 11
4.1454993259
 21
5.3357170045
 31
0
  0
LINE
  5
73
100
AcDbEntity
  8
SEMA2D
100
AcDbLine
370
9
 62
7
  6
_SOLID
 10
4.1465284623
 20
5.3420180854
 30
0
 11
4.1461982366
 21
5.3357170045
 31
0
  0
LINE
  5
74
100
AcDbEntity
  8
SEMA2D
100
AcDbLine
370
9
 62
9
  6
_SOLID
 10
4.1512773816
 20
5.3300281767
 30
0
 11
4.15120147
 21
5.3329213615
 31
0
  0
LINE
  5
75
100
AcDbEntity
  8
SEMA2D
100
AcDbLine
370
9
 62
9
  6
_SOLID
 10
4.1505016467
 20
5.3329213615
 30
0
 11
4.1505016467
 21
5.3357170045
 31
0
  0
LINE
  5
76
100
AcDbEntity
  8
SEMA2D
100
AcDbLine
370
9
 62
9
  6
_SOLID
 10
4.1508515583
 20
5.3357170045
 30
0
 11
4.1510216328
 21
5.3421989625
 31
0
  0
LINE
  5
77
100
AcDbEntity
  8
SEMA2D
100
AcDbLine
370
9
 62
7
  6
_SOLID
 10
4.177430204
 20
5.3262792119
 30
0
 11
4.1807736331
 21
5.3138013644
 31
0
  0
LINE
  5
78
100
AcDbEntity
  8
SEMA2D
100
AcDbLine
370
9
 62
9
  6
_SOLID
 10
4.1799075806
 20
5.3273495933
 30
0
 11
4.1799075806
 21
5.3282619565
 31
0
  0
LINE
  5
79
100
AcDbEntity
  8
SEMA2D
100
AcDbLine
370
9
 62
9
  6
_SOLID
 10
4.1834952838
 20
5.3124199795
 30
0
 11
4.1834952838
 21
5.3139601029
 31
0
  0
LINE
  5
7A
100
AcDbEntity
  8
SEMA2D
100
AcDbLine
370
9
 62
7
  6
_SOLID
 10
4.1839921842
 20
5.346433636
 30
0
 11
4.1849337223
 21
5.3480644277
 31
0
  0
LINE
  5
7B
100
AcDbEntity
  8
SEMA2D
100
AcDbLine
370
9
 62
9
  6
_SOLID
 10
4.1799076019
 20
5.3273495933
 30
0
 11
4.1834952838
 21
5.3139601026
 31
0
  0
LINE
  5
7C
100
AcDbEntity
  8
SEMA2D
100
AcDbLine
370
9
 62
9
  6
_SOLID
 10
4.1899664526
 20
5.3124199795
 30
0
 11
4.1899664526
 21
5.3139601026
 31
0
  0
LINE
  5
7D
100
AcDbEntity
  8
SEMA2D
100
AcDbLine
370
9
 62
9
  6
_SOLID
 10
4.1935541558
 20
5.3273495933
 30
0
 11
4.1935541558
 21
5.3282619565
 31
0
  0
LINE
  5
7E
100
AcDbEntity
  8
SEMA2D
100
AcDbLine
370
9
 62
9
  6
_SOLID
 10
4.1899664199
 20
5.3139601026
 30
0
 11
4.193554122
 21
5.3273495933
 31
0
  0
LINE
  5
7F
100
AcDbEntity
  8
SEMA2D
100
AcDbLine
370
9
 62
9
  6
_SOLID
 10
4.1930365897
 20
5.3138669279
 30
0
 11
4.196686701
 21
5.3274893553
 31
0
  0
LINE
  5
80
100
AcDbEntity
  8
SEMA2D
100
AcDbLine
370
9
 62
9
  6
_SOLID
 10
4.2016740333
 20
5.3274893553
 30
0
 11
4.1980239304
 21
5.3138669279
 31
0
  0
LINE
  5
81
100
AcDbEntity
  8
SEMA2D
100
AcDbLine
370
9
 62
7
  6
_SOLID
 10
4.2034710276
 20
5.3261898791
 30
0
 11
4.2001515351
 21
5.3138013644
 31
0
  0
LINE
  5
82
100
AcDbEntity
  8
SEMA2D
100
AcDbLine
370
9
 62
7
  6
_SOLID
 10
4.1885363979
 20
5.3480644277
 30
0
 11
4.189477936
 21
5.346433636
 31
0
  0
LINE
  5
83
100
AcDbEntity
  8
SEMA2D
100
AcDbLine
370
9
 62
7
  6
_SOLID
 10
4.1983512792
 20
5.3124199795
 30
0
 11
4.182573889
 21
5.3124199795
 31
0
  0
LINE
  5
84
100
AcDbEntity
  8
SEMA2D
100
AcDbLine
370
9
 62
7
  6
_SOLID
 10
4.261783774
 20
5.3124199795
 30
0
 11
4.2775611642
 21
5.3124199795
 31
0
  0
LINE
  5
85
100
AcDbEntity
  8
SEMA2D
100
AcDbLine
370
9
 62
9
  6
_SOLID
 10
4.1980239304
 20
5.3138669279
 30
0
 11
4.1930365897
 21
5.3138669279
 31
0
  0
LINE
  5
86
100
AcDbEntity
  8
SEMA2D
100
AcDbLine
370
9
 62
9
  6
_SOLID
 10
4.2621111228
 20
5.3138669279
 30
0
 11
4.2670984736
 21
5.3138669279
 31
0
  0
LINE
  5
87
100
AcDbEntity
  8
SEMA2D
100
AcDbLine
370
9
 62
9
  6
_SOLID
 10
4.1899664199
 20
5.3139601026
 30
0
 11
4.1834952838
 21
5.3139601026
 31
0
  0
LINE
  5
88
100
AcDbEntity
  8
SEMA2D
100
AcDbLine
370
9
 62
9
  6
_SOLID
 10
4.2701686334
 20
5.3139601026
 30
0
 11
4.2766397694
 21
5.3139601026
 31
0
  0
LINE
  5
89
100
AcDbEntity
  8
SEMA2D
100
AcDbLine
370
9
 62
9
  6
_SOLID
 10
4.2250521267
 20
5.3329213615
 30
0
 11
4.2250521267
 21
5.3357170045
 31
0
  0
LINE
  5
8A
100
AcDbEntity
  8
SEMA2D
100
AcDbLine
370
9
 62
9
  6
_SOLID
 10
4.2258278616
 20
5.3300281767
 30
0
 11
4.22575195
 21
5.3329213615
 31
0
  0
LINE
  5
8B
100
AcDbEntity
  8
SEMA2D
100
AcDbLine
370
9
 62
9
  6
_SOLID
 10
4.2254020383
 20
5.3357170045
 30
0
 11
4.2254954356
 21
5.3392784225
 31
0
  0
LINE
  5
8C
100
AcDbEntity
  8
SEMA2D
100
AcDbLine
370
9
 62
9
  6
_SOLID
 10
4.1799076019
 20
5.3273495933
 30
0
 11
4.193554122
 21
5.3273495933
 31
0
  0
LINE
  5
8D
100
AcDbEntity
  8
SEMA2D
100
AcDbLine
370
9
 62
9
  6
_SOLID
 10
4.2665809312
 20
5.3273495933
 30
0
 11
4.2802274513
 21
5.3273495933
 31
0
  0
LINE
  5
8E
100
AcDbEntity
  8
SEMA2D
100
AcDbLine
370
9
 62
9
  6
_SOLID
 10
4.196686701
 20
5.3274893553
 30
0
 11
4.2016740333
 21
5.3274893553
 31
0
  0
LINE
  5
8F
100
AcDbEntity
  8
SEMA2D
100
AcDbLine
370
9
 62
9
  6
_SOLID
 10
4.2584610199
 20
5.3274893553
 30
0
 11
4.2634483522
 21
5.3274893553
 31
0
  0
LINE
  5
90
100
AcDbEntity
  8
SEMA2D
100
AcDbLine
370
9
 62
7
  6
_SOLID
 10
4.2873859288
 20
5.3282619565
 30
0
 11
4.2842417508
 21
5.3282619565
 31
0
  0
LINE
  5
91
100
AcDbEntity
  8
SEMA2D
100
AcDbLine
370
9
 62
7
  6
_SOLID
 10
4.3112250727
 20
5.3282619565
 30
0
 11
4.1489099805
 21
5.3282619565
 31
0
  0
LINE
  5
92
100
AcDbEntity
  8
SEMA2D
100
AcDbLine
370
9
 62
9
  6
_SOLID
 10
4.3130862805
 20
5.3300281767
 30
0
 11
4.1470487727
 21
5.3300281767
 31
0
  0
LINE
  5
93
100
AcDbEntity
  8
SEMA2D
100
AcDbLine
370
9
 62
7
  6
_SOLID
 10
4.1747574075
 20
5.3282619541
 30
0
 11
4.174940232
 21
5.3282556131
 31
0
  0
LINE
  5
94
100
AcDbEntity
  8
SEMA2D
100
AcDbLine
370
9
 62
9
  6
_SOLID
 10
4.2347330149
 20
5.3357170045
 30
0
 11
4.2346396251
 21
5.3392784233
 31
0
  0
LINE
  5
95
100
AcDbEntity
  8
SEMA2D
100
AcDbLine
370
9
 62
9
  6
_SOLID
 10
4.2350829265
 20
5.3329213615
 30
0
 11
4.2350829265
 21
5.3357170045
 31
0
  0
LINE
  5
96
100
AcDbEntity
  8
SEMA2D
100
AcDbLine
370
9
 62
9
  6
_SOLID
 10
4.2343071916
 20
5.3300281767
 30
0
 11
4.2343831032
 21
5.3329213615
 31
0
  0
LINE
  5
97
100
AcDbEntity
  8
SEMA2D
100
AcDbLine
370
9
 62
7
  6
_SOLID
 10
4.3146357274
 20
5.3329213615
 30
0
 11
4.1454993259
 21
5.3329213615
 31
0
  0
LINE
  5
98
100
AcDbEntity
  8
SEMA2D
100
AcDbLine
370
9
 62
7
  6
_SOLID
 10
4.3146357274
 20
5.3357170045
 30
0
 11
4.1454993259
 21
5.3357170045
 31
0
  0
LINE
  5
99
100
AcDbEntity
  8
SEMA2D
100
AcDbLine
370
9
 62
7
  6
_SOLID
 10
4.2722329158
 20
5.3464297134
 30
0
 11
4.2720728878
 21
5.3464143656
 31
0
  0
LINE
  5
9A
100
AcDbEntity
  8
SEMA2D
100
AcDbLine
370
9
 62
7
  6
_SOLID
 10
4.2720728878
 20
5.3464143656
 30
0
 11
4.2719077498
 21
5.3463863402
 31
0
  0
LINE
  5
9B
100
AcDbEntity
  8
SEMA2D
100
AcDbLine
370
9
 62
7
  6
_SOLID
 10
4.2719077498
 20
5.3463863402
 30
0
 11
4.2717396406
 21
5.3463450381
 31
0
  0
LINE
  5
9C
100
AcDbEntity
  8
SEMA2D
100
AcDbLine
370
9
 62
7
  6
_SOLID
 10
4.2717396406
 20
5.3463450381
 30
0
 11
4.2715707802
 21
5.3462903771
 31
0
  0
LINE
  5
9D
100
AcDbEntity
  8
SEMA2D
100
AcDbLine
370
9
 62
7
  6
_SOLID
 10
4.2715707802
 20
5.3462903771
 30
0
 11
4.271402667
 21
5.3462224737
 31
0
  0
LINE
  5
9E
100
AcDbEntity
  8
SEMA2D
100
AcDbLine
370
9
 62
7
  6
_SOLID
 10
4.271402667
 20
5.3462224737
 30
0
 11
4.2712375642
 21
5.3461421777
 31
0
  0
LINE
  5
9F
100
AcDbEntity
  8
SEMA2D
100
AcDbLine
370
9
 62
7
  6
_SOLID
 10
4.2712375642
 20
5.3461421777
 30
0
 11
4.2710764965
 21
5.3460502087
 31
0
  0
LINE
  5
A0
100
AcDbEntity
  8
SEMA2D
100
AcDbLine
370
9
 62
7
  6
_SOLID
 10
4.278523425
 20
5.346433636
 30
0
 11
4.2767330869
 21
5.346433636
 31
0
  0
LINE
  5
A1
100
AcDbEntity
  8
SEMA2D
100
AcDbLine
370
9
 62
7
  6
_SOLID
 10
4.2608865056
 20
5.346433636
 30
0
 11
4.2599516632
 21
5.346433636
 31
0
  0
LINE
  5
A2
100
AcDbEntity
  8
SEMA2D
100
AcDbLine
370
9
 62
7
  6
_SOLID
 10
4.2597920518
 20
5.346433636
 30
0
 11
4.2561621082
 21
5.346433636
 31
0
  0
LINE
  5
A3
100
AcDbEntity
  8
SEMA2D
100
AcDbLine
370
9
 62
7
  6
_SOLID
 10
4.1991815257
 20
5.346433636
 30
0
 11
4.200189261
 21
5.346433636
 31
0
  0
LINE
  5
A4
100
AcDbEntity
  8
SEMA2D
100
AcDbLine
370
9
 62
7
  6
_SOLID
 10
4.2004856466
 20
5.346433636
 30
0
 11
4.203972945
 21
5.346433636
 31
0
  0
LINE
  5
A5
100
AcDbEntity
  8
SEMA2D
100
AcDbLine
370
9
 62
7
  6
_SOLID
 10
4.1511814817
 20
5.346433636
 30
0
 11
4.3089535715
 21
5.346433636
 31
0
  0
LINE
  5
A6
100
AcDbEntity
  8
SEMA2D
100
AcDbLine
370
9
 62
7
  6
_SOLID
 10
4.2739904942
 20
5.3487633385
 30
0
 11
4.272809492
 21
5.3487633385
 31
0
  0
LINE
  5
A7
100
AcDbEntity
  8
SEMA2D
100
AcDbLine
370
9
 62
7
  6
_SOLID
 10
4.1873255612
 20
5.3487633385
 30
0
 11
4.186144559
 21
5.3487633385
 31
0
  0
LINE
  5
A8
100
AcDbEntity
  8
SEMA2D
100
AcDbLine
370
9
 62
7
  6
_SOLID
 10
4.2706571172
 20
5.346433636
 30
0
 11
4.2715986553
 21
5.3480644277
 31
0
  0
LINE
  5
A9
100
AcDbEntity
  8
SEMA2D
100
AcDbLine
370
9
 62
7
  6
_SOLID
 10
4.2599835181
 20
5.3138013644
 30
0
 11
4.2566640256
 21
5.3261898791
 31
0
  0
LINE
  5
AA
100
AcDbEntity
  8
SEMA2D
100
AcDbLine
370
9
 62
9
  6
_SOLID
 10
4.2621111228
 20
5.3138669279
 30
0
 11
4.2584610199
 21
5.3274893553
 31
0
  0
LINE
  5
AB
100
AcDbEntity
  8
SEMA2D
100
AcDbLine
370
9
 62
9
  6
_SOLID
 10
4.2634483522
 20
5.3274893553
 30
0
 11
4.2670984736
 21
5.3138669279
 31
0
  0
LINE
  5
AC
100
AcDbEntity
  8
SEMA2D
100
AcDbLine
370
9
 62
9
  6
_SOLID
 10
4.2665809312
 20
5.3273495933
 30
0
 11
4.2701686334
 21
5.3139601026
 31
0
  0
LINE
  5
AD
100
AcDbEntity
  8
SEMA2D
100
AcDbLine
370
9
 62
9
  6
_SOLID
 10
4.2665808974
 20
5.3273495933
 30
0
 11
4.2665808974
 21
5.3282619565
 31
0
  0
LINE
  5
AE
100
AcDbEntity
  8
SEMA2D
100
AcDbLine
370
9
 62
9
  6
_SOLID
 10
4.2701686006
 20
5.3139601026
 30
0
 11
4.2701686006
 21
5.3124199795
 31
0
  0
LINE
  5
AF
100
AcDbEntity
  8
SEMA2D
100
AcDbLine
370
9
 62
9
  6
_SOLID
 10
4.2766397694
 20
5.3139601029
 30
0
 11
4.2766397694
 21
5.3124199795
 31
0
  0
LINE
  5
B0
100
AcDbEntity
  8
SEMA2D
100
AcDbLine
370
9
 62
9
  6
_SOLID
 10
4.2802274726
 20
5.3273495935
 30
0
 11
4.2802274726
 21
5.3282619565
 31
0
  0
LINE
  5
B1
100
AcDbEntity
  8
SEMA2D
100
AcDbLine
370
9
 62
9
  6
_SOLID
 10
4.2766397694
 20
5.3139601026
 30
0
 11
4.2802274513
 21
5.3273495933
 31
0
  0
LINE
  5
B2
100
AcDbEntity
  8
SEMA2D
100
AcDbLine
370
9
 62
7
  6
_SOLID
 10
4.2793614201
 20
5.3138013644
 30
0
 11
4.2827048492
 21
5.3262792118
 31
0
  0
LINE
  5
B3
100
AcDbEntity
  8
SEMA2D
100
AcDbLine
370
9
 62
7
  6
_SOLID
 10
4.2752013309
 20
5.3480644277
 30
0
 11
4.276142869
 21
5.346433636
 31
0
  0
LINE
  5
B4
100
AcDbEntity
  8
SEMA2D
100
AcDbLine
370
9
 62
7
  6
_SOLID
 10
4.3139368166
 20
5.3357170045
 30
0
 11
4.3136065909
 21
5.3420180854
 31
0
  0
LINE
  5
B5
100
AcDbEntity
  8
SEMA2D
100
AcDbLine
370
9
 62
9
  6
_SOLID
 10
4.3092834949
 20
5.3357170045
 30
0
 11
4.3091134059
 21
5.3421989567
 31
0
  0
LINE
  5
B6
100
AcDbEntity
  8
SEMA2D
100
AcDbLine
370
9
 62
9
  6
_SOLID
 10
4.3096334065
 20
5.3329213615
 30
0
 11
4.3096334065
 21
5.3357170045
 31
0
  0
LINE
  5
B7
100
AcDbEntity
  8
SEMA2D
100
AcDbLine
370
9
 62
7
  6
_SOLID
 10
4.3146357274
 20
5.3329213615
 30
0
 11
4.3146357274
 21
5.3357170045
 31
0
  0
LINE
  5
B8
100
AcDbEntity
  8
SEMA2D
100
AcDbLine
370
9
 62
9
  6
_SOLID
 10
4.3088576716
 20
5.3300281767
 30
0
 11
4.3089335832
 21
5.3329213615
 31
0
  0
LINE
  5
B9
100
AcDbEntity
  8
SEMA2D
100
AcDbLine
370
9
 62
7
  6
_SOLID
 10
4.3132379059
 20
5.3329213615
 30
0
 11
4.3130862805
 21
5.3300281767
 31
0
  0
ARC
  5
BA
100
AcDbEntity
  8
SEMA2D
100
AcDbCircle
370
9
 62
7
  6
_SOLID
 10
4.1511814817
 20
5.341774231
 30
0
 40
0.00465940499999995
100
AcDbArc
 50
63.6962056306776
 51
177.000000002598
  0
ARC
  5
BB
100
AcDbEntity
  8
SEMA2D
100
AcDbCircle
370
9
 62
7
  6
_SOLID
 10
4.1489099805
 20
5.3301257185
 30
0
 40
0.00186376200000016
100
AcDbArc
 50
182.999999997402
 51
270
  0
ARC
  5
BC
100
AcDbEntity
  8
SEMA2D
100
AcDbCircle
370
9
 62
9
  6
_SOLID
 10
4.1652704769
 20
5.3742416619
 30
0
 40
0.0350679978000006
100
AcDbArc
 50
246.026097847282
 51
292.765200108352
  0
ARC
  5
BD
100
AcDbEntity
  8
SEMA2D
100
AcDbCircle
370
9
 62
7
  6
_SOLID
 10
4.182867451
 20
5.336554743
 30
0
 40
0.0093188099999999
100
AcDbArc
 50
67.2351333656224
 51
112.765692743899
  0
ARC
  5
BE
100
AcDbEntity
  8
SEMA2D
100
AcDbCircle
370
9
 62
9
  6
_SOLID
 10
4.1810038132
 20
5.336749832
 30
0
 40
0.00559128050000002
100
AcDbArc
 50
67.2346979013077
 51
112.765301669851
  0
ARC
  5
BF
100
AcDbEntity
  8
SEMA2D
100
AcDbCircle
370
9
 62
9
  6
_SOLID
 10
4.174455996
 20
5.3268907759
 30
0
 40
0.00293590150000034
100
AcDbArc
 50
16.1448174352919
 51
27.8488223644573
  0
ARC
  5
C0
100
AcDbEntity
  8
SEMA2D
100
AcDbCircle
370
9
 62
7
  6
_SOLID
 10
4.1747537568
 20
5.3254663135
 30
0
 40
0.00279564299999979
100
AcDbArc
 50
14.9999999996979
 51
90
  0
ARC
  5
C1
100
AcDbEntity
  8
SEMA2D
100
AcDbCircle
370
9
 62
7
  6
_SOLID
 10
4.182573889
 20
5.3142837415
 30
0
 40
0.00186376200000016
100
AcDbArc
 50
194.999999999687
 51
270
  0
ARC
  5
C2
100
AcDbEntity
  8
SEMA2D
100
AcDbCircle
370
9
 62
7
  6
_SOLID
 10
4.1671340924
 20
5.3740465052
 30
0
 40
0.0313403932000003
100
AcDbArc
 50
243.696176932124
 51
292.765270687273
  0
ARC
  5
C3
100
AcDbEntity
  8
SEMA2D
100
AcDbCircle
370
9
 62
7
  6
_SOLID
 10
4.1829161407
 20
5.348297398
 30
0
 40
0.00186376200000016
100
AcDbArc
 50
270
 51
330.000000000463
  0
ARC
  5
C4
100
AcDbEntity
  8
SEMA2D
100
AcDbCircle
370
9
 62
9
  6
_SOLID
 10
4.2158909828
 20
4.8618852155
 30
0
 40
0.4660000223
100
AcDbArc
 50
92.3618796446335
 51
92.7474214606877
  0
ARC
  5
C5
100
AcDbEntity
  8
SEMA2D
100
AcDbCircle
370
9
 62
7
  6
_SOLID
 10
4.2061714114
 20
5.3254663135
 30
0
 40
0.00279564300000024
100
AcDbArc
 50
90
 51
165.000000000307
  0
ARC
  5
C6
100
AcDbEntity
  8
SEMA2D
100
AcDbCircle
370
9
 62
9
  6
_SOLID
 10
4.2061562192
 20
5.3254737633
 30
0
 40
0.00278840529999957
100
AcDbArc
 50
90
 51
164.381087616803
  0
ARC
  5
C7
100
AcDbEntity
  8
SEMA2D
100
AcDbCircle
370
9
 62
7
  6
_SOLID
 10
4.1983512792
 20
5.3142837415
 30
0
 40
0.00186376199999971
100
AcDbArc
 50
270
 51
345.000000000306
  0
ARC
  5
C8
100
AcDbEntity
  8
SEMA2D
100
AcDbCircle
370
9
 62
9
  6
_SOLID
 10
4.203860567
 20
5.3449527425
 30
0
 40
0.0017750892999997
100
AcDbArc
 50
270
 51
278.095482601824
  0
ARC
  5
C9
100
AcDbEntity
  8
SEMA2D
100
AcDbCircle
370
9
 62
9
  6
_SOLID
 10
4.2035812203
 20
5.3445642202
 30
0
 40
0.00144039869999979
100
AcDbArc
 50
270
 51
279.584628449965
  0
ARC
  5
CA
100
AcDbEntity
  8
SEMA2D
100
AcDbCircle
370
9
 62
9
  6
_SOLID
 10
4.1967371907
 20
5.3742416522
 30
0
 40
0.0350679866000001
100
AcDbArc
 50
247.234731852693
 51
292.765211143109
  0
ARC
  5
CB
100
AcDbEntity
  8
SEMA2D
100
AcDbCircle
370
9
 62
7
  6
_SOLID
 10
4.1986008095
 20
5.3740465052
 30
0
 40
0.0313403932000003
100
AcDbArc
 50
247.234726290571
 51
292.765589248873
  0
ARC
  5
CC
100
AcDbEntity
  8
SEMA2D
100
AcDbCircle
370
9
 62
7
  6
_SOLID
 10
4.1905539795
 20
5.348297398
 30
0
 40
0.00186376199999971
100
AcDbArc
 50
209.99999999955
 51
270
  0
ARC
  5
CD
100
AcDbEntity
  8
SEMA2D
100
AcDbCircle
370
9
 62
7
  6
_SOLID
 10
4.2143341681
 20
5.336554743
 30
0
 40
0.0093188099999999
100
AcDbArc
 50
67.2338779347799
 51
112.764239024553
  0
ARC
  5
CE
100
AcDbEntity
  8
SEMA2D
100
AcDbCircle
370
9
 62
9
  6
_SOLID
 10
4.2124705303
 20
5.336749832
 30
0
 40
0.00559128050000002
100
AcDbArc
 50
67.2346978757415
 51
112.765301669851
  0
ARC
  5
CF
100
AcDbEntity
  8
SEMA2D
100
AcDbCircle
370
9
 62
9
  6
_SOLID
 10
4.2282033673
 20
5.3742394529
 30
0
 40
0.0350657459999999
100
AcDbArc
 50
247.234155618807
 51
265.570957303272
  0
ARC
  5
D0
100
AcDbEntity
  8
SEMA2D
100
AcDbCircle
370
9
 62
9
  6
_SOLID
 10
4.2109112818
 20
5.9534641716
 30
0
 40
0.639846966
100
AcDbArc
 50
268.124134915988
 51
268.399183338312
  0
ARC
  5
D1
100
AcDbEntity
  8
SEMA2D
100
AcDbCircle
370
9
 62
9
  6
_SOLID
 10
4.2446119993
 20
4.8701316668
 30
0
 40
0.4577454147
100
AcDbArc
 50
87.249102259395
 51
87.6415966490176
  0
ARC
  5
D2
100
AcDbEntity
  8
SEMA2D
100
AcDbCircle
370
9
 62
7
  6
_SOLID
 10
4.2458008851
 20
5.336554743
 30
0
 40
0.0093188099999999
100
AcDbArc
 50
67.2346841626135
 51
112.765317203671
  0
ARC
  5
D3
100
AcDbEntity
  8
SEMA2D
100
AcDbCircle
370
9
 62
9
  6
_SOLID
 10
4.2476645228
 20
5.336749832
 30
0
 40
0.00559128050000002
100
AcDbArc
 50
67.2346970691978
 51
112.765300948365
  0
ARC
  5
D4
100
AcDbEntity
  8
SEMA2D
100
AcDbCircle
370
9
 62
9
  6
_SOLID
 10
4.2319316893
 20
5.3742394422
 30
0
 40
0.0350657347999999
100
AcDbArc
 50
274.429050868528
 51
292.765846073198
  0
ARC
  5
D5
100
AcDbEntity
  8
SEMA2D
100
AcDbCircle
370
9
 62
7
  6
_SOLID
 10
4.2300675266
 20
5.3740465052
 30
0
 40
0.0313403932000003
100
AcDbArc
 50
247.234731311019
 51
292.765268663414
  0
ARC
  5
D6
100
AcDbEntity
  8
SEMA2D
100
AcDbCircle
370
9
 62
7
  6
_SOLID
 10
4.2539636418
 20
5.3254663135
 30
0
 40
0.00279564299999979
100
AcDbArc
 50
14.9999999996979
 51
90
  0
ARC
  5
D7
100
AcDbEntity
  8
SEMA2D
100
AcDbCircle
370
9
 62
9
  6
_SOLID
 10
4.2539777389
 20
5.3254729883
 30
0
 40
0.00278966910000022
100
AcDbArc
 50
15.6281852620402
 51
80.3061807953396
  0
ARC
  5
D8
100
AcDbEntity
  8
SEMA2D
100
AcDbCircle
370
9
 62
9
  6
_SOLID
 10
4.2539820891
 20
5.3254918835
 30
0
 40
0.00277007519999994
100
AcDbArc
 50
81.6815932216785
 51
90
  0
ARC
  5
D9
100
AcDbEntity
  8
SEMA2D
100
AcDbCircle
370
9
 62
7
  6
_SOLID
 10
4.261783774
 20
5.3142837415
 30
0
 40
0.00186376200000016
100
AcDbArc
 50
194.999999999687
 51
270
  0
ARC
  5
DA
100
AcDbEntity
  8
SEMA2D
100
AcDbCircle
370
9
 62
9
  6
_SOLID
 10
4.2562744741
 20
5.3449527425
 30
0
 40
0.00177508699999995
100
AcDbArc
 50
261.904413088582
 51
270
  0
ARC
  5
DB
100
AcDbEntity
  8
SEMA2D
100
AcDbCircle
370
9
 62
9
  6
_SOLID
 10
4.2565539032
 20
5.3445661344
 30
0
 40
0.00144229640000004
100
AcDbArc
 50
260.425087838965
 51
270
  0
ARC
  5
DC
100
AcDbEntity
  8
SEMA2D
100
AcDbCircle
370
9
 62
9
  6
_SOLID
 10
4.2633978814
 20
5.3742415896
 30
0
 40
0.0350679180000002
100
AcDbArc
 50
247.234720756233
 51
292.765279243767
  0
ARC
  5
DD
100
AcDbEntity
  8
SEMA2D
100
AcDbCircle
370
9
 62
7
  6
_SOLID
 10
4.2615342437
 20
5.3740465052
 30
0
 40
0.0313403932000007
100
AcDbArc
 50
247.234730928031
 51
292.765273827548
  0
ARC
  5
DE
100
AcDbEntity
  8
SEMA2D
100
AcDbCircle
370
9
 62
7
  6
_SOLID
 10
4.2772676022
 20
5.336554743
 30
0
 40
0.0093188099999999
100
AcDbArc
 50
67.2343566104008
 51
112.764775152123
  0
ARC
  5
DF
100
AcDbEntity
  8
SEMA2D
100
AcDbCircle
370
9
 62
9
  6
_SOLID
 10
4.2791312399
 20
5.336749832
 30
0
 40
0.00559128050000002
100
AcDbArc
 50
67.2346970691978
 51
112.765300912233
  0
ARC
  5
E0
100
AcDbEntity
  8
SEMA2D
100
AcDbCircle
370
9
 62
9
  6
_SOLID
 10
4.2856816663
 20
5.3268898075
 30
0
 40
0.0029386769999995
100
AcDbArc
 50
152.83956946769
 51
163.851017937669
  0
ARC
  5
E1
100
AcDbEntity
  8
SEMA2D
100
AcDbCircle
370
9
 62
9
  6
_SOLID
 10
4.2853785835
 20
5.3254562567
 30
0
 40
0.00284163209999999
100
AcDbArc
 50
98.9378427836701
 51
104.233622851112
  0
ARC
  5
E2
100
AcDbEntity
  8
SEMA2D
100
AcDbCircle
370
9
 62
9
  6
_SOLID
 10
4.2853721443
 20
5.3254809904
 30
0
 40
0.0028160703000002
100
AcDbArc
 50
105.571369779591
 51
107.879672320086
  0
ARC
  5
E3
100
AcDbEntity
  8
SEMA2D
100
AcDbCircle
370
9
 62
7
  6
_SOLID
 10
4.2853812964
 20
5.3254663135
 30
0
 40
0.00279564299999979
100
AcDbArc
 50
90
 51
165.000000000302
  0
ARC
  5
E4
100
AcDbEntity
  8
SEMA2D
100
AcDbCircle
370
9
 62
7
  6
_SOLID
 10
4.2775611642
 20
5.3142837415
 30
0
 40
0.00186376200000016
100
AcDbArc
 50
270
 51
345.000000000313
  0
ARC
  5
E5
100
AcDbEntity
  8
SEMA2D
100
AcDbCircle
370
9
 62
7
  6
_SOLID
 10
4.2930009608
 20
5.3740465052
 30
0
 40
0.0313403932000003
100
AcDbArc
 50
247.234729734066
 51
296.30379848704
  0
ARC
  5
E6
100
AcDbEntity
  8
SEMA2D
100
AcDbCircle
370
9
 62
7
  6
_SOLID
 10
4.2772189125
 20
5.348297398
 30
0
 40
0.00186376200000016
100
AcDbArc
 50
209.999999999537
 51
270
  0
ARC
  5
E7
100
AcDbEntity
  8
SEMA2D
100
AcDbCircle
370
9
 62
7
  6
_SOLID
 10
4.3089535715
 20
5.341774231
 30
0
 40
0.00465940499999995
100
AcDbArc
 50
2.99999999740246
 51
116.303794369322
  0
ARC
  5
E8
100
AcDbEntity
  8
SEMA2D
100
AcDbCircle
370
9
 62
7
  6
_SOLID
 10
4.3112250727
 20
5.3301257185
 30
0
 40
0.00186376200000016
100
AcDbArc
 50
270
 51
-2.99999999740189
  0
ARC
  5
E9
100
AcDbEntity
  8
SEMA2D
100
AcDbCircle
370
9
 62
9
  6
_SOLID
 10
4.2948645978
 20
5.3742415853
 30
0
 40
0.0350679137999999
100
AcDbArc
 50
247.234719066446
 51
293.973895468405
  0
ARC
  5
EA
100
AcDbEntity
  8
SEMA2D
100
AcDbCircle
370
9
 62
9
  6
_SOLID
 10
4.249223104
 20
5.9534856807
 30
0
 40
0.6398684855
100
AcDbArc
 50
271.600823505577
 51
271.875861787894
  0
ARC
  5
EB
100
AcDbEntity
  8
SEMA2D
100
AcDbCircle
370
9
 62
9
  6
_SOLID
 10
4.2300675268
 20
5.439009713
 30
0
 40
0.0998360404
100
AcDbArc
 50
267.375164413016
 51
272.624839636481
  0
LINE
  5
EC
100
AcDbEntity
  8
SEMA2D
100
AcDbLine
370
9
 62
9
  6
_SOLID
 10
4.271665909
 20
5.3464336398
 30
0
 11
4.2728092007
 21
5.3487633366
 31
0
  0
LINE
  5
ED
100
AcDbEntity
  8
SEMA2D
100
AcDbLine
370
9
 62
9
  6
_SOLID
 10
4.2739907855
 20
5.3487633366
 30
0
 11
4.2751340772
 21
5.3464336398
 31
0
  0
LINE
  5
EE
100
AcDbEntity
  8
SEMA2D
100
AcDbLine
370
9
 62
9
  6
_SOLID
 10
4.185000976
 20
5.3464336398
 30
0
 11
4.1861442677
 21
5.3487633366
 31
0
  0
LINE
  5
EF
100
AcDbEntity
  8
SEMA2D
100
AcDbLine
370
9
 62
9
  6
_SOLID
 10
4.1873258525
 20
5.3487633366
 30
0
 11
4.1884691442
 21
5.3464336398
 31
0
  0
LINE
  5
F0
100
AcDbEntity
  8
SEMA2D
100
AcDbLine
370
9
 62
9
  6
_SOLID
 10
4.1705447365
 20
5.1920146814
 30
0
 11
4.1695391276
 21
5.190795464
 31
0
  0
LINE
  5
F1
100
AcDbEntity
  8
SEMA2D
100
AcDbLine
370
9
 62
9
  6
_SOLID
 10
4.1670829386
 20
5.1552408062
 30
0
 11
4.164488997
 21
5.1525964367
 31
0
  0
LINE
  5
F2
100
AcDbEntity
  8
SEMA2D
100
AcDbLine
370
9
 62
9
  6
_SOLID
 10
4.2895831548
 20
5.2074746928
 30
0
 11
4.2900256689
 21
5.2077505952
 31
0
  0
LINE
  5
F3
100
AcDbEntity
  8
SEMA2D
100
AcDbLine
370
9
 62
9
  6
_SOLID
 10
4.2522108192
 20
5.1723561706
 30
0
 11
4.2520388113
 21
5.1723025963
 31
0
  0
LINE
  5
F4
100
AcDbEntity
  8
SEMA2D
100
AcDbLine
370
9
 62
9
  6
_SOLID
 10
4.193924717
 20
5.1420643576
 30
0
 11
4.1927834006
 21
5.14090085
 31
0
  0
LINE
  5
F5
100
AcDbEntity
  8
SEMA2D
100
AcDbLine
370
9
 62
9
  6
_SOLID
 10
4.242973717
 20
5.1697267209
 30
0
 11
4.2399584578
 21
5.1675967821
 31
0
  0
LINE
  5
F6
100
AcDbEntity
  8
SEMA2D
100
AcDbLine
370
9
 62
7
  6
_SOLID
 10
4.1454993259
 20
5.0039388908
 30
0
 11
4.1454993259
 21
5.2279388908
 31
0
  0
LINE
  5
F7
100
AcDbEntity
  8
SEMA2D
100
AcDbLine
370
9
 62
7
  6
_SOLID
 10
4.1461982366
 20
5.0039388908
 30
0
 11
4.1461982366
 21
5.2272263908
 31
0
  0
LINE
  5
F8
100
AcDbEntity
  8
SEMA2D
100
AcDbLine
370
9
 62
9
  6
_SOLID
 10
4.1465284623
 20
5.2249923483
 30
0
 11
4.1465284623
 21
5.0039388908
 31
0
  0
LINE
  5
F9
100
AcDbEntity
  8
SEMA2D
100
AcDbLine
370
9
 62
9
  6
_SOLID
 10
4.1835091153
 20
5.1294302941
 30
0
 11
4.1830716888
 21
5.1285979383
 31
0
  0
LINE
  5
FA
100
AcDbEntity
  8
SEMA2D
100
AcDbLine
370
9
 62
9
  6
_SOLID
 10
4.1889238984
 20
5.1300369897
 30
0
 11
4.187771071
 21
5.1288617473
 31
0
  0
LINE
  5
FB
100
AcDbEntity
  8
SEMA2D
100
AcDbLine
370
9
 62
9
  6
_SOLID
 10
4.1990002364
 20
5.1345631373
 30
0
 11
4.2001415529
 21
5.1357266449
 31
0
  0
LINE
  5
FC
100
AcDbEntity
  8
SEMA2D
100
AcDbLine
370
9
 62
9
  6
_SOLID
 10
4.1511814817
 20
5.1577390017
 30
0
 11
4.1511814817
 21
5.2267481993
 31
0
  0
LINE
  5
FD
100
AcDbEntity
  8
SEMA2D
100
AcDbLine
370
9
 62
9
  6
_SOLID
 10
4.1532462064
 20
5.1470814183
 30
0
 11
4.1532461984
 21
5.0039388908
 31
0
  0
LINE
  5
FE
100
AcDbEntity
  8
SEMA2D
100
AcDbLine
370
9
 62
9
  6
_SOLID
 10
4.1589261349
 20
5.2038160081
 30
0
 11
4.1589261349
 21
5.1662874979
 31
0
  0
LINE
  5
FF
100
AcDbEntity
  8
SEMA2D
100
AcDbLine
370
9
 62
9
  6
_SOLID
 10
4.1605565268
 20
5.2038159999
 30
0
 11
4.1605565268
 21
5.166287504
 31
0
  0
LINE
  5
100
100
AcDbEntity
  8
SEMA2D
100
AcDbLine
370
9
 62
9
  6
_SOLID
 10
4.1625945171
 20
5.166287504
 30
0
 11
4.1625945171
 21
5.2038159998
 31
0
  0
LINE
  5
101
100
AcDbEntity
  8
SEMA2D
100
AcDbLine
370
9
 62
9
  6
_SOLID
 10
4.1684240012
 20
5.1669929688
 30
0
 11
4.1684239997
 21
5.1745608201
 31
0
  0
LINE
  5
102
100
AcDbEntity
  8
SEMA2D
100
AcDbLine
370
9
 62
9
  6
_SOLID
 10
4.1684240008
 20
5.1932463729
 30
0
 11
4.1684239997
 21
5.19546082
 31
0
  0
LINE
  5
103
100
AcDbEntity
  8
SEMA2D
100
AcDbLine
370
9
 62
9
  6
_SOLID
 10
4.1691621298
 20
5.2105113098
 30
0
 11
4.1691621209
 21
5.2142510178
 31
0
  0
LINE
  5
104
100
AcDbEntity
  8
SEMA2D
100
AcDbLine
370
9
 62
9
  6
_SOLID
 10
4.1699973538
 20
5.1669929738
 30
0
 11
4.1699973511
 21
5.1745608197
 31
0
  0
LINE
  5
105
100
AcDbEntity
  8
SEMA2D
100
AcDbLine
370
9
 62
9
  6
_SOLID
 10
4.169997353
 20
5.1932463705
 30
0
 11
4.1699973511
 21
5.1954608197
 31
0
  0
LINE
  5
106
100
AcDbEntity
  8
SEMA2D
100
AcDbLine
370
9
 62
9
  6
_SOLID
 10
4.1711501956
 20
5.1873105996
 30
0
 11
4.1711501956
 21
5.1876405311
 31
0
  0
LINE
  5
107
100
AcDbEntity
  8
SEMA2D
100
AcDbLine
370
9
 62
9
  6
_SOLID
 10
4.1723573717
 20
5.1636222187
 30
0
 11
4.1723573782
 21
5.1745608197
 31
0
  0
LINE
  5
108
100
AcDbEntity
  8
SEMA2D
100
AcDbLine
370
9
 62
9
  6
_SOLID
 10
4.1723573754
 20
5.1899583236
 30
0
 11
4.1723573782
 21
5.1954608197
 31
0
  0
LINE
  5
109
100
AcDbEntity
  8
SEMA2D
100
AcDbLine
370
9
 62
9
  6
_SOLID
 10
4.1898715348
 20
5.2053718124
 30
0
 11
4.1901225755
 21
5.2078857188
 31
0
  0
LINE
  5
10A
100
AcDbEntity
  8
SEMA2D
100
AcDbLine
370
9
 62
9
  6
_SOLID
 10
4.1914856006
 20
5.2050418861
 30
0
 11
4.1917366372
 21
5.2075557524
 31
0
  0
LINE
  5
10B
100
AcDbEntity
  8
SEMA2D
100
AcDbLine
370
9
 62
9
  6
_SOLID
 10
4.1711502181
 20
5.1873105996
 30
0
 11
4.1723410307
 21
5.1753856485
 31
0
  0
LINE
  5
10C
100
AcDbEntity
  8
SEMA2D
100
AcDbLine
370
9
 62
9
  6
_SOLID
 10
4.1712155893
 20
5.2075557515
 30
0
 11
4.1723410307
 21
5.1962856485
 31
0
  0
LINE
  5
10D
100
AcDbEntity
  8
SEMA2D
100
AcDbLine
370
9
 62
9
  6
_SOLID
 10
4.17926144
 20
5.0039388908
 30
0
 11
4.1792614114
 21
5.1276338387
 31
0
  0
LINE
  5
10E
100
AcDbEntity
  8
SEMA2D
100
AcDbLine
370
9
 62
9
  6
_SOLID
 10
4.1816116281
 20
5.1753856537
 30
0
 11
4.1816116282
 21
5.1745607958
 31
0
  0
LINE
  5
10F
100
AcDbEntity
  8
SEMA2D
100
AcDbLine
370
9
 62
9
  6
_SOLID
 10
4.1816680894
 20
5.2105113098
 30
0
 11
4.1816680894
 21
5.2092054837
 31
0
  0
LINE
  5
110
100
AcDbEntity
  8
SEMA2D
100
AcDbLine
370
9
 62
9
  6
_SOLID
 10
4.1832821546
 20
5.2105113098
 30
0
 11
4.1832821546
 21
5.209205445
 31
0
  0
LINE
  5
111
100
AcDbEntity
  8
SEMA2D
100
AcDbLine
370
9
 62
9
  6
_SOLID
 10
4.1847140417
 20
5.2024630202
 30
0
 11
4.1847140419
 21
5.2041731388
 31
0
  0
LINE
  5
112
100
AcDbEntity
  8
SEMA2D
100
AcDbLine
370
9
 62
9
  6
_SOLID
 10
4.1851915248
 20
5.2180389438
 30
0
 11
4.1851915285
 21
5.2168781158
 31
0
  0
LINE
  5
113
100
AcDbEntity
  8
SEMA2D
100
AcDbLine
370
9
 62
9
  6
_SOLID
 10
4.1864733667
 20
5.1242723597
 30
0
 11
4.1864733984
 21
5.0039388908
 31
0
  0
LINE
  5
114
100
AcDbEntity
  8
SEMA2D
100
AcDbLine
370
9
 62
9
  6
_SOLID
 10
4.1882785955
 20
5.2180389372
 30
0
 11
4.1882785936
 21
5.2168781228
 31
0
  0
LINE
  5
115
100
AcDbEntity
  8
SEMA2D
100
AcDbLine
370
9
 62
9
  6
_SOLID
 10
4.1887560785
 20
5.202463025
 30
0
 11
4.1887560781
 21
5.2041731388
 31
0
  0
LINE
  5
116
100
AcDbEntity
  8
SEMA2D
100
AcDbLine
370
9
 62
9
  6
_SOLID
 10
4.1901879656
 20
5.209205445
 30
0
 11
4.1901879656
 21
5.2105113098
 31
0
  0
LINE
  5
117
100
AcDbEntity
  8
SEMA2D
100
AcDbLine
370
9
 62
9
  6
_SOLID
 10
4.2552320824
 20
5.1666576813
 30
0
 11
4.2543088302
 21
5.165212998
 31
0
  0
LINE
  5
118
100
AcDbEntity
  8
SEMA2D
100
AcDbLine
370
9
 62
9
  6
_SOLID
 10
4.2599935004
 20
5.1357266449
 30
0
 11
4.2662103362
 21
5.1420643576
 31
0
  0
LINE
  5
119
100
AcDbEntity
  8
SEMA2D
100
AcDbLine
370
9
 62
9
  6
_SOLID
 10
4.2611348168
 20
5.1345631373
 30
0
 11
4.2673516526
 21
5.1409008499
 31
0
  0
LINE
  5
11A
100
AcDbEntity
  8
SEMA2D
100
AcDbLine
370
9
 62
9
  6
_SOLID
 10
4.2674107732
 20
5.14090721
 30
0
 11
4.2609954513
 21
5.1343669943
 31
0
  0
LINE
  5
11B
100
AcDbEntity
  8
SEMA2D
100
AcDbLine
370
9
 62
9
  6
_SOLID
 10
4.272155363
 20
5.1428346458
 30
0
 11
4.2620781401
 21
5.1325619618
 31
0
  0
LINE
  5
11C
100
AcDbEntity
  8
SEMA2D
100
AcDbLine
370
9
 62
9
  6
_SOLID
 10
4.181733483
 20
5.2075557524
 30
0
 11
4.1819845196
 21
5.2050418861
 31
0
  0
LINE
  5
11D
100
AcDbEntity
  8
SEMA2D
100
AcDbLine
370
9
 62
9
  6
_SOLID
 10
4.1833475447
 20
5.2078857188
 30
0
 11
4.1835985854
 21
5.2053718119
 31
0
  0
LINE
  5
11E
100
AcDbEntity
  8
SEMA2D
100
AcDbLine
370
9
 62
9
  6
_SOLID
 10
4.1918020308
 20
5.2092054837
 30
0
 11
4.1918020308
 21
5.2105113098
 31
0
  0
LINE
  5
11F
100
AcDbEntity
  8
SEMA2D
100
AcDbLine
370
9
 62
9
  6
_SOLID
 10
4.2004144668
 20
5.1670706801
 30
0
 11
4.2004144709
 21
5.1636222188
 31
0
  0
LINE
  5
120
100
AcDbEntity
  8
SEMA2D
100
AcDbLine
370
9
 62
9
  6
_SOLID
 10
4.203972945
 20
5.1753856517
 30
0
 11
4.203972945
 21
5.1745608208
 31
0
  0
LINE
  5
121
100
AcDbEntity
  8
SEMA2D
100
AcDbLine
370
9
 62
9
  6
_SOLID
 10
4.2075255424
 20
5.1873105996
 30
0
 11
4.2063346924
 21
5.1753856722
 31
0
  0
LINE
  5
122
100
AcDbEntity
  8
SEMA2D
100
AcDbLine
370
9
 62
9
  6
_SOLID
 10
4.2080962419
 20
5.1765326388
 30
0
 11
4.2079487576
 21
5.1750557407
 31
0
  0
LINE
  5
123
100
AcDbEntity
  8
SEMA2D
100
AcDbLine
370
9
 62
9
  6
_SOLID
 10
4.2930521146
 20
5.1552408062
 30
0
 11
4.2676631421
 21
5.1293582174
 31
0
  0
LINE
  5
124
100
AcDbEntity
  8
SEMA2D
100
AcDbLine
370
9
 62
9
  6
_SOLID
 10
4.2944931913
 20
5.15377171
 30
0
 11
4.2712111554
 21
5.1300369904
 31
0
  0
LINE
  5
125
100
AcDbEntity
  8
SEMA2D
100
AcDbLine
370
9
 62
9
  6
_SOLID
 10
4.2956460567
 20
5.1525964374
 30
0
 11
4.2723639848
 21
5.1288616808
 31
0
  0
LINE
  5
126
100
AcDbEntity
  8
SEMA2D
100
AcDbLine
370
9
 62
9
  6
_SOLID
 10
4.2063101688
 20
5.174560796
 30
0
 11
4.2063101688
 21
5.1723560799
 31
0
  0
LINE
  5
127
100
AcDbEntity
  8
SEMA2D
100
AcDbLine
370
9
 62
9
  6
_SOLID
 10
4.2075255251
 20
5.1873105996
 30
0
 11
4.2075255251
 21
5.1876405395
 31
0
  0
LINE
  5
128
100
AcDbEntity
  8
SEMA2D
100
AcDbLine
370
9
 62
9
  6
_SOLID
 10
4.207924234
 20
5.174560796
 30
0
 11
4.207924234
 21
5.1723561706
 31
0
  0
LINE
  5
129
100
AcDbEntity
  8
SEMA2D
100
AcDbLine
370
9
 62
9
  6
_SOLID
 10
4.2080962419
 20
5.1765326388
 30
0
 11
4.2080962419
 21
5.1723025963
 31
0
  0
LINE
  5
12A
100
AcDbEntity
  8
SEMA2D
100
AcDbLine
370
9
 62
9
  6
_SOLID
 10
4.2097103071
 20
5.1765326388
 30
0
 11
4.2097103071
 21
5.172302526
 31
0
  0
LINE
  5
12B
100
AcDbEntity
  8
SEMA2D
100
AcDbLine
370
9
 62
9
  6
_SOLID
 10
4.2107282689
 20
5.0039388908
 30
0
 11
4.2107283465
 21
5.1364426771
 31
0
  0
LINE
  5
12C
100
AcDbEntity
  8
SEMA2D
100
AcDbLine
370
9
 62
9
  6
_SOLID
 10
4.2179402123
 20
5.0039388908
 30
0
 11
4.217940272
 21
5.1461963921
 31
0
  0
LINE
  5
12D
100
AcDbEntity
  8
SEMA2D
100
AcDbLine
370
9
 62
9
  6
_SOLID
 10
4.2614592435
 20
5.1315201944
 30
0
 11
4.2620781379
 21
5.1325619631
 31
0
  0
LINE
  5
12E
100
AcDbEntity
  8
SEMA2D
100
AcDbLine
370
9
 62
9
  6
_SOLID
 10
4.2662103362
 20
5.1420643576
 30
0
 11
4.2670748982
 21
5.1434735188
 31
0
  0
LINE
  5
12F
100
AcDbEntity
  8
SEMA2D
100
AcDbLine
370
9
 62
9
  6
_SOLID
 10
4.2183306511
 20
5.1759263908
 30
0
 11
4.2183306511
 21
5.173540028
 31
0
  0
LINE
  5
130
100
AcDbEntity
  8
SEMA2D
100
AcDbLine
370
9
 62
9
  6
_SOLID
 10
4.2203686414
 20
5.1759263908
 30
0
 11
4.2203686414
 21
5.173540028
 31
0
  0
LINE
  5
131
100
AcDbEntity
  8
SEMA2D
100
AcDbLine
370
9
 62
9
  6
_SOLID
 10
4.2219990336
 20
5.1759263908
 30
0
 11
4.2219990333
 21
5.1735400189
 31
0
  0
LINE
  5
132
100
AcDbEntity
  8
SEMA2D
100
AcDbLine
370
9
 62
9
  6
_SOLID
 10
4.2671646322
 20
5.1283832413
 30
0
 11
4.2676631633
 21
5.1293582056
 31
0
  0
LINE
  5
133
100
AcDbEntity
  8
SEMA2D
100
AcDbLine
370
9
 62
9
  6
_SOLID
 10
4.2381360202
 20
5.1735400177
 30
0
 11
4.2381360196
 21
5.1759263908
 31
0
  0
LINE
  5
134
100
AcDbEntity
  8
SEMA2D
100
AcDbLine
370
9
 62
9
  6
_SOLID
 10
4.2397664119
 20
5.173540028
 30
0
 11
4.2397664118
 21
5.1759263908
 31
0
  0
LINE
  5
135
100
AcDbEntity
  8
SEMA2D
100
AcDbLine
370
9
 62
9
  6
_SOLID
 10
4.2418044021
 20
5.173540028
 30
0
 11
4.2418044021
 21
5.1759263908
 31
0
  0
LINE
  5
136
100
AcDbEntity
  8
SEMA2D
100
AcDbLine
370
9
 62
9
  6
_SOLID
 10
4.2421948291
 20
5.0039388908
 30
0
 11
4.2421947579
 21
5.1461964247
 31
0
  0
LINE
  5
137
100
AcDbEntity
  8
SEMA2D
100
AcDbLine
370
9
 62
9
  6
_SOLID
 10
4.1924718899
 20
5.1293582056
 30
0
 11
4.192970421
 21
5.1283832413
 31
0
  0
LINE
  5
138
100
AcDbEntity
  8
SEMA2D
100
AcDbLine
370
9
 62
9
  6
_SOLID
 10
4.2494067982
 20
5.0039388908
 30
0
 11
4.2494067332
 21
5.1364424864
 31
0
  0
LINE
  5
139
100
AcDbEntity
  8
SEMA2D
100
AcDbLine
370
9
 62
9
  6
_SOLID
 10
4.2504247461
 20
5.172302526
 30
0
 11
4.2504247461
 21
5.1765326388
 31
0
  0
LINE
  5
13A
100
AcDbEntity
  8
SEMA2D
100
AcDbLine
370
9
 62
9
  6
_SOLID
 10
4.2520388113
 20
5.1723025963
 30
0
 11
4.2520388113
 21
5.1765326388
 31
0
  0
LINE
  5
13B
100
AcDbEntity
  8
SEMA2D
100
AcDbLine
370
9
 62
9
  6
_SOLID
 10
4.2522108192
 20
5.1723561706
 30
0
 11
4.2522108192
 21
5.1745608184
 31
0
  0
LINE
  5
13C
100
AcDbEntity
  8
SEMA2D
100
AcDbLine
370
9
 62
9
  6
_SOLID
 10
4.2526095281
 20
5.1873105996
 30
0
 11
4.2526095281
 21
5.1876405311
 31
0
  0
LINE
  5
13D
100
AcDbEntity
  8
SEMA2D
100
AcDbLine
370
9
 62
9
  6
_SOLID
 10
4.2538248844
 20
5.1723560799
 30
0
 11
4.2538248844
 21
5.1745608184
 31
0
  0
LINE
  5
13E
100
AcDbEntity
  8
SEMA2D
100
AcDbLine
370
9
 62
9
  6
_SOLID
 10
4.2561621082
 20
5.1745608208
 30
0
 11
4.2561621082
 21
5.1753856517
 31
0
  0
LINE
  5
13F
100
AcDbEntity
  8
SEMA2D
100
AcDbLine
370
9
 62
9
  6
_SOLID
 10
4.2597205823
 20
5.1636222188
 30
0
 11
4.2597205864
 21
5.1670706801
 31
0
  0
LINE
  5
140
100
AcDbEntity
  8
SEMA2D
100
AcDbLine
370
9
 62
9
  6
_SOLID
 10
4.2765364678
 20
5.2053718124
 30
0
 11
4.2767875085
 21
5.2078857188
 31
0
  0
LINE
  5
141
100
AcDbEntity
  8
SEMA2D
100
AcDbLine
370
9
 62
9
  6
_SOLID
 10
4.1939247175
 20
5.142064358
 30
0
 11
4.1930601864
 21
5.1434734589
 31
0
  0
LINE
  5
142
100
AcDbEntity
  8
SEMA2D
100
AcDbLine
370
9
 62
9
  6
_SOLID
 10
4.1980569153
 20
5.1325619631
 30
0
 11
4.1986758099
 21
5.1315201937
 31
0
  0
LINE
  5
143
100
AcDbEntity
  8
SEMA2D
100
AcDbLine
370
9
 62
9
  6
_SOLID
 10
4.2521862978
 20
5.1750557183
 30
0
 11
4.2520388113
 21
5.1765326388
 31
0
  0
LINE
  5
144
100
AcDbEntity
  8
SEMA2D
100
AcDbLine
370
9
 62
9
  6
_SOLID
 10
4.253800363
 20
5.1753856498
 30
0
 11
4.2526095105
 21
5.1873105996
 31
0
  0
LINE
  5
145
100
AcDbEntity
  8
SEMA2D
100
AcDbLine
370
9
 62
9
  6
_SOLID
 10
4.2683330224
 20
5.2105113098
 30
0
 11
4.2683330224
 21
5.2092054837
 31
0
  0
LINE
  5
146
100
AcDbEntity
  8
SEMA2D
100
AcDbLine
370
9
 62
9
  6
_SOLID
 10
4.2699470876
 20
5.2105113098
 30
0
 11
4.2699470876
 21
5.209205445
 31
0
  0
LINE
  5
147
100
AcDbEntity
  8
SEMA2D
100
AcDbLine
370
9
 62
9
  6
_SOLID
 10
4.2713789747
 20
5.2024630202
 30
0
 11
4.2713789749
 21
5.2041731388
 31
0
  0
LINE
  5
148
100
AcDbEntity
  8
SEMA2D
100
AcDbLine
370
9
 62
9
  6
_SOLID
 10
4.2718564578
 20
5.2180389438
 30
0
 11
4.2718564615
 21
5.2168781158
 31
0
  0
LINE
  5
149
100
AcDbEntity
  8
SEMA2D
100
AcDbLine
370
9
 62
9
  6
_SOLID
 10
4.2781505336
 20
5.2050418861
 30
0
 11
4.2784015702
 21
5.2075557524
 31
0
  0
LINE
  5
14A
100
AcDbEntity
  8
SEMA2D
100
AcDbLine
370
9
 62
9
  6
_SOLID
 10
4.2877940225
 20
5.1962856485
 30
0
 11
4.2889194639
 21
5.2075557515
 31
0
  0
LINE
  5
14B
100
AcDbEntity
  8
SEMA2D
100
AcDbLine
370
9
 62
9
  6
_SOLID
 10
4.164488997
 20
5.1525964367
 30
0
 11
4.1877710715
 21
5.1288616776
 31
0
  0
LINE
  5
14C
100
AcDbEntity
  8
SEMA2D
100
AcDbLine
370
9
 62
9
  6
_SOLID
 10
4.1656418619
 20
5.15377171
 30
0
 11
4.1889238985
 21
5.1300369898
 31
0
  0
LINE
  5
14D
100
AcDbEntity
  8
SEMA2D
100
AcDbLine
370
9
 62
9
  6
_SOLID
 10
4.1924719097
 20
5.1293582166
 30
0
 11
4.1670829386
 21
5.1552408062
 31
0
  0
LINE
  5
14E
100
AcDbEntity
  8
SEMA2D
100
AcDbLine
370
9
 62
9
  6
_SOLID
 10
4.268398416
 20
5.2075557524
 30
0
 11
4.2686494526
 21
5.2050418861
 31
0
  0
LINE
  5
14F
100
AcDbEntity
  8
SEMA2D
100
AcDbLine
370
9
 62
9
  6
_SOLID
 10
4.2700124777
 20
5.2078857188
 30
0
 11
4.2702635184
 21
5.2053718119
 31
0
  0
LINE
  5
150
100
AcDbEntity
  8
SEMA2D
100
AcDbLine
370
9
 62
9
  6
_SOLID
 10
4.2736617002
 20
5.1242723427
 30
0
 11
4.273661662
 21
5.0039388908
 31
0
  0
LINE
  5
151
100
AcDbEntity
  8
SEMA2D
100
AcDbLine
370
9
 62
9
  6
_SOLID
 10
4.2749435285
 20
5.2180389372
 30
0
 11
4.2749435266
 21
5.2168781228
 31
0
  0
LINE
  5
152
100
AcDbEntity
  8
SEMA2D
100
AcDbLine
370
9
 62
9
  6
_SOLID
 10
4.2754210115
 20
5.202463025
 30
0
 11
4.2754210111
 21
5.2041731388
 31
0
  0
LINE
  5
153
100
AcDbEntity
  8
SEMA2D
100
AcDbLine
370
9
 62
9
  6
_SOLID
 10
4.2768528986
 20
5.209205445
 30
0
 11
4.2768528986
 21
5.2105113098
 31
0
  0
LINE
  5
154
100
AcDbEntity
  8
SEMA2D
100
AcDbLine
370
9
 62
9
  6
_SOLID
 10
4.2784669638
 20
5.2092054837
 30
0
 11
4.2784669638
 21
5.2105113098
 31
0
  0
LINE
  5
155
100
AcDbEntity
  8
SEMA2D
100
AcDbLine
370
9
 62
9
  6
_SOLID
 10
4.278523425
 20
5.1745607958
 30
0
 11
4.2785234251
 21
5.1753856537
 31
0
  0
LINE
  5
156
100
AcDbEntity
  8
SEMA2D
100
AcDbLine
370
9
 62
9
  6
_SOLID
 10
4.2808736096
 20
5.0039388908
 30
0
 11
4.2808736344
 21
5.1276338401
 31
0
  0
LINE
  5
157
100
AcDbEntity
  8
SEMA2D
100
AcDbLine
370
9
 62
9
  6
_SOLID
 10
4.2877940225
 20
5.1753856485
 30
0
 11
4.2889848303
 21
5.1873105996
 31
0
  0
LINE
  5
158
100
AcDbEntity
  8
SEMA2D
100
AcDbLine
370
9
 62
9
  6
_SOLID
 10
4.1980568885
 20
5.1325619471
 30
0
 11
4.187979736
 21
5.1428350777
 31
0
  0
LINE
  5
159
100
AcDbEntity
  8
SEMA2D
100
AcDbLine
370
9
 62
9
  6
_SOLID
 10
4.1991396019
 20
5.1343669943
 30
0
 11
4.1927242798
 21
5.14090721
 31
0
  0
LINE
  5
15A
100
AcDbEntity
  8
SEMA2D
100
AcDbLine
370
9
 62
9
  6
_SOLID
 10
4.1990002364
 20
5.1345631373
 30
0
 11
4.1927834006
 21
5.1409008499
 31
0
  0
LINE
  5
15B
100
AcDbEntity
  8
SEMA2D
100
AcDbLine
370
9
 62
9
  6
_SOLID
 10
4.2001415528
 20
5.1357266449
 30
0
 11
4.193924717
 21
5.1420643576
 31
0
  0
LINE
  5
15C
100
AcDbEntity
  8
SEMA2D
100
AcDbLine
370
9
 62
9
  6
_SOLID
 10
4.2049029718
 20
5.1666576813
 30
0
 11
4.205826223
 21
5.165212998
 31
0
  0
LINE
  5
15D
100
AcDbEntity
  8
SEMA2D
100
AcDbLine
370
9
 62
9
  6
_SOLID
 10
4.287777675
 20
5.1954608197
 30
0
 11
4.2877776778
 21
5.1899583236
 31
0
  0
LINE
  5
15E
100
AcDbEntity
  8
SEMA2D
100
AcDbLine
370
9
 62
9
  6
_SOLID
 10
4.287777675
 20
5.1745608197
 30
0
 11
4.2877776815
 21
5.1636222187
 31
0
  0
LINE
  5
15F
100
AcDbEntity
  8
SEMA2D
100
AcDbLine
370
9
 62
9
  6
_SOLID
 10
4.2889848576
 20
5.1873105995
 30
0
 11
4.2889848576
 21
5.1876405525
 31
0
  0
LINE
  5
160
100
AcDbEntity
  8
SEMA2D
100
AcDbLine
370
9
 62
9
  6
_SOLID
 10
4.2901377021
 20
5.1954608197
 30
0
 11
4.2901377002
 21
5.1932463705
 31
0
  0
LINE
  5
161
100
AcDbEntity
  8
SEMA2D
100
AcDbLine
370
9
 62
9
  6
_SOLID
 10
4.2901377021
 20
5.1745608197
 30
0
 11
4.2901376994
 21
5.1669929738
 31
0
  0
LINE
  5
162
100
AcDbEntity
  8
SEMA2D
100
AcDbLine
370
9
 62
9
  6
_SOLID
 10
4.2909729234
 20
5.2105113098
 30
0
 11
4.2909729315
 21
5.214251018
 31
0
  0
LINE
  5
163
100
AcDbEntity
  8
SEMA2D
100
AcDbLine
370
9
 62
9
  6
_SOLID
 10
4.2917110535
 20
5.19546082
 30
0
 11
4.2917110524
 21
5.1932463729
 31
0
  0
LINE
  5
164
100
AcDbEntity
  8
SEMA2D
100
AcDbLine
370
9
 62
9
  6
_SOLID
 10
4.2917110535
 20
5.17456082
 30
0
 11
4.291711052
 21
5.1669929688
 31
0
  0
LINE
  5
165
100
AcDbEntity
  8
SEMA2D
100
AcDbLine
370
9
 62
9
  6
_SOLID
 10
4.2975405361
 20
5.2038159998
 30
0
 11
4.2975405361
 21
5.166287504
 31
0
  0
LINE
  5
166
100
AcDbEntity
  8
SEMA2D
100
AcDbLine
370
9
 62
9
  6
_SOLID
 10
4.2995785263
 20
5.2038159998
 30
0
 11
4.2995785264
 21
5.166287504
 31
0
  0
LINE
  5
167
100
AcDbEntity
  8
SEMA2D
100
AcDbLine
370
9
 62
9
  6
_SOLID
 10
4.3012089181
 20
5.2038160089
 30
0
 11
4.3012089184
 21
5.1662874988
 31
0
  0
LINE
  5
168
100
AcDbEntity
  8
SEMA2D
100
AcDbLine
370
9
 62
9
  6
_SOLID
 10
4.306888848
 20
5.0039388908
 30
0
 11
4.3068888468
 21
5.1470814183
 31
0
  0
LINE
  5
169
100
AcDbEntity
  8
SEMA2D
100
AcDbLine
370
9
 62
9
  6
_SOLID
 10
4.3089535715
 20
5.1577390029
 30
0
 11
4.3089535715
 21
5.2267481993
 31
0
  0
LINE
  5
16A
100
AcDbEntity
  8
SEMA2D
100
AcDbLine
370
9
 62
9
  6
_SOLID
 10
4.3136065909
 20
5.2249923483
 30
0
 11
4.3136065909
 21
5.0039388908
 31
0
  0
LINE
  5
16B
100
AcDbEntity
  8
SEMA2D
100
AcDbLine
370
9
 62
7
  6
_SOLID
 10
4.3139368166
 20
5.2272263908
 30
0
 11
4.3139368166
 21
5.0039388908
 31
0
  0
LINE
  5
16C
100
AcDbEntity
  8
SEMA2D
100
AcDbLine
370
9
 62
7
  6
_SOLID
 10
4.3146357274
 20
5.2279388908
 30
0
 11
4.3146357274
 21
5.0039388908
 31
0
  0
LINE
  5
16D
100
AcDbEntity
  8
SEMA2D
100
AcDbLine
370
9
 62
9
  6
_SOLID
 10
4.2766262111
 20
5.1294304374
 30
0
 11
4.2770636432
 21
5.1285980936
 31
0
  0
LINE
  5
16E
100
AcDbEntity
  8
SEMA2D
100
AcDbLine
370
9
 62
9
  6
_SOLID
 10
4.2599935003
 20
5.1357266449
 30
0
 11
4.2611348168
 21
5.1345631373
 31
0
  0
LINE
  5
16F
100
AcDbEntity
  8
SEMA2D
100
AcDbLine
370
9
 62
9
  6
_SOLID
 10
4.2723639828
 20
5.128861748
 30
0
 11
4.2712111554
 21
5.1300369904
 31
0
  0
LINE
  5
170
100
AcDbEntity
  8
SEMA2D
100
AcDbLine
370
9
 62
9
  6
_SOLID
 10
4.2673516526
 20
5.14090085
 30
0
 11
4.2662103362
 21
5.1420643576
 31
0
  0
LINE
  5
171
100
AcDbEntity
  8
SEMA2D
100
AcDbLine
370
9
 62
9
  6
_SOLID
 10
4.1705519012
 20
5.2074746958
 30
0
 11
4.1701094456
 21
5.207750557
 31
0
  0
LINE
  5
172
100
AcDbEntity
  8
SEMA2D
100
AcDbLine
370
9
 62
9
  6
_SOLID
 10
4.2201765956
 20
5.1675967829
 30
0
 11
4.2171613362
 21
5.1697267209
 31
0
  0
LINE
  5
173
100
AcDbEntity
  8
SEMA2D
100
AcDbLine
370
9
 62
9
  6
_SOLID
 10
4.2877776815
 20
5.1636222187
 30
0
 11
4.2597205823
 21
5.1636222188
 31
0
  0
LINE
  5
174
100
AcDbEntity
  8
SEMA2D
100
AcDbLine
370
9
 62
9
  6
_SOLID
 10
4.2004144709
 20
5.1636222188
 30
0
 11
4.1723573717
 21
5.1636222187
 31
0
  0
LINE
  5
175
100
AcDbEntity
  8
SEMA2D
100
AcDbLine
370
9
 62
9
  6
_SOLID
 10
4.2080962419
 20
5.1723025963
 30
0
 11
4.207924234
 21
5.1723561706
 31
0
  0
LINE
  5
176
100
AcDbEntity
  8
SEMA2D
100
AcDbLine
370
9
 62
9
  6
_SOLID
 10
4.2901430073
 20
5.1749194101
 30
0
 11
4.2917089971
 21
5.1749385153
 31
0
  0
LINE
  5
177
100
AcDbEntity
  8
SEMA2D
100
AcDbLine
370
9
 62
9
  6
_SOLID
 10
4.287777675
 20
5.1653464493
 30
0
 11
4.2597205864
 21
5.1653464494
 31
0
  0
LINE
  5
178
100
AcDbEntity
  8
SEMA2D
100
AcDbLine
370
9
 62
9
  6
_SOLID
 10
4.2004144668
 20
5.1653464494
 30
0
 11
4.1723573782
 21
5.1653464493
 31
0
  0
LINE
  5
179
100
AcDbEntity
  8
SEMA2D
100
AcDbLine
370
9
 62
9
  6
_SOLID
 10
4.1625945171
 20
5.166287504
 30
0
 11
4.1589261349
 21
5.1662874979
 31
0
  0
LINE
  5
17A
100
AcDbEntity
  8
SEMA2D
100
AcDbLine
370
9
 62
9
  6
_SOLID
 10
4.3012089184
 20
5.1662874988
 30
0
 11
4.2975405361
 21
5.166287504
 31
0
  0
LINE
  5
17B
100
AcDbEntity
  8
SEMA2D
100
AcDbLine
370
9
 62
9
  6
_SOLID
 10
4.1699973538
 20
5.1669929693
 30
0
 11
4.1684240012
 21
5.1669929688
 31
0
  0
LINE
  5
17C
100
AcDbEntity
  8
SEMA2D
100
AcDbLine
370
9
 62
9
  6
_SOLID
 10
4.2901376994
 20
5.1669929693
 30
0
 11
4.291711052
 21
5.1669929688
 31
0
  0
LINE
  5
17D
100
AcDbEntity
  8
SEMA2D
100
AcDbLine
370
9
 62
9
  6
_SOLID
 10
4.287777675
 20
5.1670706801
 30
0
 11
4.2597205864
 21
5.1670706801
 31
0
  0
LINE
  5
17E
100
AcDbEntity
  8
SEMA2D
100
AcDbLine
370
9
 62
9
  6
_SOLID
 10
4.2004144668
 20
5.1670706801
 30
0
 11
4.1723573782
 21
5.1670706801
 31
0
  0
LINE
  5
17F
100
AcDbEntity
  8
SEMA2D
100
AcDbLine
370
9
 62
9
  6
_SOLID
 10
4.2520388113
 20
5.172302526
 30
0
 11
4.2504247461
 21
5.172302526
 31
0
  0
LINE
  5
180
100
AcDbEntity
  8
SEMA2D
100
AcDbLine
370
9
 62
9
  6
_SOLID
 10
4.2080962419
 20
5.172302526
 30
0
 11
4.2097103071
 21
5.172302526
 31
0
  0
LINE
  5
181
100
AcDbEntity
  8
SEMA2D
100
AcDbLine
370
9
 62
9
  6
_SOLID
 10
4.207924234
 20
5.1723560799
 30
0
 11
4.2063101688
 21
5.1723560799
 31
0
  0
LINE
  5
182
100
AcDbEntity
  8
SEMA2D
100
AcDbLine
370
9
 62
9
  6
_SOLID
 10
4.2522108192
 20
5.1723560799
 30
0
 11
4.2538248844
 21
5.1723560799
 31
0
  0
LINE
  5
183
100
AcDbEntity
  8
SEMA2D
100
AcDbLine
370
9
 62
9
  6
_SOLID
 10
4.2418044021
 20
5.173540028
 30
0
 11
4.2381360202
 21
5.1735400177
 31
0
  0
LINE
  5
184
100
AcDbEntity
  8
SEMA2D
100
AcDbLine
370
9
 62
9
  6
_SOLID
 10
4.2183306511
 20
5.173540028
 30
0
 11
4.2219990333
 21
5.1735400189
 31
0
  0
LINE
  5
185
100
AcDbEntity
  8
SEMA2D
100
AcDbLine
370
9
 62
9
  6
_SOLID
 10
4.207924234
 20
5.174560796
 30
0
 11
4.2063101688
 21
5.174560796
 31
0
  0
LINE
  5
186
100
AcDbEntity
  8
SEMA2D
100
AcDbLine
370
9
 62
9
  6
_SOLID
 10
4.1723573782
 20
5.1745608197
 30
0
 11
4.1684239997
 21
5.1745608201
 31
0
  0
LINE
  5
187
100
AcDbEntity
  8
SEMA2D
100
AcDbLine
370
9
 62
9
  6
_SOLID
 10
4.2522108192
 20
5.1745608184
 30
0
 11
4.2538248844
 21
5.1745608184
 31
0
  0
LINE
  5
188
100
AcDbEntity
  8
SEMA2D
100
AcDbLine
370
9
 62
9
  6
_SOLID
 10
4.287777675
 20
5.1745608197
 30
0
 11
4.2917110535
 21
5.17456082
 31
0
  0
LINE
  5
189
100
AcDbEntity
  8
SEMA2D
100
AcDbLine
370
9
 62
9
  6
_SOLID
 10
4.2183306511
 20
5.1759263908
 30
0
 11
4.2219990336
 21
5.1759263908
 31
0
  0
LINE
  5
18A
100
AcDbEntity
  8
SEMA2D
100
AcDbLine
370
9
 62
9
  6
_SOLID
 10
4.2381360196
 20
5.1759263908
 30
0
 11
4.2418044021
 21
5.1759263908
 31
0
  0
LINE
  5
18B
100
AcDbEntity
  8
SEMA2D
100
AcDbLine
370
9
 62
9
  6
_SOLID
 10
4.2520388113
 20
5.1765326388
 30
0
 11
4.2504247461
 21
5.1765326388
 31
0
  0
LINE
  5
18C
100
AcDbEntity
  8
SEMA2D
100
AcDbLine
370
9
 62
9
  6
_SOLID
 10
4.2080962419
 20
5.1765326388
 30
0
 11
4.2097103071
 21
5.1765326388
 31
0
  0
LINE
  5
18D
100
AcDbEntity
  8
SEMA2D
100
AcDbLine
370
9
 62
9
  6
_SOLID
 10
4.1699920459
 20
5.1749194097
 30
0
 11
4.1684260562
 21
5.1749385153
 31
0
  0
LINE
  5
18E
100
AcDbEntity
  8
SEMA2D
100
AcDbLine
370
9
 62
9
  6
_SOLID
 10
4.2956460567
 20
5.1525964374
 30
0
 11
4.2930521146
 21
5.1552408062
 31
0
  0
LINE
  5
18F
100
AcDbEntity
  8
SEMA2D
100
AcDbLine
370
9
 62
9
  6
_SOLID
 10
4.1711502181
 20
5.1873105996
 30
0
 11
4.2075255424
 21
5.1873105996
 31
0
  0
LINE
  5
190
100
AcDbEntity
  8
SEMA2D
100
AcDbLine
370
9
 62
9
  6
_SOLID
 10
4.2526095105
 20
5.1873105996
 30
0
 11
4.2889848303
 21
5.1873105996
 31
0
  0
LINE
  5
191
100
AcDbEntity
  8
SEMA2D
100
AcDbLine
370
9
 62
9
  6
_SOLID
 10
4.1711501956
 20
5.1876405311
 30
0
 11
4.2075255251
 21
5.1876405311
 31
0
  0
LINE
  5
192
100
AcDbEntity
  8
SEMA2D
100
AcDbLine
370
9
 62
9
  6
_SOLID
 10
4.2526095281
 20
5.1876405311
 30
0
 11
4.2889848576
 21
5.1876405311
 31
0
  0
LINE
  5
193
100
AcDbEntity
  8
SEMA2D
100
AcDbLine
370
9
 62
9
  6
_SOLID
 10
4.2877776778
 20
5.1899583236
 30
0
 11
4.1723573754
 21
5.1899583236
 31
0
  0
LINE
  5
194
100
AcDbEntity
  8
SEMA2D
100
AcDbLine
370
9
 62
9
  6
_SOLID
 10
4.287777675
 20
5.1916825543
 30
0
 11
4.1723573782
 21
5.1916825543
 31
0
  0
LINE
  5
195
100
AcDbEntity
  8
SEMA2D
100
AcDbLine
370
9
 62
9
  6
_SOLID
 10
4.2895903188
 20
5.1920146787
 30
0
 11
4.2905959207
 21
5.190795467
 31
0
  0
LINE
  5
196
100
AcDbEntity
  8
SEMA2D
100
AcDbLine
370
9
 62
9
  6
_SOLID
 10
4.1700376536
 20
5.1928346799
 30
0
 11
4.1685249682
 21
5.1924354676
 31
0
  0
LINE
  5
197
100
AcDbEntity
  8
SEMA2D
100
AcDbLine
370
9
 62
9
  6
_SOLID
 10
4.2901430073
 20
5.1958194101
 30
0
 11
4.2917089971
 21
5.1958385153
 31
0
  0
LINE
  5
198
100
AcDbEntity
  8
SEMA2D
100
AcDbLine
370
9
 62
9
  6
_SOLID
 10
4.169997353
 20
5.1932463736
 30
0
 11
4.1684240008
 21
5.1932463729
 31
0
  0
LINE
  5
199
100
AcDbEntity
  8
SEMA2D
100
AcDbLine
370
9
 62
9
  6
_SOLID
 10
4.2901377002
 20
5.1932463736
 30
0
 11
4.2917110524
 21
5.1932463729
 31
0
  0
LINE
  5
19A
100
AcDbEntity
  8
SEMA2D
100
AcDbLine
370
9
 62
9
  6
_SOLID
 10
4.287777675
 20
5.1934067851
 30
0
 11
4.1723573782
 21
5.1934067851
 31
0
  0
LINE
  5
19B
100
AcDbEntity
  8
SEMA2D
100
AcDbLine
370
9
 62
9
  6
_SOLID
 10
4.1684239997
 20
5.19546082
 30
0
 11
4.2917110535
 21
5.19546082
 31
0
  0
LINE
  5
19C
100
AcDbEntity
  8
SEMA2D
100
AcDbLine
370
9
 62
9
  6
_SOLID
 10
4.2877940225
 20
5.1962856485
 30
0
 11
4.1723410307
 21
5.1962856485
 31
0
  0
LINE
  5
19D
100
AcDbEntity
  8
SEMA2D
100
AcDbLine
370
9
 62
9
  6
_SOLID
 10
4.1847140417
 20
5.2024630202
 30
0
 11
4.1887560785
 21
5.2024630202
 31
0
  0
LINE
  5
19E
100
AcDbEntity
  8
SEMA2D
100
AcDbLine
370
9
 62
9
  6
_SOLID
 10
4.2713789747
 20
5.2024630202
 30
0
 11
4.2754210115
 21
5.2024630202
 31
0
  0
LINE
  5
19F
100
AcDbEntity
  8
SEMA2D
100
AcDbLine
370
9
 62
9
  6
_SOLID
 10
4.1625945171
 20
5.2038159998
 30
0
 11
4.1589261349
 21
5.2038160081
 31
0
  0
LINE
  5
1A0
100
AcDbEntity
  8
SEMA2D
100
AcDbLine
370
9
 62
9
  6
_SOLID
 10
4.2975405361
 20
5.2038159998
 30
0
 11
4.3012089181
 21
5.2038160089
 31
0
  0
LINE
  5
1A1
100
AcDbEntity
  8
SEMA2D
100
AcDbLine
370
9
 62
9
  6
_SOLID
 10
4.1847140488
 20
5.2041731388
 30
0
 11
4.1887560714
 21
5.2041731388
 31
0
  0
LINE
  5
1A2
100
AcDbEntity
  8
SEMA2D
100
AcDbLine
370
9
 62
9
  6
_SOLID
 10
4.2713789818
 20
5.2041731388
 30
0
 11
4.2754210044
 21
5.2041731388
 31
0
  0
LINE
  5
1A3
100
AcDbEntity
  8
SEMA2D
100
AcDbLine
370
9
 62
9
  6
_SOLID
 10
4.1699920459
 20
5.1958194097
 30
0
 11
4.1684260562
 21
5.1958385153
 31
0
  0
LINE
  5
1A4
100
AcDbEntity
  8
SEMA2D
100
AcDbLine
370
9
 62
9
  6
_SOLID
 10
4.2900973966
 20
5.1928346838
 30
0
 11
4.291610085
 21
5.1924354685
 31
0
  0
LINE
  5
1A5
100
AcDbEntity
  8
SEMA2D
100
AcDbLine
370
9
 62
9
  6
_SOLID
 10
4.2889194639
 20
5.2075557515
 30
0
 11
4.2784015702
 21
5.2075557524
 31
0
  0
LINE
  5
1A6
100
AcDbEntity
  8
SEMA2D
100
AcDbLine
370
9
 62
9
  6
_SOLID
 10
4.268398416
 20
5.2075557524
 30
0
 11
4.1917366372
 21
5.2075557524
 31
0
  0
LINE
  5
1A7
100
AcDbEntity
  8
SEMA2D
100
AcDbLine
370
9
 62
9
  6
_SOLID
 10
4.181733483
 20
5.2075557524
 30
0
 11
4.1712155893
 21
5.2075557515
 31
0
  0
LINE
  5
1A8
100
AcDbEntity
  8
SEMA2D
100
AcDbLine
370
9
 62
9
  6
_SOLID
 10
4.2890256863
 20
5.209205525
 30
0
 11
4.2768528986
 21
5.209205445
 31
0
  0
LINE
  5
1A9
100
AcDbEntity
  8
SEMA2D
100
AcDbLine
370
9
 62
9
  6
_SOLID
 10
4.1711093669
 20
5.209205525
 30
0
 11
4.1832821546
 21
5.209205445
 31
0
  0
LINE
  5
1AA
100
AcDbEntity
  8
SEMA2D
100
AcDbLine
370
9
 62
9
  6
_SOLID
 10
4.2699470876
 20
5.209205445
 30
0
 11
4.1901879656
 21
5.209205445
 31
0
  0
LINE
  5
1AB
100
AcDbEntity
  8
SEMA2D
100
AcDbLine
370
9
 62
9
  6
_SOLID
 10
4.1691621298
 20
5.2105113098
 30
0
 11
4.1832821546
 21
5.2105113098
 31
0
  0
LINE
  5
1AC
100
AcDbEntity
  8
SEMA2D
100
AcDbLine
370
9
 62
9
  6
_SOLID
 10
4.1901879656
 20
5.2105113098
 30
0
 11
4.2699470876
 21
5.2105113098
 31
0
  0
LINE
  5
1AD
100
AcDbEntity
  8
SEMA2D
100
AcDbLine
370
9
 62
9
  6
_SOLID
 10
4.2768528986
 20
5.2105113098
 30
0
 11
4.2909729234
 21
5.2105113098
 31
0
  0
LINE
  5
1AE
100
AcDbEntity
  8
SEMA2D
100
AcDbLine
370
9
 62
9
  6
_SOLID
 10
4.2783282918
 20
5.2125889237
 30
0
 11
4.2909729234
 21
5.2125889256
 31
0
  0
LINE
  5
1AF
100
AcDbEntity
  8
SEMA2D
100
AcDbLine
370
9
 62
9
  6
_SOLID
 10
4.1818067615
 20
5.2125889241
 30
0
 11
4.1691621298
 21
5.2125889256
 31
0
  0
LINE
  5
1B0
100
AcDbEntity
  8
SEMA2D
100
AcDbLine
370
9
 62
9
  6
_SOLID
 10
4.1916633588
 20
5.2125889237
 30
0
 11
4.2684716944
 21
5.2125889237
 31
0
  0
LINE
  5
1B1
100
AcDbEntity
  8
SEMA2D
100
AcDbLine
370
9
 62
9
  6
_SOLID
 10
4.1889399142
 20
5.2142510183
 30
0
 11
4.271195139
 21
5.2142510183
 31
0
  0
LINE
  5
1B2
100
AcDbEntity
  8
SEMA2D
100
AcDbLine
370
9
 62
9
  6
_SOLID
 10
4.2756048472
 20
5.2142510183
 30
0
 11
4.2909729315
 21
5.214251018
 31
0
  0
LINE
  5
1B3
100
AcDbEntity
  8
SEMA2D
100
AcDbLine
370
9
 62
9
  6
_SOLID
 10
4.184530206
 20
5.2142510183
 30
0
 11
4.1691621209
 21
5.2142510178
 31
0
  0
LINE
  5
1B4
100
AcDbEntity
  8
SEMA2D
100
AcDbLine
370
9
 62
9
  6
_SOLID
 10
4.2772189125
 20
5.2143905747
 30
0
 11
4.2756048472
 21
5.2143905747
 31
0
  0
LINE
  5
1B5
100
AcDbEntity
  8
SEMA2D
100
AcDbLine
370
9
 62
9
  6
_SOLID
 10
4.1905539795
 20
5.2143905747
 30
0
 11
4.1889399142
 21
5.2143905747
 31
0
  0
LINE
  5
1B6
100
AcDbEntity
  8
SEMA2D
100
AcDbLine
370
9
 62
9
  6
_SOLID
 10
4.1829161407
 20
5.2143905747
 30
0
 11
4.184530206
 21
5.2143905747
 31
0
  0
LINE
  5
1B7
100
AcDbEntity
  8
SEMA2D
100
AcDbLine
370
9
 62
9
  6
_SOLID
 10
4.2695810737
 20
5.2143905747
 30
0
 11
4.271195139
 21
5.2143905747
 31
0
  0
LINE
  5
1B8
100
AcDbEntity
  8
SEMA2D
100
AcDbLine
370
9
 62
9
  6
_SOLID
 10
4.2749435016
 20
5.2168781228
 30
0
 11
4.2718564845
 21
5.2168781228
 31
0
  0
LINE
  5
1B9
100
AcDbEntity
  8
SEMA2D
100
AcDbLine
370
9
 62
9
  6
_SOLID
 10
4.1882785686
 20
5.2168781228
 30
0
 11
4.1851915515
 21
5.2168781228
 31
0
  0
LINE
  5
1BA
100
AcDbEntity
  8
SEMA2D
100
AcDbLine
370
9
 62
9
  6
_SOLID
 10
4.2749435285
 20
5.2180389372
 30
0
 11
4.2718564578
 21
5.2180389372
 31
0
  0
LINE
  5
1BB
100
AcDbEntity
  8
SEMA2D
100
AcDbLine
370
9
 62
9
  6
_SOLID
 10
4.1882785955
 20
5.2180389372
 30
0
 11
4.1851915248
 21
5.2180389372
 31
0
  0
LINE
  5
1BC
100
AcDbEntity
  8
SEMA2D
100
AcDbLine
370
9
 62
9
  6
_SOLID
 10
4.3089535715
 20
5.2248508031
 30
0
 11
4.1511814817
 21
5.2248508031
 31
0
  0
LINE
  5
1BD
100
AcDbEntity
  8
SEMA2D
100
AcDbLine
370
9
 62
9
  6
_SOLID
 10
4.3089535715
 20
5.2267481993
 30
0
 11
4.1511814817
 21
5.2267481993
 31
0
  0
LINE
  5
1BE
100
AcDbEntity
  8
SEMA2D
100
AcDbLine
370
9
 62
7
  6
_SOLID
 10
4.1461982366
 20
5.2272263908
 30
0
 11
4.3139368166
 21
5.2272263908
 31
0
  0
LINE
  5
1BF
100
AcDbEntity
  8
SEMA2D
100
AcDbLine
370
9
 62
7
  6
_SOLID
 10
4.1454993259
 20
5.2279388908
 30
0
 11
4.3146357274
 21
5.2279388908
 31
0
  0
ARC
  5
1C0
100
AcDbEntity
  8
SEMA2D
100
AcDbCircle
370
9
 62
9
  6
_SOLID
 10
4.0917693971
 20
5.1633598427
 30
0
 40
0.0976959583000001
100
AcDbArc
 50
338.108062543168
 51
339.156429078346
  0
ARC
  5
1C1
100
AcDbEntity
  8
SEMA2D
100
AcDbCircle
370
9
 62
9
  6
_SOLID
 10
4.2047006043
 20
5.174552151
 30
0
 40
0.0362766057000004
100
AcDbArc
 50
179.389759333248
 51
179.986308027439
  0
ARC
  5
1C2
100
AcDbEntity
  8
SEMA2D
100
AcDbCircle
370
9
 62
9
  6
_SOLID
 10
4.151921109
 20
5.1745683639
 30
0
 40
0.0204362705999999
100
AcDbArc
 50
-0.0211510869907071
 51
2.29197642192539
  0
ARC
  5
1C3
100
AcDbEntity
  8
SEMA2D
100
AcDbCircle
370
9
 62
9
  6
_SOLID
 10
4.2200522267
 20
5.174565046
 30
0
 40
0.0137420586000001
100
AcDbArc
 50
176.576465797195
 51
180.017719951955
  0
ARC
  5
1C4
100
AcDbEntity
  8
SEMA2D
100
AcDbCircle
370
9
 62
9
  6
_SOLID
 10
4.157305919
 20
5.1745523924
 30
0
 40
0.0126914345999998
100
AcDbArc
 50
0.0380450421050062
 51
1.65713966851648
  0
ARC
  5
1C5
100
AcDbEntity
  8
SEMA2D
100
AcDbCircle
370
9
 62
9
  6
_SOLID
 10
4.2114411297
 20
5.1735264673
 30
0
 40
0.0105579116000003
100
AcDbArc
 50
325.831114015352
 51
0.0735416341033034
  0
ARC
  5
1C6
100
AcDbEntity
  8
SEMA2D
100
AcDbCircle
370
9
 62
9
  6
_SOLID
 10
4.2114953832
 20
5.1735277135
 30
0
 40
0.00887326610000017
100
AcDbArc
 50
325.825131615183
 51
0.0795160365260997
  0
ARC
  5
1C7
100
AcDbEntity
  8
SEMA2D
100
AcDbCircle
370
9
 62
9
  6
_SOLID
 10
4.1874949795
 20
5.1318992779
 30
0
 40
0.00795058120000025
100
AcDbArc
 50
283.924687010501
 51
298.909286140933
  0
ARC
  5
1C8
100
AcDbEntity
  8
SEMA2D
100
AcDbCircle
370
9
 62
9
  6
_SOLID
 10
4.2005596305
 20
5.1359204522
 30
0
 40
0.00640708619999986
100
AcDbArc
 50
300.599714289848
 51
304.332023490819
  0
ARC
  5
1C9
100
AcDbEntity
  8
SEMA2D
100
AcDbCircle
370
9
 62
9
  6
_SOLID
 10
4.1881835314
 20
5.1290449322
 30
0
 40
0.00501445340000028
100
AcDbArc
 50
266.196994916345
 51
284.136874628981
  0
ARC
  5
1CA
100
AcDbEntity
  8
SEMA2D
100
AcDbCircle
370
9
 62
9
  6
_SOLID
 10
4.2129087433
 20
5.1745619033
 30
0
 40
0.00498450910000026
100
AcDbArc
 50
174.314126992583
 51
180.012728572654
  0
ARC
  5
1CB
100
AcDbEntity
  8
SEMA2D
100
AcDbCircle
370
9
 62
9
  6
_SOLID
 10
4.1889865368
 20
5.1315757113
 30
0
 40
0.00425640349999989
100
AcDbArc
 50
270
 51
284.911541897418
  0
ARC
  5
1CC
100
AcDbEntity
  8
SEMA2D
100
AcDbCircle
370
9
 62
9
  6
_SOLID
 10
4.200086956
 20
5.1352476864
 30
0
 40
0.00165274230000012
100
AcDbArc
 50
307.539569134903
 51
311.429400491866
  0
ARC
  5
1CD
100
AcDbEntity
  8
SEMA2D
100
AcDbCircle
370
9
 62
9
  6
_SOLID
 10
4.1669748772
 20
5.3305248686
 30
0
 40
0.1888617805
100
AcDbArc
 50
276.385360261628
 51
277.923659956979
  0
ARC
  5
1CE
100
AcDbEntity
  8
SEMA2D
100
AcDbCircle
370
9
 62
9
  6
_SOLID
 10
4.2021955177
 20
5.2206931346
 30
0
 40
0.1239375069
100
AcDbArc
 50
324.500047450704
 51
329.472582274056
  0
ARC
  5
1CF
100
AcDbEntity
  8
SEMA2D
100
AcDbCircle
370
9
 62
9
  6
_SOLID
 10
4.1448101632
 20
5.2185944705
 30
0
 40
0.0996425572000001
100
AcDbArc
 50
303.73129593415
 51
328.829629004679
  0
ARC
  5
1D0
100
AcDbEntity
  8
SEMA2D
100
AcDbCircle
370
9
 62
9
  6
_SOLID
 10
4.1457187619
 20
5.2173316862
 30
0
 40
0.0996252384999998
100
AcDbArc
 50
297.988231469841
 51
301.69181312109
  0
ARC
  5
1D1
100
AcDbEntity
  8
SEMA2D
100
AcDbCircle
370
9
 62
9
  6
_SOLID
 10
4.1450608915
 20
5.2185670867
 30
0
 40
0.0907763241000001
100
AcDbArc
 50
302.567186129379
 51
325.840862621112
  0
ARC
  5
1D2
100
AcDbEntity
  8
SEMA2D
100
AcDbCircle
370
9
 62
9
  6
_SOLID
 10
4.1450840459
 20
5.2185889824
 30
0
 40
0.0891290062999999
100
AcDbArc
 50
302.566302609661
 51
325.840692314835
  0
ARC
  5
1D3
100
AcDbEntity
  8
SEMA2D
100
AcDbCircle
370
9
 62
9
  6
_SOLID
 10
4.1452058739
 20
5.2185293324
 30
0
 40
0.0869441396999999
100
AcDbArc
 50
299.470239489948
 51
325.853561398277
  0
ARC
  5
1D4
100
AcDbEntity
  8
SEMA2D
100
AcDbCircle
370
9
 62
9
  6
_SOLID
 10
4.2047005709
 20
5.1954521514
 30
0
 40
0.0362765723000003
100
AcDbArc
 50
179.389759281685
 51
179.986308611856
  0
ARC
  5
1D5
100
AcDbEntity
  8
SEMA2D
100
AcDbCircle
370
9
 62
9
  6
_SOLID
 10
4.2024700875
 20
5.2092038825
 30
0
 40
0.0208019986999997
100
AcDbArc
 50
179.995589617261
 51
184.54427358963
  0
ARC
  5
1D6
100
AcDbEntity
  8
SEMA2D
100
AcDbCircle
370
9
 62
9
  6
_SOLID
 10
4.1711398704
 20
5.2091983395
 30
0
 40
0.0206621621999998
100
AcDbArc
 50
355.440326065788
 51
0.0198106693331482
  0
ARC
  5
1D7
100
AcDbEntity
  8
SEMA2D
100
AcDbCircle
370
9
 62
9
  6
_SOLID
 10
4.1519303089
 20
5.1954685462
 30
0
 40
0.0204270707999998
100
AcDbArc
 50
-0.0216720087966888
 51
2.29249756018079
  0
ARC
  5
1D8
100
AcDbEntity
  8
SEMA2D
100
AcDbCircle
370
9
 62
9
  6
_SOLID
 10
4.1898274099
 20
5.2022217394
 30
0
 40
0.0199784579999998
100
AcDbArc
 50
159.539626157678
 51
164.755957196841
  0
ARC
  5
1D9
100
AcDbEntity
  8
SEMA2D
100
AcDbCircle
370
9
 62
9
  6
_SOLID
 10
4.1727660377
 20
5.1921062853
 30
0
 40
0.0155270824999998
100
AcDbArc
 50
95.7308023756879
 51
98.1982133490849
  0
ARC
  5
1DA
100
AcDbEntity
  8
SEMA2D
100
AcDbCircle
370
9
 62
9
  6
_SOLID
 10
4.1966110087
 20
5.2092043825
 30
0
 40
0.0133288539
100
AcDbArc
 50
179.995433022164
 51
185.677731885714
  0
ARC
  5
1DB
100
AcDbEntity
  8
SEMA2D
100
AcDbCircle
370
9
 62
9
  6
_SOLID
 10
4.1769279031
 20
5.2092009741
 30
0
 40
0.0132600630999997
100
AcDbArc
 50
354.307516532601
 51
0.019318504289072
  0
ARC
  5
1DC
100
AcDbEntity
  8
SEMA2D
100
AcDbCircle
370
9
 62
9
  6
_SOLID
 10
4.183954001
 20
5.2092045534
 30
0
 40
0.0128446739000001
100
AcDbArc
 50
179.995666089937
 51
187.375100349878
  0
ARC
  5
1DD
100
AcDbEntity
  8
SEMA2D
100
AcDbCircle
370
9
 62
9
  6
_SOLID
 10
4.1573058226
 20
5.1954523914
 30
0
 40
0.0126915310999998
100
AcDbArc
 50
0.0380494195053784
 51
1.65713199335684
  0
ARC
  5
1DE
100
AcDbEntity
  8
SEMA2D
100
AcDbCircle
370
9
 62
9
  6
_SOLID
 10
4.1717274913
 20
5.1932459593
 30
0
 40
0.00330349049999956
100
AcDbArc
 50
179.992826648594
 51
194.202166315926
  0
ARC
  5
1DF
100
AcDbEntity
  8
SEMA2D
100
AcDbCircle
370
9
 62
9
  6
_SOLID
 10
4.3685779976
 20
5.1634396054
 30
0
 40
0.0979224690999998
100
AcDbArc
 50
200.842934515698
 51
201.888879950268
  0
ARC
  5
1E0
100
AcDbEntity
  8
SEMA2D
100
AcDbCircle
370
9
 62
9
  6
_SOLID
 10
4.2554344899
 20
5.1745521514
 30
0
 40
0.0362765647000005
100
AcDbArc
 50
0.013691342307525
 51
0.610240775608405
  0
ARC
  5
1E1
100
AcDbEntity
  8
SEMA2D
100
AcDbCircle
370
9
 62
9
  6
_SOLID
 10
4.2399700222
 20
5.1745617075
 30
0
 40
0.0138548621999997
100
AcDbArc
 50
-0.00367649828571702
 51
3.4093657022275
  0
ARC
  5
1E2
100
AcDbEntity
  8
SEMA2D
100
AcDbCircle
370
9
 62
9
  6
_SOLID
 10
4.302829231
 20
5.1745523914
 30
0
 40
0.0126915313999998
100
AcDbArc
 50
178.342868041003
 51
179.961950511742
  0
ARC
  5
1E3
100
AcDbEntity
  8
SEMA2D
100
AcDbCircle
370
9
 62
9
  6
_SOLID
 10
4.2486939242
 20
5.1735264653
 30
0
 40
0.0105579117000003
100
AcDbArc
 50
179.926453598887
 51
214.168878761941
  0
ARC
  5
1E4
100
AcDbEntity
  8
SEMA2D
100
AcDbCircle
370
9
 62
9
  6
_SOLID
 10
4.2595755592
 20
5.1359206775
 30
0
 40
0.00640734939999987
100
AcDbArc
 50
235.668013427857
 51
239.400510174311
  0
ARC
  5
1E5
100
AcDbEntity
  8
SEMA2D
100
AcDbCircle
370
9
 62
9
  6
_SOLID
 10
4.2719497421
 20
5.1290252259
 30
0
 40
0.00499491169999988
100
AcDbArc
 50
255.827451658716
 51
273.838115287458
  0
ARC
  5
1E6
100
AcDbEntity
  8
SEMA2D
100
AcDbCircle
370
9
 62
9
  6
_SOLID
 10
4.2472267621
 20
5.1745619236
 30
0
 40
0.00498405699999971
100
AcDbArc
 50
-0.0127048980337724
 51
5.68589719052421
  0
ARC
  5
1E7
100
AcDbEntity
  8
SEMA2D
100
AcDbCircle
370
9
 62
9
  6
_SOLID
 10
4.2711487849
 20
5.1315778052
 30
0
 40
0.00425849599999983
100
AcDbArc
 50
255.092204834124
 51
270
  0
ARC
  5
1E8
100
AcDbEntity
  8
SEMA2D
100
AcDbCircle
370
9
 62
9
  6
_SOLID
 10
4.2600495616
 20
5.1352494034
 30
0
 40
0.00165499159999971
100
AcDbArc
 50
228.571388336826
 51
232.456808805734
  0
ARC
  5
1E9
100
AcDbEntity
  8
SEMA2D
100
AcDbCircle
370
9
 62
9
  6
_SOLID
 10
4.2928320638
 20
5.3279108805
 30
0
 40
0.1862275211
100
AcDbArc
 50
262.065458547972
 51
263.62525770324
  0
ARC
  5
1EA
100
AcDbEntity
  8
SEMA2D
100
AcDbCircle
370
9
 62
9
  6
_SOLID
 10
4.2573139205
 20
5.2202866426
 30
0
 40
0.1231921355
100
AcDbArc
 50
210.512364972941
 51
215.515004819106
  0
ARC
  5
1EB
100
AcDbEntity
  8
SEMA2D
100
AcDbCircle
370
9
 62
9
  6
_SOLID
 10
4.2309751486
 20
5.2161235155
 30
0
 40
0.1008875309
100
AcDbArc
 50
230.038946876265
 51
234.885733167668
  0
ARC
  5
1EC
100
AcDbEntity
  8
SEMA2D
100
AcDbCircle
370
9
 62
9
  6
_SOLID
 10
4.2291685918
 20
5.2161122089
 30
0
 40
0.100873285
100
AcDbArc
 50
305.113924545926
 51
309.961395735475
  0
ARC
  5
1ED
100
AcDbEntity
  8
SEMA2D
100
AcDbCircle
370
9
 62
9
  6
_SOLID
 10
4.31532489
 20
5.2185944705
 30
0
 40
0.0996425572000001
100
AcDbArc
 50
211.170370995321
 51
236.268704061085
  0
ARC
  5
1EE
100
AcDbEntity
  8
SEMA2D
100
AcDbCircle
370
9
 62
9
  6
_SOLID
 10
4.3144162916
 20
5.2173316868
 30
0
 40
0.0996252391999999
100
AcDbArc
 50
238.308170429619
 51
242.011767610052
  0
ARC
  5
1EF
100
AcDbEntity
  8
SEMA2D
100
AcDbCircle
370
9
 62
9
  6
_SOLID
 10
4.2290263792
 20
5.2164003674
 30
0
 40
0.0991438942
100
AcDbArc
 50
298.69247486055
 51
323.723751002978
  0
ARC
  5
1F0
100
AcDbEntity
  8
SEMA2D
100
AcDbCircle
370
9
 62
9
  6
_SOLID
 10
4.2311086726
 20
5.2164003661
 30
0
 40
0.0991438922999999
100
AcDbArc
 50
216.276249386672
 51
241.307564006069
  0
ARC
  5
1F1
100
AcDbEntity
  8
SEMA2D
100
AcDbCircle
370
9
 62
9
  6
_SOLID
 10
4.3150741617
 20
5.2185670867
 30
0
 40
0.0907763240000001
100
AcDbArc
 50
214.159137841313
 51
237.432813875449
  0
ARC
  5
1F2
100
AcDbEntity
  8
SEMA2D
100
AcDbCircle
370
9
 62
9
  6
_SOLID
 10
4.3150510079
 20
5.2185889826
 30
0
 40
0.0891290069000004
100
AcDbArc
 50
214.159307602535
 51
237.433697178967
  0
ARC
  5
1F3
100
AcDbEntity
  8
SEMA2D
100
AcDbCircle
370
9
 62
9
  6
_SOLID
 10
4.314929174
 20
5.2185293275
 30
0
 40
0.0869441326000002
100
AcDbArc
 50
214.146437872274
 51
240.529927967067
  0
ARC
  5
1F4
100
AcDbEntity
  8
SEMA2D
100
AcDbCircle
370
9
 62
9
  6
_SOLID
 10
4.2554344902
 20
5.1954521514
 30
0
 40
0.0362765644
100
AcDbArc
 50
0.0136913251185775
 51
0.610240798525294
  0
ARC
  5
1F5
100
AcDbEntity
  8
SEMA2D
100
AcDbCircle
370
9
 62
9
  6
_SOLID
 10
4.28913502
 20
5.2092038825
 30
0
 40
0.0208019982000001
100
AcDbArc
 50
179.995589611531
 51
184.544273606765
  0
ARC
  5
1F6
100
AcDbEntity
  8
SEMA2D
100
AcDbCircle
370
9
 62
9
  6
_SOLID
 10
4.257804803
 20
5.2091983395
 30
0
 40
0.0206621625999999
100
AcDbArc
 50
355.4403260715
 51
0.0198106807937258
  0
ARC
  5
1F7
100
AcDbEntity
  8
SEMA2D
100
AcDbCircle
370
9
 62
9
  6
_SOLID
 10
4.2703074995
 20
5.2022216931
 30
0
 40
0.0199786089999998
100
AcDbArc
 50
15.2440626209297
 51
20.4603543165365
  0
ARC
  5
1F8
100
AcDbEntity
  8
SEMA2D
100
AcDbCircle
370
9
 62
9
  6
_SOLID
 10
4.2873426602
 20
5.1918905338
 30
0
 40
0.0157443880999999
100
AcDbArc
 50
81.8188169473819
 51
84.252167319524
  0
ARC
  5
1F9
100
AcDbEntity
  8
SEMA2D
100
AcDbCircle
370
9
 62
9
  6
_SOLID
 10
4.283275942
 20
5.2092043826
 30
0
 40
0.0133288542000001
100
AcDbArc
 50
179.99543310811
 51
185.677731811027
  0
ARC
  5
1FA
100
AcDbEntity
  8
SEMA2D
100
AcDbCircle
370
9
 62
9
  6
_SOLID
 10
4.2635928362
 20
5.209200974
 30
0
 40
0.0132600630000002
100
AcDbArc
 50
354.307516515498
 51
0.0193185386636962
  0
ARC
  5
1FB
100
AcDbEntity
  8
SEMA2D
100
AcDbCircle
370
9
 62
9
  6
_SOLID
 10
4.276225659
 20
5.2092016803
 30
0
 40
0.0128000675999997
100
AcDbArc
 50
352.612023516449
 51
0.0172096642601948
  0
ARC
  5
1FC
100
AcDbEntity
  8
SEMA2D
100
AcDbCircle
370
9
 62
9
  6
_SOLID
 10
4.3028292321
 20
5.1954523914
 30
0
 40
0.0126915325999999
100
AcDbArc
 50
178.342868063913
 51
179.961950488824
  0
ARC
  5
1FD
100
AcDbEntity
  8
SEMA2D
100
AcDbCircle
370
9
 62
9
  6
_SOLID
 10
4.2884075622
 20
5.1932459593
 30
0
 40
0.00330349019999998
100
AcDbArc
 50
345.797848985328
 51
0.00717391289234739
  0
ARC
  5
1FE
100
AcDbEntity
  8
SEMA2D
100
AcDbCircle
370
9
 62
9
  6
_SOLID
 10
4.2879384587
 20
5.1936028999
 30
0
 40
0.00229139890000019
100
AcDbArc
 50
316.124534516894
 51
340.412738560382
  0
LINE
  5
1FF
100
AcDbEntity
  8
SEMA2D
100
AcDbLine
370
9
 62
7
  6
_SOLID
 10
4.3146357274
 20
5.0039388908
 30
0
 11
4.1454993259
 21
5.0039388908
 31
0
  0
LINE
  5
200
100
AcDbEntity
  8
SEMA2D
100
AcDbLine
370
9
 62
7
  6
_SOLID
 10
4.0164856694
 20
5.2248402173
 30
0
 11
4.0164859591
 21
5.0086971981
 31
0
  0
ARC
  5
201
100
AcDbEntity
  8
SEMA2D
100
AcDbCircle
370
9
 62
7
  6
_SOLID
 10
4.0183988325
 20
5.2248402199
 30
0
 40
0.00191316309999978
100
AcDbArc
 50
90
 51
180.000076793543
  0
LINE
  5
202
100
AcDbEntity
  8
SEMA2D
100
AcDbLine
370
9
 62
9
  6
_SOLID
 10
4.02090122
 20
5.2249924099
 30
0
 11
4.02090122
 21
5.0049515972
 31
0
  0
LINE
  5
203
100
AcDbEntity
  8
SEMA2D
100
AcDbLine
370
9
 62
7
  6
_SOLID
 10
4.0272023009
 20
5.2279389524
 30
0
 11
4.0272023009
 21
5.0039388908
 31
0
  0
LINE
  5
204
100
AcDbEntity
  8
SEMA2D
100
AcDbLine
370
9
 62
7
  6
_SOLID
 10
4.0299979439
 20
5.2279389524
 30
0
 11
4.0299979439
 21
5.0039388908
 31
0
  0
LINE
  5
205
100
AcDbEntity
  8
SEMA2D
100
AcDbLine
370
9
 62
9
  6
_SOLID
 10
4.0328911286
 20
5.2244619828
 30
0
 11
4.0328911286
 21
5.0054878595
 31
0
  0
LINE
  5
206
100
AcDbEntity
  8
SEMA2D
100
AcDbLine
370
9
 62
7
  6
_SOLID
 10
4.0346573489
 20
5.2244619828
 30
0
 11
4.0346573489
 21
5.0055827198
 31
0
  0
LINE
  5
207
100
AcDbEntity
  8
SEMA2D
100
AcDbLine
370
9
 62
9
  6
_SOLID
 10
4.0367294262
 20
5.2075223806
 30
0
 11
4.0367294262
 21
5.2212657021
 31
0
  0
LINE
  5
208
100
AcDbEntity
  8
SEMA2D
100
AcDbLine
370
9
 62
9
  6
_SOLID
 10
4.049117941
 20
5.2088397228
 30
0
 11
4.049117941
 21
5.2138589092
 31
0
  0
LINE
  5
209
100
AcDbEntity
  8
SEMA2D
100
AcDbLine
370
9
 62
7
  6
_SOLID
 10
4.0504993259
 20
5.2080947945
 30
0
 11
4.0504993259
 21
5.216616921
 31
0
  0
ARC
  5
20A
100
AcDbEntity
  8
SEMA2D
100
AcDbCircle
370
9
 62
7
  6
_SOLID
 10
4.0483819992
 20
5.2080947945
 30
0
 40
0.00211732670000053
100
AcDbArc
 50
280.190397765724
 51
0
  0
ARC
  5
20B
100
AcDbEntity
  8
SEMA2D
100
AcDbCircle
370
9
 62
7
  6
_SOLID
 10
4.0483807431
 20
5.216616921
 30
0
 40
0.0021185828000001
100
AcDbArc
 50
0
 51
59.1258054674322
  0
LINE
  5
20C
100
AcDbEntity
  8
SEMA2D
100
AcDbLine
370
9
 62
7
  6
_SOLID
 10
4.0487565962
 20
5.2060108681
 30
0
 11
4.0346573489
 21
5.2034764524
 31
0
  0
LINE
  5
20D
100
AcDbEntity
  8
SEMA2D
100
AcDbLine
370
9
 62
9
  6
_SOLID
 10
4.049117941
 20
5.2088397228
 30
0
 11
4.0366400936
 21
5.206596698
 31
0
  0
LINE
  5
20E
100
AcDbEntity
  8
SEMA2D
100
AcDbLine
370
9
 62
9
  6
_SOLID
 10
4.049117941
 20
5.2138589092
 30
0
 11
4.0367294262
 21
5.2212657021
 31
0
  0
LINE
  5
20F
100
AcDbEntity
  8
SEMA2D
100
AcDbLine
370
9
 62
7
  6
_SOLID
 10
4.0494679039
 20
5.2184352924
 30
0
 11
4.0373238032
 21
5.22569596
 31
0
  0
LINE
  5
210
100
AcDbEntity
  8
SEMA2D
100
AcDbLine
370
9
 62
7
  6
_SOLID
 10
4.0272023009
 20
5.2272264524
 30
0
 11
4.018296764
 21
5.2267506584
 31
0
  0
LINE
  5
211
100
AcDbEntity
  8
SEMA2D
100
AcDbLine
370
9
 62
9
  6
_SOLID
 10
4.0367294262
 20
5.2075223806
 30
0
 11
4.0346573489
 21
5.2075223806
 31
0
  0
LINE
  5
212
100
AcDbEntity
  8
SEMA2D
100
AcDbLine
370
9
 62
9
  6
_SOLID
 10
4.049117941
 20
5.2088397228
 30
0
 11
4.0504993259
 21
5.2088397228
 31
0
  0
LINE
  5
213
100
AcDbEntity
  8
SEMA2D
100
AcDbLine
370
9
 62
9
  6
_SOLID
 10
4.049117941
 20
5.2138589092
 30
0
 11
4.0504993259
 21
5.2138589092
 31
0
  0
LINE
  5
214
100
AcDbEntity
  8
SEMA2D
100
AcDbLine
370
9
 62
9
  6
_SOLID
 10
4.0164856694
 20
5.2142510799
 30
0
 11
4.0155537884
 21
5.2142510799
 31
0
  0
LINE
  5
215
100
AcDbEntity
  8
SEMA2D
100
AcDbLine
370
9
 62
9
  6
_SOLID
 10
4.0164856694
 20
5.2143906363
 30
0
 11
4.0155537884
 21
5.2143906363
 31
0
  0
LINE
  5
216
100
AcDbEntity
  8
SEMA2D
100
AcDbLine
370
9
 62
9
  6
_SOLID
 10
4.0367294262
 20
5.2212657061
 30
0
 11
4.0346573489
 21
5.2212657061
 31
0
  0
LINE
  5
217
100
AcDbEntity
  8
SEMA2D
100
AcDbLine
370
9
 62
9
  6
_SOLID
 10
4.0346573489
 20
5.2244619828
 30
0
 11
4.0328911286
 21
5.2244619828
 31
0
  0
LINE
  5
218
100
AcDbEntity
  8
SEMA2D
100
AcDbLine
370
9
 62
7
  6
_SOLID
 10
4.0299979439
 20
5.2279389524
 30
0
 11
4.0272023009
 21
5.2279389524
 31
0
  0
LINE
  5
219
100
AcDbEntity
  8
SEMA2D
100
AcDbLine
370
9
 62
9
  6
_SOLID
 10
4.0299979439
 20
5.2246165563
 30
0
 11
4.0328911286
 21
5.2244619828
 31
0
  0
LINE
  5
21A
100
AcDbEntity
  8
SEMA2D
100
AcDbLine
370
9
 62
7
  6
_SOLID
 10
4.0299979439
 20
5.2265139524
 30
0
 11
4.0356331683
 21
5.2262128806
 31
0
  0
ARC
  5
21B
100
AcDbEntity
  8
SEMA2D
100
AcDbCircle
370
9
 62
9
  6
_SOLID
 10
3.8232984553
 20
5.2263579595
 30
0
 40
0.2133334286
100
AcDbArc
 50
358.816524828806
 51
359.191266365231
  0
ARC
  5
21C
100
AcDbEntity
  8
SEMA2D
100
AcDbCircle
370
9
 62
7
  6
_SOLID
 10
4.0236668771
 20
5.211147489
 30
0
 40
0.00949407989999962
100
AcDbArc
 50
142.871450815042
 51
145.399203150473
  0
ARC
  5
21D
100
AcDbEntity
  8
SEMA2D
100
AcDbCircle
370
9
 62
7
  6
_SOLID
 10
4.023657909
 20
5.2109940433
 30
0
 40
0.00948286719999958
100
AcDbArc
 50
215.768367787405
 51
220.857857630254
  0
ARC
  5
21E
100
AcDbEntity
  8
SEMA2D
100
AcDbCircle
370
9
 62
9
  6
_SOLID
 10
4.0318906774
 20
5.2075221905
 30
0
 40
0.00483874890000013
100
AcDbArc
 50
348.973271792484
 51
0.0022509964828015
  0
ARC
  5
21F
100
AcDbEntity
  8
SEMA2D
100
AcDbCircle
370
9
 62
7
  6
_SOLID
 10
4.0354359086
 20
5.2225452189
 30
0
 40
0.00367285090000014
100
AcDbArc
 50
59.0703521086933
 51
83.4462787530871
  0
ARC
  5
220
100
AcDbEntity
  8
SEMA2D
100
AcDbCircle
370
9
 62
7
  6
_SOLID
 10
4.0354366912
 20
5.2225672193
 30
0
 40
0.00365090000000023
100
AcDbArc
 50
84.926723750154
 51
86.9151206646247
  0
ARC
  5
221
100
AcDbEntity
  8
SEMA2D
100
AcDbCircle
370
9
 62
9
  6
_SOLID
 10
4.0355561452
 20
5.222703935
 30
0
 40
0.00347514390000025
100
AcDbArc
 50
59.4256567533358
 51
86.6871691420116
  0
ARC
  5
222
100
AcDbEntity
  8
SEMA2D
100
AcDbCircle
370
9
 62
7
  6
_SOLID
 10
4.0327130894
 20
5.2244602038
 30
0
 40
0.00194432989999971
100
AcDbArc
 50
7.53071421416687
 51
11.8010700071635
  0
ARC
  5
223
100
AcDbEntity
  8
SEMA2D
100
AcDbCircle
370
9
 62
7
  6
_SOLID
 10
4.0327196414
 20
5.2244609426
 30
0
 40
0.00193773620000037
100
AcDbArc
 50
4.06559377041863
 51
7.53207982582204
  0
ARC
  5
224
100
AcDbEntity
  8
SEMA2D
100
AcDbCircle
370
9
 62
7
  6
_SOLID
 10
4.0327230508
 20
5.2244626567
 30
0
 40
0.00193408030000031
100
AcDbArc
 50
11.7929158138062
 51
19.3806657030065
  0
ARC
  5
225
100
AcDbEntity
  8
SEMA2D
100
AcDbCircle
370
9
 62
7
  6
_SOLID
 10
4.0327342718
 20
5.2244618594
 30
0
 40
0.00192307709999984
100
AcDbArc
 50
0.00325809013678713
 51
3.84644272949165
  0
ARC
  5
226
100
AcDbEntity
  8
SEMA2D
100
AcDbCircle
370
9
 62
7
  6
_SOLID
 10
4.0145642299
 20
5.2180365189
 30
0
 40
0.00192144109999948
100
AcDbArc
 50
322.92805025968
 51
0.0739488470078459
  0
ARC
  5
227
100
AcDbEntity
  8
SEMA2D
100
AcDbCircle
370
9
 62
7
  6
_SOLID
 10
4.0327540423
 20
5.2244733518
 30
0
 40
0.00190129589999977
100
AcDbArc
 50
19.3865497367935
 51
23.8456625342583
  0
LINE
  5
228
100
AcDbEntity
  8
SEMA2D
100
AcDbLine
370
9
 62
9
  6
_SOLID
 10
4.02090122
 20
5.2249924099
 30
0
 11
4.0164856694
 21
5.2248508647
 31
0
  0
LINE
  5
229
100
AcDbEntity
  8
SEMA2D
100
AcDbLine
370
9
 62
7
  6
_SOLID
 10
4.0345623741
 20
5.0055776189
 30
0
 11
4.0299273741
 21
5.005328682
 31
0
  0
LINE
  5
22A
100
AcDbEntity
  8
SEMA2D
100
AcDbLine
370
9
 62
7
  6
_SOLID
 10
4.0299273741
 20
5.003903682
 30
0
 11
4.0271463741
 21
5.003903682
 31
0
  0
LINE
  5
22B
100
AcDbEntity
  8
SEMA2D
100
AcDbLine
370
9
 62
7
  6
_SOLID
 10
4.02
 20
5.005
 30
0
 11
4.0271463741
 21
5.004616182
 31
0
  0
ARC
  5
22C
100
AcDbEntity
  8
SEMA2D
100
AcDbCircle
370
9
 62
7
  6
_SOLID
 10
4.020240941
 20
5.0087475826
 30
0
 40
0.00375531990000022
100
AcDbArc
 50
179.231403157536
 51
266.321381002566
  0
LINE
  5
22D
100
AcDbEntity
  8
SEMA2D
100
AcDbLine
370
9
 62
7
  6
_DOT
 10
4.0504993259
 20
5.2579388908
 30
0
 11
4.0504993259
 21
5.2184352924
 31
0
  0
LINE
  5
22E
100
AcDbEntity
  8
SEMA2D
100
AcDbLine
370
9
 62
7
  6
_DOT
 10
4.0346573489
 20
5.2579388908
 30
0
 11
4.0346573489
 21
5.2261940687
 31
0
  0
LINE
  5
22F
100
AcDbEntity
  8
SEMA2D
100
AcDbLine
370
9
 62
7
  6
_DOT
 10
4.0164856694
 20
5.2579388908
 30
0
 11
4.0164856694
 21
5.2279388908
 31
0
  0
LINE
  5
230
100
AcDbEntity
  8
SEMA2D
100
AcDbLine
370
9
 62
7
  6
_DOT
 10
4.0646573489
 20
5.2034764524
 30
0
 11
4.0346573489
 21
5.2034764524
 31
0
  0
LINE
  5
231
100
AcDbEntity
  8
SEMA2D
100
AcDbLine
370
9
 62
7
  6
_DOT
 10
4.0646573489
 20
5.0039388908
 30
0
 11
4.0299979439
 21
5.0039388908
 31
0
  0
LINE
  5
232
100
AcDbEntity
  8
SEMA2D
100
AcDbLine
370
9
 62
7
  6
_DOT
 10
4.3446357274
 20
5.0039388908
 30
0
 11
4.3146357274
 21
5.0039388908
 31
0
  0
LINE
  5
233
100
AcDbEntity
  8
SEMA2D
100
AcDbLine
370
9
 62
7
  6
_DOT
 10
4.3446357274
 20
5.2279388908
 30
0
 11
4.3146357274
 21
5.2279388908
 31
0
  0
LINE
  5
234
100
AcDbEntity
  8
SEMA2D
100
AcDbLine
370
9
 62
7
  6
_DOT
 10
4.3146357274
 20
5.2579388908
 30
0
 11
4.3146357274
 21
5.2279388908
 31
0
  0
LINE
  5
235
100
AcDbEntity
  8
SEMA2D
100
AcDbLine
370
9
 62
7
  6
_DOT
 10
4.1454993259
 20
5.2579388908
 30
0
 11
4.1454993259
 21
5.2279388908
 31
0
  0
LINE
  5
236
100
AcDbEntity
  8
SEMA2D
100
AcDbLine
370
9
 62
7
  6
_DOT
 10
3.9972023009
 20
5.2034764524
 30
0
 11
4.0328911286
 21
5.2034764524
 31
0
  0
LINE
  5
237
100
AcDbEntity
  8
SEMA2D
100
AcDbLine
370
9
 62
7
  6
_DOT
 10
3.9972023009
 20
5.2279389524
 30
0
 11
4.02090122
 21
5.2279389524
 31
0
  0
ENDSEC
  0
SECTION
  2
OBJECTS
  0
DICTIONARY
  5
248
100
AcDbDictionary
  3
ACAD_GROUP
350
249
  3
ACAD_MATERIAL
350
24A
  3
ACAD_WIPEOUT_VARS
350
24B
  3
ACAD_MLINESTYLE
350
24C
  3
ACAD_LAYOUT
350
24D
  0
DICTIONARY
  5
249
330
248
100
AcDbDictionary
  0
DICTIONARY
  5
24A
330
248
100
AcDbDictionary
  0
WIPEOUTVARIABLES
  5
24B
330
248
100
AcDbWipeoutVariables
 70
1
  0
DICTIONARY
  5
24C
330
248
100
AcDbDictionary
  3
STANDARD
350
24E
  0
MLINESTYLE
  5
24E
100
AcDbMlineStyle
  2
STANDARD
 70
0
  3

 62
256
 51
90
 52
90
 71
2
 49
0.5
 62
256
  6
ByLayer
 49
-0.5
 62
256
  6
ByLayer
  0
DICTIONARY
  5
24D
100
AcDbDictionary
281
1
  3
Model
350
238
  0
LAYOUT
  5
238
102
{ACAD_REACTORS
330
24D
102
}
330
24D
100
AcDbPlotSettings
  1

  2
none_device
  4

  6

 40
0
 41
0
 42
0
 43
0
 44
0
 45
0
 46
0
 47
0
 48
0
 49
0
 70
1712
 72
1
 73
0
 74
5
 75
16
 76
0
 77
0
 78
100
140
0
141
0
142
1
143
1
147
1
148
0
149
0
100
AcDbLayout
  1
Model
 70
1
 71
1
 10
3.9888023009
 20
5.003903682
 11
4.35703607491219
 21
5.379796489333
 12
0
 22
0
 32
0
 14
3.9888023009
 24
5.003903682
 34
0
 15
4.35703607491219
 25
5.379796489333
 35
0
146
0
 13
0
 23
0
 33
0
 16
1
 26
0
 36
0
 17
0
 27
1
 37
0
 76
0
330
2A
  0
DICTIONARY
  5
24F
100
AcDbDictionary
280
1
  3
XINFO
360
250
  0
XRECORD
  5
250
102
{ACAD_REACTORS
330
24F
102
}
330
24F
100
AcDbXrecord
280
0
310
0000000002001400
311
1520A6D2908A7AA2
  0
ENDSEC
  0
EOF
