999
Created by Soft Gold Ltd. www.cadsofttools.com
999

  0
SECTION
  2
HEADER
  9
$ACADVER
  1
AC1021
  9
$DWGCODEPAGE
  3
ANSI_1252
  9
$CLAYER
  8
0
  9
$CELTYPE
  6
BYLAYER
  9
$CELTSCALE
 40
1
  9
$CELWEIGHT
370
-1
  9
$DIMALT
 70
0
  9
$DIMALTF
 40
1
  9
$DIMPOST
  1

  9
$DIMAPOST
  1

  9
$DIMSCALE
 40
1
  9
$DIMASZ
 40
0.18
  9
$DIMCLRD
 70
0
  9
$DIMCLRE
 70
0
  9
$DIMCLRT
 70
0
  9
$DIMEXE
 40
0.18
  9
$DIMEXO
 40
0.0625
  9
$DIMGAP
 40
0.0625
  9
$DIMLFAC
 40
1
  9
$DIMDEC
 70
4
  9
$DIMTAD
 70
0
  9
$DIMCEN
 40
0.09
  9
$DIMTIH
 70
1
  9
$DIMTIX
 70
0
  9
$DIMTOH
 70
1
  9
$DIMSE1
 70
0
  9
$DIMSE2
 70
0
  9
$DIMSD1
 70
0
  9
$DIMSD2
 70
0
  9
$DIMLWD
 70
-1
  9
$DIMLWE
 70
-1
  9
$DIMSAH
 70
0
  9
$DIMBLK
  1

  9
$DIMBLK1
  1

  9
$DIMBLK2
  1

  9
$DIMLDRBLK
  1

  9
$DIMSTYLE
  2
STANDARD
  9
$DIMTP
 40
0
  9
$DIMTM
 40
0
  9
$DIMTXT
 40
0.18
  9
$DIMLUNIT
 70
2
  9
$DIMDSEP
 70
46
  9
$DIMTXSTY
  7
STANDARD
  9
$TEXTSIZE
 40
0.18
  9
$TEXTSTYLE
  7
STANDARD
  9
$HANDSEED
  5
00000000000003F1
  9
$FILLETRAD
 40
0.5
  9
$INSUNITS
 70
4
  9
$LIMMIN
 10
3.5731262968625
 20
4.1374985470849
  9
$LIMMAX
 10
4.2353433282375
 20
5.02851307623591
  9
$FILLMODE
 70
1
  9
$LTSCALE
 40
1
  9
$MEASUREMENT
 70
0
  9
$ATTMODE
 70
1
  9
$PDMODE
 70
0
  9
$PDSIZE
 40
0
  9
$TILEMODE
 70
1
  9
$UCSORG
 10
0
 20
0
 30
0
  9
$UCSXDIR
 10
1
 20
0
 30
0
  9
$UCSYDIR
 10
0
 20
1
 30
0
  9
$INSBASE
 10
0
 20
0
 30
0
  9
$XCLIPFRAME
290
1
  9
$DIMASSOC
280
2
  9
$TDCREATE
 40
2459012.5883094
  9
$TDINDWG
 40
2.5462962962963E-7
  9
$TDUPDATE
 40
2459012.58830965
  0
ENDSEC
  0
SECTION
  2
CLASSES
  0
CLASS
  1
IMAGE
  2
AcDbRasterImage
  3
ISM
 90
2175
 91
1
280
0
281
1
  0
CLASS
  1
IMAGEDEF
  2
AcDbRasterImageDef
  3
ISM
 90
0
 91
1
280
0
281
0
  0
CLASS
  1
WIPEOUT
  2
AcDbWipeout
  3
"WipeOut"
 90
2175
 91
1
280
0
281
1
  0
CLASS
  1
WIPEOUTVARIABLES
  2
AcDbWipeoutVariables
  3
"WipeOut"
 90
0
 91
1
280
0
281
0
  0
CLASS
  1
MPOLYGON
  2
AcDbMPolygon
  3
"AcMPolygonObj15"
 90
3071
 91
1
280
0
281
1
  0
ENDSEC
  0
SECTION
  2
TABLES
  0
TABLE
  2
APPID
  5
3D9
100
AcDbSymbolTable
  0
APPID
  5
3DA
100
AcDbSymbolTableRecord
100
AcDbRegAppTableRecord
  2
ACAD
 70
0
  0
APPID
  5
12
100
AcDbSymbolTableRecord
100
AcDbRegAppTableRecord
  2
CSTINVENTORY
 70
0
  0
APPID
  5
3DB
100
AcDbSymbolTableRecord
100
AcDbRegAppTableRecord
  2
PE_URL
 70
0
  0
ENDTAB
  0
TABLE
  2
BLOCK_RECORD
  5
3DC
100
AcDbSymbolTable
  0
BLOCK_RECORD
  5
2A
100
AcDbSymbolTableRecord
100
AcDbBlockTableRecord
  2
*MODEL_SPACE
  0
BLOCK_RECORD
  5
3DD
100
AcDbSymbolTableRecord
100
AcDbBlockTableRecord
  2
*PAPER_SPACE
  0
BLOCK_RECORD
  5
10
100
AcDbSymbolTableRecord
100
AcDbBlockTableRecord
  2
_CLOSEDFILLED
  0
ENDTAB
  0
TABLE
  2
STYLE
  5
3
100
AcDbSymbolTable
  0
STYLE
  5
A
100
AcDbSymbolTableRecord
100
AcDbTextStyleTableRecord
  2
STANDARD
 70
0
 40
0
 41
1
 50
0
 71
0
 42
2.5
  3
txt
  4

1001
ACAD
1000
txt
1071
0
  0
ENDTAB
  0
TABLE
  2
LTYPE
  5
1
100
AcDbSymbolTable
  0
LTYPE
  5
9
100
AcDbSymbolTableRecord
100
AcDbLinetypeTableRecord
  2
CONTINUOUS
 70
0
  3

 72
65
 73
0
 40
0
  0
LTYPE
  5
7
100
AcDbSymbolTableRecord
100
AcDbLinetypeTableRecord
  2
BYLAYER
 70
0
  3

 72
65
 73
0
 40
0
  0
LTYPE
  5
8
100
AcDbSymbolTableRecord
100
AcDbLinetypeTableRecord
  2
BYBLOCK
 70
0
  3

 72
65
 73
0
 40
0
  0
LTYPE
  5
13
100
AcDbSymbolTableRecord
100
AcDbLinetypeTableRecord
  2
_SOLID
 70
0
  3
_.
 72
65
 73
2
 40
5
 49
5
 74
0
 49
0
 74
0
  0
LTYPE
  5
14
100
AcDbSymbolTableRecord
100
AcDbLinetypeTableRecord
  2
_DASH
 70
0
  3
_ 
 72
65
 73
2
 40
7
 49
5
 74
0
 49
-2
 74
0
  0
LTYPE
  5
15
100
AcDbSymbolTableRecord
100
AcDbLinetypeTableRecord
  2
_DOT
 70
0
  3
_ 
 72
65
 73
2
 40
4
 49
2
 74
0
 49
-2
 74
0
  0
LTYPE
  5
16
100
AcDbSymbolTableRecord
100
AcDbLinetypeTableRecord
  2
_DASHDOT
 70
0
  3
_ _ 
 72
65
 73
4
 40
11
 49
5
 74
0
 49
-2
 74
0
 49
2
 74
0
 49
-2
 74
0
  0
LTYPE
  5
17
100
AcDbSymbolTableRecord
100
AcDbLinetypeTableRecord
  2
_DASHDOTDOT
 70
0
  3
_ _ _ 
 72
65
 73
6
 40
15
 49
5
 74
0
 49
-2
 74
0
 49
2
 74
0
 49
-2
 74
0
 49
2
 74
0
 49
-2
 74
0
  0
LTYPE
  5
18
100
AcDbSymbolTableRecord
100
AcDbLinetypeTableRecord
  2
ISO128-20-02
 70
0
  3
_ 
 72
65
 73
2
 40
5
 49
4
 74
0
 49
-1
 74
0
  0
LTYPE
  5
19
100
AcDbSymbolTableRecord
100
AcDbLinetypeTableRecord
  2
ISO128-20-03
 70
0
  3
_ 
 72
65
 73
2
 40
10
 49
4
 74
0
 49
-6
 74
0
  0
LTYPE
  5
1A
100
AcDbSymbolTableRecord
100
AcDbLinetypeTableRecord
  2
ISO128-20-04
 70
0
  3
_ . 
 72
65
 73
4
 40
10
 49
8
 74
0
 49
-1
 74
0
 49
0
 74
0
 49
-1
 74
0
  0
LTYPE
  5
1B
100
AcDbSymbolTableRecord
100
AcDbLinetypeTableRecord
  2
ISO128-20-05
 70
0
  3
_ . . 
 72
65
 73
6
 40
11
 49
8
 74
0
 49
-1
 74
0
 49
0
 74
0
 49
-1
 74
0
 49
0
 74
0
 49
-1
 74
0
  0
LTYPE
  5
1C
100
AcDbSymbolTableRecord
100
AcDbLinetypeTableRecord
  2
ISO128-20-06
 70
0
  3
_ . . . 
 72
65
 73
8
 40
12
 49
8
 74
0
 49
-1
 74
0
 49
0
 74
0
 49
-1
 74
0
 49
0
 74
0
 49
-1
 74
0
 49
0
 74
0
 49
-1
 74
0
  0
LTYPE
  5
1D
100
AcDbSymbolTableRecord
100
AcDbLinetypeTableRecord
  2
ISO128-20-07
 70
0
  3
. 
 72
65
 73
2
 40
1
 49
0
 74
0
 49
-1
 74
0
  0
LTYPE
  5
1E
100
AcDbSymbolTableRecord
100
AcDbLinetypeTableRecord
  2
ISO128-20-08
 70
0
  3
_ _ 
 72
65
 73
4
 40
12
 49
8
 74
0
 49
-1
 74
0
 49
2
 74
0
 49
-1
 74
0
  0
LTYPE
  5
1F
100
AcDbSymbolTableRecord
100
AcDbLinetypeTableRecord
  2
ISO128-20-09
 70
0
  3
_ _ _ 
 72
65
 73
6
 40
15
 49
8
 74
0
 49
-1
 74
0
 49
2
 74
0
 49
-1
 74
0
 49
2
 74
0
 49
-1
 74
0
  0
LTYPE
  5
20
100
AcDbSymbolTableRecord
100
AcDbLinetypeTableRecord
  2
ISO128-20-10
 70
0
  3
_ . 
 72
65
 73
4
 40
10
 49
8
 74
0
 49
-1
 74
0
 49
0
 74
0
 49
-1
 74
0
  0
LTYPE
  5
21
100
AcDbSymbolTableRecord
100
AcDbLinetypeTableRecord
  2
ISO128-20-11
 70
0
  3
_ _ . 
 72
65
 73
6
 40
11
 49
4
 74
0
 49
-1
 74
0
 49
4
 74
0
 49
-1
 74
0
 49
0
 74
0
 49
-1
 74
0
  0
LTYPE
  5
22
100
AcDbSymbolTableRecord
100
AcDbLinetypeTableRecord
  2
ISO128-20-12
 70
0
  3
_ . . 
 72
65
 73
6
 40
7
 49
4
 74
0
 49
-1
 74
0
 49
0
 74
0
 49
-1
 74
0
 49
0
 74
0
 49
-1
 74
0
  0
LTYPE
  5
23
100
AcDbSymbolTableRecord
100
AcDbLinetypeTableRecord
  2
ISO128-20-13
 70
0
  3
_ _ . . 
 72
65
 73
8
 40
12
 49
4
 74
0
 49
-1
 74
0
 49
4
 74
0
 49
-1
 74
0
 49
0
 74
0
 49
-1
 74
0
 49
0
 74
0
 49
-1
 74
0
  0
LTYPE
  5
24
100
AcDbSymbolTableRecord
100
AcDbLinetypeTableRecord
  2
ISO128-20-14
 70
0
  3
_ . . . 
 72
65
 73
8
 40
8
 49
4
 74
0
 49
-1
 74
0
 49
0
 74
0
 49
-1
 74
0
 49
0
 74
0
 49
-1
 74
0
 49
0
 74
0
 49
-1
 74
0
  0
LTYPE
  5
25
100
AcDbSymbolTableRecord
100
AcDbLinetypeTableRecord
  2
ISO128-20-15
 70
0
  3
_ _ . . . 
 72
65
 73
10
 40
13
 49
4
 74
0
 49
-1
 74
0
 49
4
 74
0
 49
-1
 74
0
 49
0
 74
0
 49
-1
 74
0
 49
0
 74
0
 49
-1
 74
0
 49
0
 74
0
 49
-1
 74
0
  0
LTYPE
  5
26
100
AcDbSymbolTableRecord
100
AcDbLinetypeTableRecord
  2
kurzgestrichelt
 70
0
  3
_ 
 72
65
 73
2
 40
3
 49
2
 74
0
 49
-1
 74
0
  0
ENDTAB
  0
TABLE
  2
LAYER
  5
2
100
AcDbSymbolTable
  0
LAYER
  5
E
100
AcDbSymbolTableRecord
100
AcDbLayerTableRecord
  2
0
 70
0
 62
7
  6
CONTINUOUS
290
1
370
-3
390
0
  0
LAYER
  5
27
100
AcDbSymbolTableRecord
100
AcDbLayerTableRecord
  2
SEMA2D
 70
0
 62
7
290
1
370
-3
390
0
  0
LAYER
  5
2B
100
AcDbSymbolTableRecord
100
AcDbLayerTableRecord
  2
SEMATEXT
 70
0
 62
7
290
1
370
-3
390
0
  0
ENDTAB
  0
TABLE
  2
VPORT
  5
3DE
100
AcDbSymbolTable
  0
VPORT
  5
3E0
100
AcDbSymbolTableRecord
100
AcDbViewportTableRecord
  2
*ACTIVE
 70
0
 10
0
 20
0
 11
1
 21
1
 12
3.90423481255
 22
4.5830058116604
 32
0
 13
0
 23
0
 14
1
 24
1
 15
1
 25
1
 16
0
 26
0
 36
1
 17
0
 27
0
 37
0
 40
0.712811623320807
 41
0.743216872126636
 42
50
 43
0
 44
0
 50
0
 51
0
 71
0
 72
100
 73
1
 74
1
 75
0
 76
0
 77
0
 78
0
  0
ENDTAB
  0
TABLE
  2
VIEW
  5
3E1
100
AcDbSymbolTable
  0
ENDTAB
  0
TABLE
  2
UCS
  5
3E2
100
AcDbSymbolTable
  0
ENDTAB
  0
TABLE
  2
DIMSTYLE
  5
4
100
AcDbSymbolTable
 70
1
100
AcDbDimStyleTable
 71
0
  0
DIMSTYLE
105
B
100
AcDbSymbolTableRecord
100
AcDbDimStyleTableRecord
  2
STANDARD
 70
0
  3

 40
1
 41
0.18
 42
0.0625
 44
0.18
 47
0
 48
0
 73
1
 74
1
 75
0
 76
0
 77
0
140
0.18
141
0.09
144
1
147
0.0625
173
0
174
0
176
0
177
0
178
0
277
2
278
46
281
0
282
0
271
4
340
A
371
-1
372
-1
  0
ENDTAB
  0
ENDSEC
  0
SECTION
  2
BLOCKS
  0
BLOCK
  5
3E3
100
AcDbEntity
  8
0
100
AcDbBlockBegin
  2
*MODEL_SPACE
 70
0
 10
0
 20
0
  0
ENDBLK
  5
3E4
100
AcDbEntity
  8
0
100
AcDbBlockEnd
  0
BLOCK
  5
3E5
100
AcDbEntity
  8
0
100
AcDbBlockBegin
  2
*PAPER_SPACE
 70
0
 10
0
 20
0
  0
ENDBLK
  5
3E6
100
AcDbEntity
  8
0
100
AcDbBlockEnd
  0
BLOCK
  5
F
100
AcDbEntity
  8
0
100
AcDbBlockBegin
  2
_CLOSEDFILLED
 70
0
 10
0
 20
0
 30
0
  3
_CLOSEDFILLED
  1

  0
SOLID
  5
C
100
AcDbEntity
  8
0
100
AcDbTrace
370
-2
 62
0
 10
-1
 20
0.166666666666667
 30
0
 11
0
 21
0
 31
0
 12
-1
 22
0.166666666666667
 32
0
 13
-1
 23
-0.166666666666667
 33
0
  0
LINE
  5
D
100
AcDbEntity
  8
0
100
AcDbLine
370
-2
 62
0
 10
-1
 20
0
 30
0
 11
-2
 21
0
 31
0
  0
ENDBLK
  5
3E7
100
AcDbEntity
  8
0
100
AcDbBlockEnd
  0
ENDSEC
  0
SECTION
  2
ENTITIES
  0
LINE
  5
28
100
AcDbEntity
  8
SEMA2D
100
AcDbLine
370
9
 62
7
  6
_SOLID
 10
4.1170228667
 20
4.764552
 30
0
 11
3.8650521822
 21
4.764552
 31
0
  0
MTEXT
  5
2C
100
AcDbEntity
  8
SEMATEXT
100
AcDbMText
370
9
 62
7
 10
3.97994492384024
 20
4.78058822926829
 30
0
 40
0.010476
  1
{\fHelveticaNeueLT Com 55 Roman;252}
 50
0
 41
0
  7
STANDARD
 71
0
 73
1
 44
1
  0
LINE
  5
31
100
AcDbEntity
  8
SEMA2D
100
AcDbLine
370
9
 62
7
  6
_SOLID
 10
4.1170228667
 20
4.764552
 30
0
 11
4.1170228667
 21
4.756152
 31
0
  0
LINE
  5
32
100
AcDbEntity
  8
SEMA2D
100
AcDbLine
370
9
 62
7
  6
_SOLID
 10
4.1170228667
 20
4.764552
 30
0
 11
4.1170228667
 21
4.772952
 31
0
  0
LINE
  5
33
100
AcDbEntity
  8
SEMA2D
100
AcDbLine
370
9
 62
7
  6
_SOLID
 10
3.8650521822
 20
4.764552
 30
0
 11
3.8650521822
 21
4.756152
 31
0
  0
LINE
  5
34
100
AcDbEntity
  8
SEMA2D
100
AcDbLine
370
9
 62
7
  6
_SOLID
 10
3.8650521822
 20
4.764552
 30
0
 11
3.8650521822
 21
4.772952
 31
0
  0
LINE
  5
35
100
AcDbEntity
  8
SEMA2D
100
AcDbLine
370
9
 62
7
  6
_SOLID
 10
3.7328296085
 20
4.6865904848
 30
0
 11
3.7328296085
 21
4.3145772052
 31
0
  0
MTEXT
  5
36
100
AcDbEntity
  8
SEMATEXT
100
AcDbMText
370
9
 62
7
 10
3.71670702007202
 20
4.56948066933612
 30
0
 40
0.010476
  1
{\fHelveticaNeueLT Com 55 Roman;372}
 50
90
 41
0
  7
STANDARD
 71
0
 73
1
 44
1
  0
LINE
  5
3B
100
AcDbEntity
  8
SEMA2D
100
AcDbLine
370
9
 62
7
  6
_SOLID
 10
3.7328296085
 20
4.6865904848
 30
0
 11
3.7412296085
 21
4.6865904848
 31
0
  0
LINE
  5
3C
100
AcDbEntity
  8
SEMA2D
100
AcDbLine
370
9
 62
7
  6
_SOLID
 10
3.7328296085
 20
4.6865904848
 30
0
 11
3.7244296085
 21
4.6865904848
 31
0
  0
LINE
  5
3D
100
AcDbEntity
  8
SEMA2D
100
AcDbLine
370
9
 62
7
  6
_SOLID
 10
3.7328296085
 20
4.3145772052
 30
0
 11
3.7412296085
 21
4.3145772052
 31
0
  0
LINE
  5
3E
100
AcDbEntity
  8
SEMA2D
100
AcDbLine
370
9
 62
7
  6
_SOLID
 10
3.7328296085
 20
4.3145772052
 30
0
 11
3.7244296085
 21
4.3145772052
 31
0
  0
LINE
  5
3F
100
AcDbEntity
  8
SEMA2D
100
AcDbLine
370
9
 62
7
  6
_SOLID
 10
3.696281
 20
4.235
 30
0
 11
3.645
 21
4.235
 31
0
  0
MTEXT
  5
40
100
AcDbEntity
  8
SEMATEXT
100
AcDbMText
370
9
 62
7
 10
3.66350954246516
 20
4.25103622926829
 30
0
 40
0.010476
  1
{\fHelveticaNeueLT Com 55 Roman;51}
 50
0
 41
0
  7
STANDARD
 71
0
 73
1
 44
1
  0
LINE
  5
45
100
AcDbEntity
  8
SEMA2D
100
AcDbLine
370
9
 62
7
  6
_SOLID
 10
3.696281
 20
4.235
 30
0
 11
3.696281
 21
4.2266
 31
0
  0
LINE
  5
46
100
AcDbEntity
  8
SEMA2D
100
AcDbLine
370
9
 62
7
  6
_SOLID
 10
3.696281
 20
4.235
 30
0
 11
3.696281
 21
4.2434
 31
0
  0
LINE
  5
47
100
AcDbEntity
  8
SEMA2D
100
AcDbLine
370
9
 62
7
  6
_SOLID
 10
3.645
 20
4.235
 30
0
 11
3.645
 21
4.2266
 31
0
  0
LINE
  5
48
100
AcDbEntity
  8
SEMA2D
100
AcDbLine
370
9
 62
7
  6
_SOLID
 10
3.645
 20
4.235
 30
0
 11
3.645
 21
4.2434
 31
0
  0
LINE
  5
49
100
AcDbEntity
  8
SEMA2D
100
AcDbLine
370
9
 62
7
  6
_SOLID
 10
4.1169812418
 20
4.923460843
 30
0
 11
3.8650481251
 21
4.923460843
 31
0
  0
MTEXT
  5
4A
100
AcDbEntity
  8
SEMATEXT
100
AcDbMText
370
9
 62
7
 10
3.97992208284024
 20
4.93949707226829
 30
0
 40
0.010476
  1
{\fHelveticaNeueLT Com 55 Roman;252}
 50
0
 41
0
  7
STANDARD
 71
0
 73
1
 44
1
  0
LINE
  5
4F
100
AcDbEntity
  8
SEMA2D
100
AcDbLine
370
9
 62
7
  6
_SOLID
 10
4.1169812418
 20
4.923460843
 30
0
 11
4.1169812418
 21
4.915060843
 31
0
  0
LINE
  5
50
100
AcDbEntity
  8
SEMA2D
100
AcDbLine
370
9
 62
7
  6
_SOLID
 10
4.1169812418
 20
4.923460843
 30
0
 11
4.1169812418
 21
4.931860843
 31
0
  0
LINE
  5
51
100
AcDbEntity
  8
SEMA2D
100
AcDbLine
370
9
 62
7
  6
_SOLID
 10
3.8650481251
 20
4.923460843
 30
0
 11
3.8650481251
 21
4.915060843
 31
0
  0
LINE
  5
52
100
AcDbEntity
  8
SEMA2D
100
AcDbLine
370
9
 62
7
  6
_SOLID
 10
3.8650481251
 20
4.923460843
 30
0
 11
3.8650481251
 21
4.931860843
 31
0
  0
LINE
  5
53
100
AcDbEntity
  8
SEMA2D
100
AcDbLine
370
9
 62
7
  6
_SOLID
 10
4.1607216251
 20
4.715552
 30
0
 11
4.1607216251
 21
4.284552
 31
0
  0
MTEXT
  5
54
100
AcDbEntity
  8
SEMATEXT
100
AcDbMText
370
9
 62
7
 10
4.1437216251
 20
4.48895939939024
 30
0
 40
0.010476
  1
{\fHelveticaNeueLT Com 55 Roman;431}
 50
90
 41
0
  7
STANDARD
 71
0
 73
1
 44
1
  0
LINE
  5
59
100
AcDbEntity
  8
SEMA2D
100
AcDbLine
370
9
 62
7
  6
_SOLID
 10
4.1607216251
 20
4.715552
 30
0
 11
4.1691216251
 21
4.715552
 31
0
  0
LINE
  5
5A
100
AcDbEntity
  8
SEMA2D
100
AcDbLine
370
9
 62
7
  6
_SOLID
 10
4.1607216251
 20
4.715552
 30
0
 11
4.1523216251
 21
4.715552
 31
0
  0
LINE
  5
5B
100
AcDbEntity
  8
SEMA2D
100
AcDbLine
370
9
 62
7
  6
_SOLID
 10
4.1607216251
 20
4.284552
 30
0
 11
4.1691216251
 21
4.284552
 31
0
  0
LINE
  5
5C
100
AcDbEntity
  8
SEMA2D
100
AcDbLine
370
9
 62
7
  6
_SOLID
 10
4.1607216251
 20
4.284552
 30
0
 11
4.1523216251
 21
4.284552
 31
0
  0
LINE
  5
5D
100
AcDbEntity
  8
SEMA2D
100
AcDbLine
370
9
 62
7
  6
_SOLID
 10
3.7328296085
 20
4.714552
 30
0
 11
3.7328296085
 21
4.6865904848
 31
0
  0
MTEXT
  5
5E
100
AcDbEntity
  8
SEMATEXT
100
AcDbMText
370
9
 62
7
 10
3.7168296085
 20
4.69339744601498
 30
0
 40
0.010476
  1
{\fHelveticaNeueLT Com 55 Roman;28}
 50
90
 41
0
  7
STANDARD
 71
0
 73
1
 44
1
  0
LINE
  5
63
100
AcDbEntity
  8
SEMA2D
100
AcDbLine
370
9
 62
7
  6
_SOLID
 10
3.7328296085
 20
4.714552
 30
0
 11
3.7412296085
 21
4.714552
 31
0
  0
LINE
  5
64
100
AcDbEntity
  8
SEMA2D
100
AcDbLine
370
9
 62
7
  6
_SOLID
 10
3.7328296085
 20
4.714552
 30
0
 11
3.7244296085
 21
4.714552
 31
0
  0
LINE
  5
65
100
AcDbEntity
  8
SEMA2D
100
AcDbLine
370
9
 62
7
  6
_SOLID
 10
3.7328296085
 20
4.6865904848
 30
0
 11
3.7412296085
 21
4.6865904848
 31
0
  0
LINE
  5
66
100
AcDbEntity
  8
SEMA2D
100
AcDbLine
370
9
 62
7
  6
_SOLID
 10
3.7328296085
 20
4.6865904848
 30
0
 11
3.7244296085
 21
4.6865904848
 31
0
  0
LINE
  5
67
100
AcDbEntity
  8
SEMA2D
100
AcDbLine
370
9
 62
7
  6
_SOLID
 10
3.69681
 20
4.764552
 30
0
 11
3.68081
 21
4.764552
 31
0
  0
MTEXT
  5
68
100
AcDbEntity
  8
SEMATEXT
100
AcDbMText
370
9
 62
7
 10
3.68161186912021
 20
4.78058822926829
 30
0
 40
0.010476
  1
{\fHelveticaNeueLT Com 55 Roman;16}
 50
0
 41
0
  7
STANDARD
 71
0
 73
1
 44
1
  0
LINE
  5
6D
100
AcDbEntity
  8
SEMA2D
100
AcDbLine
370
9
 62
7
  6
_SOLID
 10
3.69681
 20
4.764552
 30
0
 11
3.69681
 21
4.756152
 31
0
  0
LINE
  5
6E
100
AcDbEntity
  8
SEMA2D
100
AcDbLine
370
9
 62
7
  6
_SOLID
 10
3.69681
 20
4.764552
 30
0
 11
3.69681
 21
4.772952
 31
0
  0
LINE
  5
6F
100
AcDbEntity
  8
SEMA2D
100
AcDbLine
370
9
 62
7
  6
_SOLID
 10
3.68081
 20
4.764552
 30
0
 11
3.68081
 21
4.756152
 31
0
  0
LINE
  5
70
100
AcDbEntity
  8
SEMA2D
100
AcDbLine
370
9
 62
7
  6
_SOLID
 10
3.68081
 20
4.764552
 30
0
 11
3.68081
 21
4.772952
 31
0
  0
LINE
  5
71
100
AcDbEntity
  8
SEMA2D
100
AcDbLine
370
9
 62
7
  6
_SOLID
 10
3.68081
 20
4.764552
 30
0
 11
3.645
 21
4.764552
 31
0
  0
MTEXT
  5
72
100
AcDbEntity
  8
SEMATEXT
100
AcDbMText
370
9
 62
7
 10
3.65570686912021
 20
4.78058822926829
 30
0
 40
0.010476
  1
{\fHelveticaNeueLT Com 55 Roman;36}
 50
0
 41
0
  7
STANDARD
 71
0
 73
1
 44
1
  0
LINE
  5
77
100
AcDbEntity
  8
SEMA2D
100
AcDbLine
370
9
 62
7
  6
_SOLID
 10
3.68081
 20
4.764552
 30
0
 11
3.68081
 21
4.756152
 31
0
  0
LINE
  5
78
100
AcDbEntity
  8
SEMA2D
100
AcDbLine
370
9
 62
7
  6
_SOLID
 10
3.68081
 20
4.764552
 30
0
 11
3.68081
 21
4.772952
 31
0
  0
LINE
  5
79
100
AcDbEntity
  8
SEMA2D
100
AcDbLine
370
9
 62
7
  6
_SOLID
 10
3.645
 20
4.764552
 30
0
 11
3.645
 21
4.756152
 31
0
  0
LINE
  5
7A
100
AcDbEntity
  8
SEMA2D
100
AcDbLine
370
9
 62
7
  6
_SOLID
 10
3.645
 20
4.764552
 30
0
 11
3.645
 21
4.772952
 31
0
  0
LINE
  5
7B
100
AcDbEntity
  8
SEMA2D
100
AcDbLine
370
9
 62
7
  6
_SOLID
 10
4.11681444255912
 20
4.7402985278169
 30
0
 11
4.03565641885912
 21
4.7399308003169
 31
0
  0
MTEXT
  5
7C
100
AcDbEntity
  8
SEMATEXT
100
AcDbMText
370
9
 62
7
 10
4.06903188835746
 20
4.7561180894314
 30
0
 40
0.010476
  1
{\fHelveticaNeueLT Com 55 Roman;81}
 50
0.259605749601273
 41
0
  7
STANDARD
 71
0
 73
1
 44
1
  0
LINE
  5
81
100
AcDbEntity
  8
SEMA2D
100
AcDbLine
370
9
 62
7
  6
_SOLID
 10
4.11681444255912
 20
4.7402985278169
 30
0
 11
4.11685250261963
 21
4.73189861404164
 31
0
  0
LINE
  5
82
100
AcDbEntity
  8
SEMA2D
100
AcDbLine
370
9
 62
7
  6
_SOLID
 10
4.11681444255912
 20
4.7402985278169
 30
0
 11
4.11677638249861
 21
4.74869844159216
 31
0
  0
LINE
  5
83
100
AcDbEntity
  8
SEMA2D
100
AcDbLine
370
9
 62
7
  6
_SOLID
 10
4.03565641885912
 20
4.7399308003169
 30
0
 11
4.03569447891963
 21
4.73153088654164
 31
0
  0
LINE
  5
84
100
AcDbEntity
  8
SEMA2D
100
AcDbLine
370
9
 62
7
  6
_SOLID
 10
4.03565641885912
 20
4.7399308003169
 30
0
 11
4.03561835879861
 21
4.74833071409216
 31
0
  0
LINE
  5
85
100
AcDbEntity
  8
SEMA2D
100
AcDbLine
370
9
 62
7
  6
_SOLID
 10
3.8650521822
 20
4.7399308003
 30
0
 11
3.9560136235
 21
4.7399308003
 31
0
  0
MTEXT
  5
86
100
AcDbEntity
  8
SEMATEXT
100
AcDbMText
370
9
 62
7
 10
3.90340194531516
 20
4.75789137708049
 30
0
 40
0.010476
  1
{\fHelveticaNeueLT Com 55 Roman;91}
 50
0
 41
0
  7
STANDARD
 71
0
 73
1
 44
1
  0
LINE
  5
8B
100
AcDbEntity
  8
SEMA2D
100
AcDbLine
370
9
 62
7
  6
_SOLID
 10
3.8650521822
 20
4.7399308003
 30
0
 11
3.8650521822
 21
4.7483308003
 31
0
  0
LINE
  5
8C
100
AcDbEntity
  8
SEMA2D
100
AcDbLine
370
9
 62
7
  6
_SOLID
 10
3.8650521822
 20
4.7399308003
 30
0
 11
3.8650521822
 21
4.7315308003
 31
0
  0
LINE
  5
8D
100
AcDbEntity
  8
SEMA2D
100
AcDbLine
370
9
 62
7
  6
_SOLID
 10
3.9560136235
 20
4.7399308003
 30
0
 11
3.9560136235
 21
4.7483308003
 31
0
  0
LINE
  5
8E
100
AcDbEntity
  8
SEMA2D
100
AcDbLine
370
9
 62
7
  6
_SOLID
 10
3.9560136235
 20
4.7399308003
 30
0
 11
3.9560136235
 21
4.7315308003
 31
0
  0
LINE
  5
8F
100
AcDbEntity
  8
SEMA2D
100
AcDbLine
370
9
 62
7
  6
_DOT
 10
3.8650521822
 20
4.714552
 30
0
 11
3.8650521822
 21
4.764552
 31
0
  0
LINE
  5
90
100
AcDbEntity
  8
SEMA2D
100
AcDbLine
370
9
 62
7
  6
_DOT
 10
4.1170228667
 20
4.715552
 30
0
 11
4.1170228667
 21
4.764552
 31
0
  0
LINE
  5
91
100
AcDbEntity
  8
SEMA2D
100
AcDbLine
370
9
 62
7
  6
_DOT
 10
3.645
 20
4.285
 30
0
 11
3.645
 21
4.235
 31
0
  0
LINE
  5
92
100
AcDbEntity
  8
SEMA2D
100
AcDbLine
370
9
 62
7
  6
_DOT
 10
3.696281
 20
4.285
 30
0
 11
3.696281
 21
4.235
 31
0
  0
LINE
  5
93
100
AcDbEntity
  8
SEMA2D
100
AcDbLine
370
9
 62
7
  6
_DOT
 10
3.645
 20
4.714552
 30
0
 11
3.645
 21
4.764552
 31
0
  0
LINE
  5
94
100
AcDbEntity
  8
SEMA2D
100
AcDbLine
370
9
 62
7
  6
_DOT
 10
3.68081
 20
4.7021099781
 30
0
 11
3.68081
 21
4.764552
 31
0
  0
LINE
  5
95
100
AcDbEntity
  8
SEMA2D
100
AcDbLine
370
9
 62
7
  6
_DOT
 10
3.7328296085
 20
4.6865904848
 30
0
 11
3.6814451085
 21
4.6865904848
 31
0
  0
LINE
  5
96
100
AcDbEntity
  8
SEMA2D
100
AcDbLine
370
9
 62
7
  6
_DOT
 10
3.7328296085
 20
4.3145772052
 30
0
 11
3.6828296085
 21
4.3145772052
 31
0
  0
LINE
  5
97
100
AcDbEntity
  8
SEMA2D
100
AcDbLine
370
9
 62
7
  6
_DOT
 10
3.8650481251
 20
4.8628439915
 30
0
 11
3.8650481251
 21
4.9213219915
 31
0
  0
LINE
  5
98
100
AcDbEntity
  8
SEMA2D
100
AcDbLine
370
9
 62
7
  6
_DOT
 10
4.1169812418
 20
4.8628439915
 30
0
 11
4.1169812418
 21
4.9213219915
 31
0
  0
LINE
  5
99
100
AcDbEntity
  8
SEMA2D
100
AcDbLine
370
9
 62
7
  6
_SOLID
 10
3.8681113872
 20
4.7061948065
 30
0
 11
3.8670892132
 21
4.7049438863
 31
0
  0
LINE
  5
9A
100
AcDbEntity
  8
SEMA2D
100
AcDbLine
370
9
 62
7
  6
_SOLID
 10
3.8699293252
 20
4.704343803
 30
0
 11
3.8689071512
 21
4.7030928829
 31
0
  0
LINE
  5
9B
100
AcDbEntity
  8
SEMA2D
100
AcDbLine
370
9
 62
7
  6
_SOLID
 10
4.1130744758
 20
4.285
 30
0
 11
3.8690006369
 21
4.285
 31
0
  0
LINE
  5
9C
100
AcDbEntity
  8
SEMA2D
100
AcDbLine
370
9
 62
7
  6
_SOLID
 10
4.1124121251
 20
4.285942
 30
0
 11
3.8696631251
 21
4.285942
 31
0
  0
LINE
  5
9D
100
AcDbEntity
  8
SEMA2D
100
AcDbLine
370
9
 62
7
  6
_SOLID
 10
3.9260988937
 20
4.6872371433
 30
0
 11
3.9246197099
 21
4.685984855
 31
0
  0
LINE
  5
9E
100
AcDbEntity
  8
SEMA2D
100
AcDbLine
370
9
 62
7
  6
_SOLID
 10
3.9481053914
 20
4.6806037498
 30
0
 11
3.9489321864
 21
4.6809228416
 31
0
  0
LINE
  5
9F
100
AcDbEntity
  8
SEMA2D
100
AcDbLine
370
9
 62
7
  6
_SOLID
 10
3.9495693051
 20
4.6789802942
 30
0
 11
3.9499286126
 21
4.6791189766
 31
0
  0
LINE
  5
A0
100
AcDbEntity
  8
SEMA2D
100
AcDbLine
370
9
 62
7
  6
_SOLID
 10
3.8688710678
 20
4.3123067287
 30
0
 11
3.8670531293
 21
4.3122985553
 31
0
  0
LINE
  5
A1
100
AcDbEntity
  8
SEMA2D
100
AcDbLine
370
9
 62
7
  6
_SOLID
 10
4.0582826251
 20
4.3123067333
 30
0
 11
4.1132098383
 21
4.3123067309
 31
0
  0
LINE
  5
A2
100
AcDbEntity
  8
SEMA2D
100
AcDbLine
370
9
 62
7
  6
_SOLID
 10
3.8688710673
 20
4.3123067309
 30
0
 11
3.9237615692
 21
4.3123067384
 31
0
  0
LINE
  5
A3
100
AcDbEntity
  8
SEMA2D
100
AcDbLine
370
9
 62
7
  6
_SOLID
 10
4.1132098382
 20
4.3123067287
 30
0
 11
4.1150277745
 21
4.312298149
 31
0
  0
LINE
  5
A4
100
AcDbEntity
  8
SEMA2D
100
AcDbLine
370
9
 62
7
  6
_SOLID
 10
3.8690006369
 20
4.285
 30
0
 11
3.865
 21
4.2970892016
 31
0
  0
LINE
  5
A5
100
AcDbEntity
  8
SEMA2D
100
AcDbLine
370
9
 62
7
  6
_SOLID
 10
3.8696631251
 20
4.285942
 30
0
 11
3.8659223321
 21
4.297246
 31
0
  0
LINE
  5
A6
100
AcDbEntity
  8
SEMA2D
100
AcDbLine
370
9
 62
7
  6
_SOLID
 10
3.929807892
 20
4.6834398791
 30
0
 11
3.928362423
 21
4.6822161022
 31
0
  0
LINE
  5
A7
100
AcDbEntity
  8
SEMA2D
100
AcDbLine
370
9
 62
7
  6
_SOLID
 10
3.9623579451
 20
4.6774713886
 30
0
 11
3.9619986375
 21
4.6772606569
 31
0
  0
LINE
  5
A8
100
AcDbEntity
  8
SEMA2D
100
AcDbLine
370
9
 62
7
  6
_SOLID
 10
3.9638218587
 20
4.6758790599
 30
0
 11
3.9629039394
 21
4.6753407599
 31
0
  0
LINE
  5
A9
100
AcDbEntity
  8
SEMA2D
100
AcDbLine
370
9
 62
7
  6
_SOLID
 10
3.9991083932
 20
4.6781461029
 30
0
 11
3.9956655882
 21
4.6762652724
 31
0
  0
LINE
  5
AA
100
AcDbEntity
  8
SEMA2D
100
AcDbLine
370
9
 62
7
  6
_SOLID
 10
4.0000187347
 20
4.675732685
 30
0
 11
3.9962492398
 21
4.673673382
 31
0
  0
LINE
  5
AB
100
AcDbEntity
  8
SEMA2D
100
AcDbLine
370
9
 62
7
  6
_SOLID
 10
3.9855175457
 20
4.6806900528
 30
0
 11
3.9903248534
 21
4.6832972959
 31
0
  0
LINE
  5
AC
100
AcDbEntity
  8
SEMA2D
100
AcDbLine
370
9
 62
7
  6
_SOLID
 10
3.9865449642
 20
4.6783694445
 30
0
 11
3.9911680359
 21
4.6808767671
 31
0
  0
LINE
  5
AD
100
AcDbEntity
  8
SEMA2D
100
AcDbLine
370
9
 62
7
  6
_SOLID
 10
3.9920157627
 20
4.6827398168
 30
0
 11
3.9943639895
 21
4.683851642
 31
0
  0
LINE
  5
AE
100
AcDbEntity
  8
SEMA2D
100
AcDbLine
370
9
 62
7
  6
_SOLID
 10
4.0274833914
 20
4.6806037498
 30
0
 11
4.0283101867
 21
4.6809228416
 31
0
  0
LINE
  5
AF
100
AcDbEntity
  8
SEMA2D
100
AcDbLine
370
9
 62
7
  6
_SOLID
 10
4.0289473051
 20
4.6789802942
 30
0
 11
4.0293066126
 21
4.6791189768
 31
0
  0
LINE
  5
B0
100
AcDbEntity
  8
SEMA2D
100
AcDbLine
370
9
 62
7
  6
_SOLID
 10
4.1152999612
 20
4.2946628639
 30
0
 11
4.1161743752
 21
4.2943612658
 31
0
  0
LINE
  5
B1
100
AcDbEntity
  8
SEMA2D
100
AcDbLine
370
9
 62
7
  6
_SOLID
 10
4.1155086233
 20
4.2952929945
 30
0
 11
4.1163830373
 21
4.2949913964
 31
0
  0
LINE
  5
B2
100
AcDbEntity
  8
SEMA2D
100
AcDbLine
370
9
 62
7
  6
_SOLID
 10
3.865
 20
4.2970892016
 30
0
 11
3.8641251161
 21
4.499776
 31
0
  0
LINE
  5
B3
100
AcDbEntity
  8
SEMA2D
100
AcDbLine
370
9
 62
7
  6
_SOLID
 10
3.8659223321
 20
4.297246
 30
0
 11
3.8650481251
 21
4.499776
 31
0
  0
LINE
  5
B4
100
AcDbEntity
  8
SEMA2D
100
AcDbLine
370
9
 62
7
  6
_SOLID
 10
3.8662441836
 20
4.4997092747
 30
0
 11
3.8670531293
 21
4.3122985553
 31
0
  0
LINE
  5
B5
100
AcDbEntity
  8
SEMA2D
100
AcDbLine
370
9
 62
7
  6
_SOLID
 10
3.8680621216
 20
4.4997174481
 30
0
 11
3.8688710673
 21
4.3123067309
 31
0
  0
LINE
  5
B6
100
AcDbEntity
  8
SEMA2D
100
AcDbLine
370
9
 62
7
  6
_SOLID
 10
3.8688377654
 20
4.6813855141
 30
0
 11
3.8688377654
 21
4.6795301363
 31
0
  0
LINE
  5
B7
100
AcDbEntity
  8
SEMA2D
100
AcDbLine
370
9
 62
7
  6
_SOLID
 10
3.8699293252
 20
4.7061866331
 30
0
 11
3.8699293252
 21
4.704343803
 31
0
  0
LINE
  5
B8
100
AcDbEntity
  8
SEMA2D
100
AcDbLine
370
9
 62
7
  6
_SOLID
 10
3.8701967105
 20
4.7099864218
 30
0
 11
3.8701967105
 21
4.7118520868
 31
0
  0
LINE
  5
B9
100
AcDbEntity
  8
SEMA2D
100
AcDbLine
370
9
 62
7
  6
_SOLID
 10
3.8641251161
 20
4.499776
 30
0
 11
3.8650521822
 21
4.714552
 31
0
  0
LINE
  5
BA
100
AcDbEntity
  8
SEMA2D
100
AcDbLine
370
9
 62
7
  6
_SOLID
 10
3.8650481251
 20
4.499776
 30
0
 11
3.8659711251
 21
4.71361
 31
0
  0
LINE
  5
BB
100
AcDbEntity
  8
SEMA2D
100
AcDbLine
370
9
 62
7
  6
_SOLID
 10
3.8662918765
 20
4.6994153961
 30
0
 11
3.8662301343
 21
4.6851114009
 31
0
  0
LINE
  5
BC
100
AcDbEntity
  8
SEMA2D
100
AcDbLine
370
9
 62
7
  6
_SOLID
 10
3.8670198274
 20
4.6795383097
 30
0
 11
3.8662441836
 21
4.4998427241
 31
0
  0
LINE
  5
BD
100
AcDbEntity
  8
SEMA2D
100
AcDbLine
370
9
 62
7
  6
_SOLID
 10
3.8681266957
 20
4.7097413558
 30
0
 11
3.8681113872
 21
4.7061948065
 31
0
  0
LINE
  5
BE
100
AcDbEntity
  8
SEMA2D
100
AcDbLine
370
9
 62
7
  6
_SOLID
 10
3.8681098145
 20
4.6994072237
 30
0
 11
3.8680480723
 21
4.6851032264
 31
0
  0
LINE
  5
BF
100
AcDbEntity
  8
SEMA2D
100
AcDbLine
370
9
 62
7
  6
_SOLID
 10
3.8688377654
 20
4.6795301363
 30
0
 11
3.8680621216
 21
4.4998345519
 31
0
  0
LINE
  5
C0
100
AcDbEntity
  8
SEMA2D
100
AcDbLine
370
9
 62
7
  6
_SOLID
 10
3.8699446337
 20
4.7097331824
 30
0
 11
3.8699293252
 21
4.7061866331
 31
0
  0
LINE
  5
C1
100
AcDbEntity
  8
SEMA2D
100
AcDbLine
370
9
 62
7
  6
_SOLID
 10
3.9594371096
 20
4.6842160963
 30
0
 11
3.9608523119
 21
4.686632604
 31
0
  0
LINE
  5
C2
100
AcDbEntity
  8
SEMA2D
100
AcDbLine
370
9
 62
7
  6
_SOLID
 10
3.9841740348
 20
4.6781980485
 30
0
 11
3.9848531573
 21
4.6789802942
 31
0
  0
LINE
  5
C3
100
AcDbEntity
  8
SEMA2D
100
AcDbLine
370
9
 62
7
  6
_SOLID
 10
3.9853727134
 20
4.6771141551
 30
0
 11
3.9860518122
 21
4.6778963734
 31
0
  0
LINE
  5
C4
100
AcDbEntity
  8
SEMA2D
100
AcDbLine
370
9
 62
7
  6
_SOLID
 10
3.9911680359
 20
4.6808767671
 30
0
 11
3.9845243737
 21
4.6740963456
 31
0
  0
LINE
  5
C5
100
AcDbEntity
  8
SEMA2D
100
AcDbLine
370
9
 62
7
  6
_SOLID
 10
3.9925379274
 20
4.6786122943
 30
0
 11
3.9855727322
 21
4.6715037203
 31
0
  0
LINE
  5
C6
100
AcDbEntity
  8
SEMA2D
100
AcDbLine
370
9
 62
7
  6
_SOLID
 10
4.0003201904
 20
4.6791513068
 30
0
 11
3.9998152711
 21
4.6786947179
 31
0
  0
LINE
  5
C7
100
AcDbEntity
  8
SEMA2D
100
AcDbLine
370
9
 62
7
  6
_SOLID
 10
4.0013821955
 20
4.6779279295
 30
0
 11
4.0008773293
 21
4.6774713886
 31
0
  0
LINE
  5
C8
100
AcDbEntity
  8
SEMA2D
100
AcDbLine
370
9
 62
7
  6
_SOLID
 10
4.0413766375
 20
4.6772606711
 30
0
 11
4.0417359451
 21
4.6774713886
 31
0
  0
LINE
  5
C9
100
AcDbEntity
  8
SEMA2D
100
AcDbLine
370
9
 62
7
  6
_SOLID
 10
4.0422819395
 20
4.6753407599
 30
0
 11
4.0431998587
 21
4.6758790599
 31
0
  0
LINE
  5
CA
100
AcDbEntity
  8
SEMA2D
100
AcDbLine
370
9
 62
7
  6
_SOLID
 10
4.0537540285
 20
4.7021413861
 30
0
 11
4.0522747525
 21
4.7006316591
 31
0
  0
LINE
  5
CB
100
AcDbEntity
  8
SEMA2D
100
AcDbLine
370
9
 62
7
  6
_SOLID
 10
4.0574555402
 20
4.6983634569
 30
0
 11
4.0559763564
 21
4.6968538574
 31
0
  0
LINE
  5
CC
100
AcDbEntity
  8
SEMA2D
100
AcDbLine
370
9
 62
7
  6
_SOLID
 10
3.9228140495
 20
4.6983634903
 30
0
 11
3.9228140495
 21
4.6859848225
 31
0
  0
LINE
  5
CD
100
AcDbEntity
  8
SEMA2D
100
AcDbLine
370
9
 62
7
  6
_SOLID
 10
3.9228805853
 20
4.6851032269
 30
0
 11
3.9228805852
 21
4.6813924719
 31
0
  0
LINE
  5
CE
100
AcDbEntity
  8
SEMA2D
100
AcDbLine
370
9
 62
7
  6
_SOLID
 10
3.9229065241
 20
4.6994072185
 30
0
 11
3.9229065249
 21
4.7030928828
 31
0
  0
LINE
  5
CF
100
AcDbEntity
  8
SEMA2D
100
AcDbLine
370
9
 62
7
  6
_SOLID
 10
3.9246197099
 20
4.6983634516
 30
0
 11
3.9246197099
 21
4.685984855
 31
0
  0
LINE
  5
D0
100
AcDbEntity
  8
SEMA2D
100
AcDbLine
370
9
 62
7
  6
_SOLID
 10
3.9260988937
 20
4.6968538574
 30
0
 11
3.9260988937
 21
4.6872371433
 31
0
  0
LINE
  5
D1
100
AcDbEntity
  8
SEMA2D
100
AcDbLine
370
9
 62
7
  6
_SOLID
 10
3.9270370395
 20
4.6752835914
 30
0
 11
3.9270370395
 21
4.6813855141
 31
0
  0
LINE
  5
D2
100
AcDbEntity
  8
SEMA2D
100
AcDbLine
370
9
 62
7
  6
_SOLID
 10
3.9288073844
 20
4.6968538574
 30
0
 11
3.9288073844
 21
4.6872371433
 31
0
  0
LINE
  5
D3
100
AcDbEntity
  8
SEMA2D
100
AcDbLine
370
9
 62
7
  6
_SOLID
 10
3.9293445699
 20
4.6763746571
 30
0
 11
3.9293445685
 21
4.679374361
 31
0
  0
LINE
  5
D4
100
AcDbEntity
  8
SEMA2D
100
AcDbLine
370
9
 62
7
  6
_SOLID
 10
3.9298004977
 20
4.7006316591
 30
0
 11
3.9298004977
 21
4.697867414
 31
0
  0
LINE
  5
D5
100
AcDbEntity
  8
SEMA2D
100
AcDbLine
370
9
 62
7
  6
_SOLID
 10
3.929807892
 20
4.6834398791
 30
0
 11
3.929807892
 21
4.6862229458
 31
0
  0
LINE
  5
D6
100
AcDbEntity
  8
SEMA2D
100
AcDbLine
370
9
 62
7
  6
_SOLID
 10
3.935092878
 20
4.6787771229
 30
0
 11
3.935092878
 21
4.6774713886
 31
0
  0
LINE
  5
D7
100
AcDbEntity
  8
SEMA2D
100
AcDbLine
370
9
 62
7
  6
_SOLID
 10
3.935900503
 20
4.6758790599
 30
0
 11
3.935900503
 21
4.6787771229
 31
0
  0
LINE
  5
D8
100
AcDbEntity
  8
SEMA2D
100
AcDbLine
370
9
 62
7
  6
_SOLID
 10
3.9362926009
 20
4.6789802942
 30
0
 11
3.9362926009
 21
4.6806037498
 31
0
  0
LINE
  5
D9
100
AcDbEntity
  8
SEMA2D
100
AcDbLine
370
9
 62
7
  6
_SOLID
 10
4.0388151095
 20
4.6842160964
 30
0
 11
4.0402303119
 21
4.686632604
 31
0
  0
LINE
  5
DA
100
AcDbEntity
  8
SEMA2D
100
AcDbLine
370
9
 62
7
  6
_SOLID
 10
3.9481053914
 20
4.6758790599
 30
0
 11
3.9481053914
 21
4.6806037498
 31
0
  0
LINE
  5
DB
100
AcDbEntity
  8
SEMA2D
100
AcDbLine
370
9
 62
7
  6
_SOLID
 10
3.9495693051
 20
4.6774713886
 30
0
 11
3.9495693051
 21
4.6789802942
 31
0
  0
LINE
  5
DC
100
AcDbEntity
  8
SEMA2D
100
AcDbLine
370
9
 62
7
  6
_SOLID
 10
3.9496300975
 20
4.6834398793
 30
0
 11
3.9496300973
 21
4.6862229456
 31
0
  0
LINE
  5
DD
100
AcDbEntity
  8
SEMA2D
100
AcDbLine
370
9
 62
7
  6
_SOLID
 10
3.9499286126
 20
4.6772606712
 30
0
 11
3.9499286126
 21
4.6791189766
 31
0
  0
LINE
  5
DE
100
AcDbEntity
  8
SEMA2D
100
AcDbLine
370
9
 62
7
  6
_SOLID
 10
3.9516016568
 20
4.6772606736
 30
0
 11
3.9516016568
 21
4.6791189575
 31
0
  0
LINE
  5
DF
100
AcDbEntity
  8
SEMA2D
100
AcDbLine
370
9
 62
7
  6
_SOLID
 10
3.9826164014
 20
4.6758790599
 30
0
 11
3.9821176007
 21
4.6736732256
 31
0
  0
LINE
  5
E0
100
AcDbEntity
  8
SEMA2D
100
AcDbLine
370
9
 62
7
  6
_SOLID
 10
3.9853727134
 20
4.6771141551
 30
0
 11
3.9848573826
 21
4.6748352978
 31
0
  0
LINE
  5
E1
100
AcDbEntity
  8
SEMA2D
100
AcDbLine
370
9
 62
7
  6
_SOLID
 10
3.9603255934
 20
4.6791189575
 30
0
 11
3.9603255934
 21
4.6772606736
 31
0
  0
LINE
  5
E2
100
AcDbEntity
  8
SEMA2D
100
AcDbLine
370
9
 62
7
  6
_SOLID
 10
3.9619986375
 20
4.6791189768
 30
0
 11
3.9619986375
 21
4.6772606569
 31
0
  0
LINE
  5
E3
100
AcDbEntity
  8
SEMA2D
100
AcDbLine
370
9
 62
7
  6
_SOLID
 10
3.9622971519
 20
4.6834398792
 30
0
 11
3.9622971519
 21
4.6862229457
 31
0
  0
LINE
  5
E4
100
AcDbEntity
  8
SEMA2D
100
AcDbLine
370
9
 62
7
  6
_SOLID
 10
3.9623579451
 20
4.6789802942
 30
0
 11
3.9623579451
 21
4.6774713886
 31
0
  0
LINE
  5
E5
100
AcDbEntity
  8
SEMA2D
100
AcDbLine
370
9
 62
7
  6
_SOLID
 10
3.9638218587
 20
4.6758790599
 30
0
 11
3.9638218587
 21
4.6806037498
 31
0
  0
LINE
  5
E6
100
AcDbEntity
  8
SEMA2D
100
AcDbLine
370
9
 62
7
  6
_SOLID
 10
4.0879393846
 20
4.7106307771
 30
0
 11
4.0897986251
 21
4.71361
 31
0
  0
LINE
  5
E7
100
AcDbEntity
  8
SEMA2D
100
AcDbLine
370
9
 62
7
  6
_SOLID
 10
4.1170271251
 20
4.4896495
 30
0
 11
4.1158310373
 21
4.4895794591
 31
0
  0
LINE
  5
E8
100
AcDbEntity
  8
SEMA2D
100
AcDbLine
370
9
 62
7
  6
_SOLID
 10
4.1124121251
 20
4.285942
 30
0
 11
4.1130744758
 21
4.285
 31
0
  0
LINE
  5
E9
100
AcDbEntity
  8
SEMA2D
100
AcDbLine
370
9
 62
7
  6
_SOLID
 10
3.9237615692
 20
4.3123067384
 30
0
 11
3.9237615692
 21
4.6757484484
 31
0
  0
LINE
  5
EA
100
AcDbEntity
  8
SEMA2D
100
AcDbLine
370
9
 62
7
  6
_SOLID
 10
3.9826164014
 20
4.6774713886
 30
0
 11
3.9826164014
 21
4.6758790599
 31
0
  0
LINE
  5
EB
100
AcDbEntity
  8
SEMA2D
100
AcDbLine
370
9
 62
7
  6
_SOLID
 10
3.9848531573
 20
4.6806037498
 30
0
 11
3.9848531573
 21
4.6789802942
 31
0
  0
LINE
  5
EC
100
AcDbEntity
  8
SEMA2D
100
AcDbLine
370
9
 62
7
  6
_SOLID
 10
3.9905888127
 20
4.6834398791
 30
0
 11
3.9905888128
 21
4.6862229458
 31
0
  0
LINE
  5
ED
100
AcDbEntity
  8
SEMA2D
100
AcDbLine
370
9
 62
7
  6
_SOLID
 10
4.114013101
 20
4.4897109625
 30
0
 11
4.1158310373
 21
4.4897195422
 31
0
  0
LINE
  5
EE
100
AcDbEntity
  8
SEMA2D
100
AcDbLine
370
9
 62
7
  6
_SOLID
 10
3.8680621216
 20
4.4997174481
 30
0
 11
3.8662441836
 21
4.4997092747
 31
0
  0
LINE
  5
EF
100
AcDbEntity
  8
SEMA2D
100
AcDbLine
370
9
 62
7
  6
_SOLID
 10
3.8680621216
 20
4.4998345519
 30
0
 11
3.8662441836
 21
4.4998427253
 31
0
  0
LINE
  5
F0
100
AcDbEntity
  8
SEMA2D
100
AcDbLine
370
9
 62
7
  6
_SOLID
 10
4.114013101
 20
4.4895880374
 30
0
 11
4.1158310373
 21
4.4895794577
 31
0
  0
LINE
  5
F1
100
AcDbEntity
  8
SEMA2D
100
AcDbLine
370
9
 62
7
  6
_SOLID
 10
3.8662441836
 20
4.4997092747
 30
0
 11
3.8650481251
 21
4.499776
 31
0
  0
LINE
  5
F2
100
AcDbEntity
  8
SEMA2D
100
AcDbLine
370
9
 62
7
  6
_SOLID
 10
4.1170271251
 20
4.4896495
 30
0
 11
4.1158310373
 21
4.4897195422
 31
0
  0
LINE
  5
F3
100
AcDbEntity
  8
SEMA2D
100
AcDbLine
370
9
 62
7
  6
_SOLID
 10
3.8681266957
 20
4.7097413558
 30
0
 11
3.8659711251
 21
4.71361
 31
0
  0
LINE
  5
F4
100
AcDbEntity
  8
SEMA2D
100
AcDbLine
370
9
 62
7
  6
_SOLID
 10
4.0008773293
 20
4.6758790599
 30
0
 11
4.0008773293
 21
4.6774713886
 31
0
  0
LINE
  5
F5
100
AcDbEntity
  8
SEMA2D
100
AcDbLine
370
9
 62
7
  6
_SOLID
 10
4.0032518786
 20
4.6834398791
 30
0
 11
4.0032518786
 21
4.6862229458
 31
0
  0
LINE
  5
F6
100
AcDbEntity
  8
SEMA2D
100
AcDbLine
370
9
 62
7
  6
_SOLID
 10
4.0033166081
 20
4.6789802942
 30
0
 11
4.0033166081
 21
4.6806037498
 31
0
  0
LINE
  5
F7
100
AcDbEntity
  8
SEMA2D
100
AcDbLine
370
9
 62
7
  6
_SOLID
 10
4.0582826251
 20
4.3123067333
 30
0
 11
4.0582826251
 21
4.676335552
 31
0
  0
LINE
  5
F8
100
AcDbEntity
  8
SEMA2D
100
AcDbLine
370
9
 62
7
  6
_SOLID
 10
3.9962492426
 20
4.6736733821
 30
0
 11
3.9962488147
 21
4.670033544
 31
0
  0
LINE
  5
F9
100
AcDbEntity
  8
SEMA2D
100
AcDbLine
370
9
 62
7
  6
_SOLID
 10
3.8662441836
 20
4.4998427241
 30
0
 11
3.8650481251
 21
4.499776
 31
0
  0
LINE
  5
FA
100
AcDbEntity
  8
SEMA2D
100
AcDbLine
370
9
 62
7
  6
_SOLID
 10
3.8696631251
 20
4.285942
 30
0
 11
3.8690006369
 21
4.285
 31
0
  0
LINE
  5
FB
100
AcDbEntity
  8
SEMA2D
100
AcDbLine
370
9
 62
7
  6
_SOLID
 10
4.0274833914
 20
4.6758790599
 30
0
 11
4.0274833914
 21
4.6806037498
 31
0
  0
LINE
  5
FC
100
AcDbEntity
  8
SEMA2D
100
AcDbLine
370
9
 62
7
  6
_SOLID
 10
4.0289473051
 20
4.6774713886
 30
0
 11
4.0289473051
 21
4.6789802942
 31
0
  0
LINE
  5
FD
100
AcDbEntity
  8
SEMA2D
100
AcDbLine
370
9
 62
7
  6
_SOLID
 10
4.0290080991
 20
4.6834400268
 30
0
 11
4.029008099
 21
4.6862229458
 31
0
  0
LINE
  5
FE
100
AcDbEntity
  8
SEMA2D
100
AcDbLine
370
9
 62
7
  6
_SOLID
 10
4.0293066126
 20
4.6772606715
 30
0
 11
4.0293066126
 21
4.6791189768
 31
0
  0
LINE
  5
FF
100
AcDbEntity
  8
SEMA2D
100
AcDbLine
370
9
 62
7
  6
_SOLID
 10
4.0309796568
 20
4.6772606736
 30
0
 11
4.0309796568
 21
4.6791189575
 31
0
  0
LINE
  5
100
100
AcDbEntity
  8
SEMA2D
100
AcDbLine
370
9
 62
7
  6
_SOLID
 10
4.0397035934
 20
4.6791189575
 30
0
 11
4.0397035934
 21
4.6772606736
 31
0
  0
LINE
  5
101
100
AcDbEntity
  8
SEMA2D
100
AcDbLine
370
9
 62
7
  6
_SOLID
 10
4.0413766375
 20
4.6791189615
 30
0
 11
4.0413766375
 21
4.6772606711
 31
0
  0
LINE
  5
102
100
AcDbEntity
  8
SEMA2D
100
AcDbLine
370
9
 62
7
  6
_SOLID
 10
4.0416751512
 20
4.6834398792
 30
0
 11
4.0416751512
 21
4.6862229458
 31
0
  0
LINE
  5
103
100
AcDbEntity
  8
SEMA2D
100
AcDbLine
370
9
 62
7
  6
_SOLID
 10
4.0417359451
 20
4.6789802942
 30
0
 11
4.0417359451
 21
4.6774713886
 31
0
  0
LINE
  5
104
100
AcDbEntity
  8
SEMA2D
100
AcDbLine
370
9
 62
7
  6
_SOLID
 10
4.0431998587
 20
4.6758790599
 30
0
 11
4.0431998587
 21
4.6806037498
 31
0
  0
LINE
  5
105
100
AcDbEntity
  8
SEMA2D
100
AcDbLine
370
9
 62
7
  6
_SOLID
 10
4.0457826492
 20
4.6789802942
 30
0
 11
4.0457826492
 21
4.6806037498
 31
0
  0
LINE
  5
106
100
AcDbEntity
  8
SEMA2D
100
AcDbLine
370
9
 62
7
  6
_SOLID
 10
4.0461747471
 20
4.6758790599
 30
0
 11
4.0461747471
 21
4.6787771229
 31
0
  0
LINE
  5
107
100
AcDbEntity
  8
SEMA2D
100
AcDbLine
370
9
 62
7
  6
_SOLID
 10
4.0469823721
 20
4.6774713886
 30
0
 11
4.0469823721
 21
4.6787771229
 31
0
  0
LINE
  5
108
100
AcDbEntity
  8
SEMA2D
100
AcDbLine
370
9
 62
7
  6
_SOLID
 10
4.0522673581
 20
4.6834398791
 30
0
 11
4.0522673581
 21
4.6862229458
 31
0
  0
LINE
  5
109
100
AcDbEntity
  8
SEMA2D
100
AcDbLine
370
9
 62
7
  6
_SOLID
 10
4.0522747525
 20
4.7006316591
 30
0
 11
4.0522747525
 21
4.697867414
 31
0
  0
LINE
  5
10A
100
AcDbEntity
  8
SEMA2D
100
AcDbLine
370
9
 62
7
  6
_SOLID
 10
4.0527306816
 20
4.679374361
 30
0
 11
4.0527306802
 21
4.6765638166
 31
0
  0
LINE
  5
10B
100
AcDbEntity
  8
SEMA2D
100
AcDbLine
370
9
 62
7
  6
_SOLID
 10
4.0532678657
 20
4.6872371433
 30
0
 11
4.0532678657
 21
4.6968538574
 31
0
  0
LINE
  5
10C
100
AcDbEntity
  8
SEMA2D
100
AcDbLine
370
9
 62
7
  6
_SOLID
 10
4.0550382106
 20
4.6813855141
 30
0
 11
4.0550382106
 21
4.676335552
 31
0
  0
LINE
  5
10D
100
AcDbEntity
  8
SEMA2D
100
AcDbLine
370
9
 62
7
  6
_SOLID
 10
4.0559763564
 20
4.6872371433
 30
0
 11
4.0559763564
 21
4.6968538574
 31
0
  0
LINE
  5
10E
100
AcDbEntity
  8
SEMA2D
100
AcDbLine
370
9
 62
7
  6
_SOLID
 10
4.0574555402
 20
4.6859848632
 30
0
 11
4.0574555402
 21
4.6983634569
 31
0
  0
LINE
  5
10F
100
AcDbEntity
  8
SEMA2D
100
AcDbLine
370
9
 62
7
  6
_SOLID
 10
4.0591687263
 20
4.6994072143
 30
0
 11
4.0591687248
 21
4.7030928828
 31
0
  0
LINE
  5
110
100
AcDbEntity
  8
SEMA2D
100
AcDbLine
370
9
 62
7
  6
_SOLID
 10
4.0591946642
 20
4.6851032249
 30
0
 11
4.0591946646
 21
4.6813924719
 31
0
  0
LINE
  5
111
100
AcDbEntity
  8
SEMA2D
100
AcDbLine
370
9
 62
7
  6
_SOLID
 10
4.0592612007
 20
4.6859848225
 30
0
 11
4.0592612007
 21
4.6983634903
 31
0
  0
LINE
  5
112
100
AcDbEntity
  8
SEMA2D
100
AcDbLine
370
9
 62
7
  6
_SOLID
 10
4.0598286496
 20
4.704343803
 30
0
 11
4.0598286496
 21
4.7118520868
 31
0
  0
LINE
  5
113
100
AcDbEntity
  8
SEMA2D
100
AcDbLine
370
9
 62
7
  6
_SOLID
 10
3.9524901406
 20
4.6842160962
 30
0
 11
3.9510749382
 21
4.686632604
 31
0
  0
LINE
  5
114
100
AcDbEntity
  8
SEMA2D
100
AcDbLine
370
9
 62
7
  6
_SOLID
 10
4.0611339688
 20
4.7061866331
 30
0
 11
4.0611339688
 21
4.7099864218
 31
0
  0
LINE
  5
115
100
AcDbEntity
  8
SEMA2D
100
AcDbLine
370
9
 62
7
  6
_SOLID
 10
4.0655906008
 20
4.7052198468
 30
0
 11
4.0655906008
 21
4.7106256538
 31
0
  0
LINE
  5
116
100
AcDbEntity
  8
SEMA2D
100
AcDbLine
370
9
 62
7
  6
_SOLID
 10
4.0668959261
 20
4.7031424333
 30
0
 11
4.0668959261
 21
4.7126464236
 31
0
  0
LINE
  5
117
100
AcDbEntity
  8
SEMA2D
100
AcDbLine
370
9
 62
7
  6
_SOLID
 10
4.0860002529
 20
4.7107807586
 30
0
 11
4.0860002529
 21
4.7126464236
 31
0
  0
LINE
  5
118
100
AcDbEntity
  8
SEMA2D
100
AcDbLine
370
9
 62
7
  6
_SOLID
 10
4.0861562855
 20
4.7031424333
 30
0
 11
4.0861562855
 21
4.7106307771
 31
0
  0
LINE
  5
119
100
AcDbEntity
  8
SEMA2D
100
AcDbLine
370
9
 62
7
  6
_SOLID
 10
4.087392871
 20
4.696183
 30
0
 11
4.087392871
 21
4.6994071888
 31
0
  0
LINE
  5
11A
100
AcDbEntity
  8
SEMA2D
100
AcDbLine
370
9
 62
7
  6
_SOLID
 10
4.0879393846
 20
4.7049852634
 30
0
 11
4.0879393846
 21
4.7106307771
 31
0
  0
LINE
  5
11B
100
AcDbEntity
  8
SEMA2D
100
AcDbLine
370
9
 62
7
  6
_SOLID
 10
4.0891759701
 20
4.696183
 30
0
 11
4.0891759701
 21
4.6994072227
 31
0
  0
LINE
  5
11C
100
AcDbEntity
  8
SEMA2D
100
AcDbLine
370
9
 62
7
  6
_SOLID
 10
4.0897986251
 20
4.71361
 30
0
 11
4.0897986251
 21
4.696183
 31
0
  0
LINE
  5
11D
100
AcDbEntity
  8
SEMA2D
100
AcDbLine
370
9
 62
7
  6
_SOLID
 10
4.0907216251
 20
4.714552
 30
0
 11
4.0907216251
 21
4.696183
 31
0
  0
LINE
  5
11E
100
AcDbEntity
  8
SEMA2D
100
AcDbLine
370
9
 62
7
  6
_SOLID
 10
4.0925676251
 20
4.693357
 30
0
 11
4.0925676251
 21
4.6927215276
 31
0
  0
LINE
  5
11F
100
AcDbEntity
  8
SEMA2D
100
AcDbLine
370
9
 62
7
  6
_SOLID
 10
4.0925676251
 20
4.6909017234
 30
0
 11
4.0925676251
 21
4.6927215276
 31
0
  0
LINE
  5
120
100
AcDbEntity
  8
SEMA2D
100
AcDbLine
370
9
 62
7
  6
_SOLID
 10
3.9246197099
 20
4.6983634516
 30
0
 11
3.9260988937
 21
4.6968538574
 31
0
  0
LINE
  5
121
100
AcDbEntity
  8
SEMA2D
100
AcDbLine
370
9
 62
7
  6
_SOLID
 10
3.9283213328
 20
4.7021412893
 30
0
 11
3.9298004977
 21
4.7006316591
 31
0
  0
LINE
  5
122
100
AcDbEntity
  8
SEMA2D
100
AcDbLine
370
9
 62
7
  6
_SOLID
 10
4.114013101
 20
4.4897109625
 30
0
 11
4.1131530291
 21
4.6795301363
 31
0
  0
LINE
  5
123
100
AcDbEntity
  8
SEMA2D
100
AcDbLine
370
9
 62
7
  6
_SOLID
 10
4.1158310373
 20
4.4897195422
 30
0
 11
4.1149709654
 21
4.679538716
 31
0
  0
LINE
  5
124
100
AcDbEntity
  8
SEMA2D
100
AcDbLine
370
9
 62
7
  6
_SOLID
 10
4.1170271251
 20
4.4896495
 30
0
 11
4.1161041251
 21
4.693357
 31
0
  0
LINE
  5
125
100
AcDbEntity
  8
SEMA2D
100
AcDbLine
370
9
 62
7
  6
_SOLID
 10
4.1179501349
 20
4.4896495
 30
0
 11
4.1170228667
 21
4.694299
 31
0
  0
LINE
  5
126
100
AcDbEntity
  8
SEMA2D
100
AcDbLine
370
9
 62
7
  6
_SOLID
 10
4.1131530291
 20
4.6795301363
 30
0
 11
4.1131530291
 21
4.6813855141
 31
0
  0
LINE
  5
127
100
AcDbEntity
  8
SEMA2D
100
AcDbLine
370
9
 62
7
  6
_SOLID
 10
4.1132098383
 20
4.3123067309
 30
0
 11
4.114013101
 21
4.4895880374
 31
0
  0
LINE
  5
128
100
AcDbEntity
  8
SEMA2D
100
AcDbLine
370
9
 62
7
  6
_SOLID
 10
4.1150277745
 20
4.312298149
 30
0
 11
4.1158310373
 21
4.4895794591
 31
0
  0
LINE
  5
129
100
AcDbEntity
  8
SEMA2D
100
AcDbLine
370
9
 62
7
  6
_SOLID
 10
4.1161553436
 20
4.297246
 30
0
 11
4.1170271251
 21
4.4896495
 31
0
  0
LINE
  5
12A
100
AcDbEntity
  8
SEMA2D
100
AcDbLine
370
9
 62
7
  6
_SOLID
 10
4.1170776421
 20
4.2970890064
 30
0
 11
4.1179501349
 21
4.4896495
 31
0
  0
LINE
  5
12B
100
AcDbEntity
  8
SEMA2D
100
AcDbLine
370
9
 62
7
  6
_SOLID
 10
3.9481053914
 20
4.6758790599
 30
0
 11
3.9490233092
 21
4.6753407594
 31
0
  0
LINE
  5
12C
100
AcDbEntity
  8
SEMA2D
100
AcDbLine
370
9
 62
7
  6
_SOLID
 10
3.9495693051
 20
4.6774713886
 30
0
 11
3.9499286126
 21
4.6772606712
 31
0
  0
LINE
  5
12D
100
AcDbEntity
  8
SEMA2D
100
AcDbLine
370
9
 62
7
  6
_SOLID
 10
3.9841740348
 20
4.6781980485
 30
0
 11
3.9853726897
 21
4.6771141278
 31
0
  0
LINE
  5
12E
100
AcDbEntity
  8
SEMA2D
100
AcDbLine
370
9
 62
7
  6
_SOLID
 10
3.9848531771
 20
4.6789802762
 30
0
 11
3.9860518122
 21
4.6778963734
 31
0
  0
LINE
  5
12F
100
AcDbEntity
  8
SEMA2D
100
AcDbLine
370
9
 62
7
  6
_SOLID
 10
3.9989542717
 20
4.6805452405
 30
0
 11
4.0003201904
 21
4.6791513068
 31
0
  0
LINE
  5
130
100
AcDbEntity
  8
SEMA2D
100
AcDbLine
370
9
 62
7
  6
_SOLID
 10
4.0019309846
 20
4.6784310699
 30
0
 11
4.0008531633
 21
4.6796399265
 31
0
  0
LINE
  5
131
100
AcDbEntity
  8
SEMA2D
100
AcDbLine
370
9
 62
7
  6
_SOLID
 10
4.0008773057
 20
4.6774714158
 30
0
 11
3.9998152711
 21
4.6786947179
 31
0
  0
LINE
  5
132
100
AcDbEntity
  8
SEMA2D
100
AcDbLine
370
9
 62
7
  6
_SOLID
 10
4.0013821955
 20
4.6779279295
 30
0
 11
4.0003201373
 21
4.6791512588
 31
0
  0
LINE
  5
133
100
AcDbEntity
  8
SEMA2D
100
AcDbLine
370
9
 62
7
  6
_SOLID
 10
4.0318681406
 20
4.6842160963
 30
0
 11
4.0304529381
 21
4.6866326039
 31
0
  0
LINE
  5
134
100
AcDbEntity
  8
SEMA2D
100
AcDbLine
370
9
 62
7
  6
_SOLID
 10
3.8666047453
 20
4.2951838708
 30
0
 11
3.8657302732
 21
4.2948824481
 31
0
  0
LINE
  5
135
100
AcDbEntity
  8
SEMA2D
100
AcDbLine
370
9
 62
7
  6
_SOLID
 10
3.8701967105
 20
4.7118520868
 30
0
 11
3.8659711251
 21
4.71361
 31
0
  0
LINE
  5
136
100
AcDbEntity
  8
SEMA2D
100
AcDbLine
370
9
 62
7
  6
_SOLID
 10
3.8667611568
 20
4.2947112235
 30
0
 11
3.8658866847
 21
4.2944098008
 31
0
  0
LINE
  5
137
100
AcDbEntity
  8
SEMA2D
100
AcDbLine
370
9
 62
7
  6
_SOLID
 10
3.9619986375
 20
4.6791189768
 30
0
 11
3.9623579451
 21
4.6789802942
 31
0
  0
LINE
  5
138
100
AcDbEntity
  8
SEMA2D
100
AcDbLine
370
9
 62
7
  6
_SOLID
 10
3.9629950653
 20
4.6809228412
 30
0
 11
3.9638218587
 21
4.6806037498
 31
0
  0
LINE
  5
139
100
AcDbEntity
  8
SEMA2D
100
AcDbLine
370
9
 62
7
  6
_SOLID
 10
4.1161553436
 20
4.297246
 30
0
 11
4.1124121251
 21
4.285942
 31
0
  0
LINE
  5
13A
100
AcDbEntity
  8
SEMA2D
100
AcDbLine
370
9
 62
7
  6
_SOLID
 10
4.1130744758
 20
4.285
 30
0
 11
4.1170776421
 21
4.2970890064
 31
0
  0
LINE
  5
13B
100
AcDbEntity
  8
SEMA2D
100
AcDbLine
370
9
 62
7
  6
_SOLID
 10
4.0860002529
 20
4.7126464236
 30
0
 11
4.0897986251
 21
4.71361
 31
0
  0
LINE
  5
13C
100
AcDbEntity
  8
SEMA2D
100
AcDbLine
370
9
 62
7
  6
_SOLID
 10
3.9354305707
 20
4.6758613965
 30
0
 11
3.9313353969
 21
4.67521483
 31
0
  0
LINE
  5
13D
100
AcDbEntity
  8
SEMA2D
100
AcDbLine
370
9
 62
7
  6
_SOLID
 10
3.9347383186
 20
4.6772262494
 30
0
 11
3.9293445699
 21
4.6763746571
 31
0
  0
LINE
  5
13E
100
AcDbEntity
  8
SEMA2D
100
AcDbLine
370
9
 62
7
  6
_SOLID
 10
4.0469823721
 20
4.6787771229
 30
0
 11
4.0527306816
 21
4.679374361
 31
0
  0
LINE
  5
13F
100
AcDbEntity
  8
SEMA2D
100
AcDbLine
370
9
 62
7
  6
_SOLID
 10
4.0457826717
 20
4.6806037498
 30
0
 11
4.0518077106
 21
4.6812297418
 31
0
  0
LINE
  5
140
100
AcDbEntity
  8
SEMA2D
100
AcDbLine
370
9
 62
7
  6
_SOLID
 10
3.9831016498
 20
4.6700752961
 30
0
 11
3.9826835236
 21
4.670033054
 31
0
  0
LINE
  5
141
100
AcDbEntity
  8
SEMA2D
100
AcDbLine
370
9
 62
7
  6
_SOLID
 10
4.1139415264
 20
4.6851032275
 30
0
 11
4.1157594627
 21
4.6851118072
 31
0
  0
LINE
  5
142
100
AcDbEntity
  8
SEMA2D
100
AcDbLine
370
9
 62
7
  6
_SOLID
 10
3.935900503
 20
4.6758790599
 30
0
 11
3.9481053914
 21
4.6758790599
 31
0
  0
LINE
  5
143
100
AcDbEntity
  8
SEMA2D
100
AcDbLine
370
9
 62
7
  6
_SOLID
 10
3.9638218587
 20
4.6758790599
 30
0
 11
3.9826164014
 21
4.6758790599
 31
0
  0
LINE
  5
144
100
AcDbEntity
  8
SEMA2D
100
AcDbLine
370
9
 62
7
  6
_SOLID
 10
4.0008773293
 20
4.6758790599
 30
0
 11
4.0274833914
 21
4.6758790599
 31
0
  0
LINE
  5
145
100
AcDbEntity
  8
SEMA2D
100
AcDbLine
370
9
 62
7
  6
_SOLID
 10
4.0431998587
 20
4.6758790599
 30
0
 11
4.0461747471
 21
4.6758790599
 31
0
  0
LINE
  5
146
100
AcDbEntity
  8
SEMA2D
100
AcDbLine
370
9
 62
7
  6
_SOLID
 10
3.927037006
 20
4.6761548465
 30
0
 11
3.9214140448
 21
4.6761548465
 31
0
  0
LINE
  5
147
100
AcDbEntity
  8
SEMA2D
100
AcDbLine
370
9
 62
7
  6
_SOLID
 10
4.0582826251
 20
4.676335552
 30
0
 11
4.0550382443
 21
4.676335552
 31
0
  0
LINE
  5
148
100
AcDbEntity
  8
SEMA2D
100
AcDbLine
370
9
 62
7
  6
_SOLID
 10
4.0309796568
 20
4.6772606736
 30
0
 11
4.0293066126
 21
4.6772606736
 31
0
  0
LINE
  5
149
100
AcDbEntity
  8
SEMA2D
100
AcDbLine
370
9
 62
7
  6
_SOLID
 10
3.9516016568
 20
4.6772606736
 30
0
 11
3.9499286126
 21
4.6772606736
 31
0
  0
LINE
  5
14A
100
AcDbEntity
  8
SEMA2D
100
AcDbLine
370
9
 62
7
  6
_SOLID
 10
3.9603255934
 20
4.6772606736
 30
0
 11
3.9619986383
 21
4.6772606736
 31
0
  0
LINE
  5
14B
100
AcDbEntity
  8
SEMA2D
100
AcDbLine
370
9
 62
7
  6
_SOLID
 10
4.0397035934
 20
4.6772606736
 30
0
 11
4.0413766386
 21
4.6772606736
 31
0
  0
LINE
  5
14C
100
AcDbEntity
  8
SEMA2D
100
AcDbLine
370
9
 62
7
  6
_SOLID
 10
3.935092878
 20
4.6774713886
 30
0
 11
3.9495693051
 21
4.6774713886
 31
0
  0
LINE
  5
14D
100
AcDbEntity
  8
SEMA2D
100
AcDbLine
370
9
 62
7
  6
_SOLID
 10
4.0008773293
 20
4.6774713886
 30
0
 11
4.0289473051
 21
4.6774713886
 31
0
  0
LINE
  5
14E
100
AcDbEntity
  8
SEMA2D
100
AcDbLine
370
9
 62
7
  6
_SOLID
 10
4.0417359451
 20
4.6774713886
 30
0
 11
4.0469823721
 21
4.6774713886
 31
0
  0
LINE
  5
14F
100
AcDbEntity
  8
SEMA2D
100
AcDbLine
370
9
 62
7
  6
_SOLID
 10
3.9826164014
 20
4.6774713886
 30
0
 11
3.9623579451
 21
4.6774713886
 31
0
  0
LINE
  5
150
100
AcDbEntity
  8
SEMA2D
100
AcDbLine
370
9
 62
7
  6
_SOLID
 10
3.935900503
 20
4.6787771229
 30
0
 11
3.935092878
 21
4.6787771229
 31
0
  0
LINE
  5
151
100
AcDbEntity
  8
SEMA2D
100
AcDbLine
370
9
 62
7
  6
_SOLID
 10
4.0461747471
 20
4.6787771229
 30
0
 11
4.0469823132
 21
4.6787771229
 31
0
  0
LINE
  5
152
100
AcDbEntity
  8
SEMA2D
100
AcDbLine
370
9
 62
7
  6
_SOLID
 10
4.0457826492
 20
4.6789802942
 30
0
 11
4.0417359451
 21
4.6789802942
 31
0
  0
LINE
  5
153
100
AcDbEntity
  8
SEMA2D
100
AcDbLine
370
9
 62
7
  6
_SOLID
 10
4.0289473051
 20
4.6789802942
 30
0
 11
4.0033166081
 21
4.6789802942
 31
0
  0
LINE
  5
154
100
AcDbEntity
  8
SEMA2D
100
AcDbLine
370
9
 62
7
  6
_SOLID
 10
3.9848531573
 20
4.6789802942
 30
0
 11
3.9623579451
 21
4.6789802942
 31
0
  0
LINE
  5
155
100
AcDbEntity
  8
SEMA2D
100
AcDbLine
370
9
 62
7
  6
_SOLID
 10
3.9362926009
 20
4.6789802942
 30
0
 11
3.9495693051
 21
4.6789802942
 31
0
  0
LINE
  5
156
100
AcDbEntity
  8
SEMA2D
100
AcDbLine
370
9
 62
7
  6
_SOLID
 10
4.0309796568
 20
4.6791189575
 30
0
 11
4.0293066118
 21
4.6791189575
 31
0
  0
LINE
  5
157
100
AcDbEntity
  8
SEMA2D
100
AcDbLine
370
9
 62
7
  6
_SOLID
 10
3.9516016568
 20
4.6791189575
 30
0
 11
3.9499286119
 21
4.6791189575
 31
0
  0
LINE
  5
158
100
AcDbEntity
  8
SEMA2D
100
AcDbLine
370
9
 62
7
  6
_SOLID
 10
3.9603255934
 20
4.6791189575
 30
0
 11
3.9619986375
 21
4.6791189575
 31
0
  0
LINE
  5
159
100
AcDbEntity
  8
SEMA2D
100
AcDbLine
370
9
 62
7
  6
_SOLID
 10
4.0397035934
 20
4.6791189575
 30
0
 11
4.0413766375
 21
4.6791189575
 31
0
  0
LINE
  5
15A
100
AcDbEntity
  8
SEMA2D
100
AcDbLine
370
9
 62
7
  6
_SOLID
 10
3.8688377654
 20
4.6795301363
 30
0
 11
3.9270370087
 21
4.6795301363
 31
0
  0
LINE
  5
15B
100
AcDbEntity
  8
SEMA2D
100
AcDbLine
370
9
 62
7
  6
_SOLID
 10
4.0550382415
 20
4.6795301363
 30
0
 11
4.1131530291
 21
4.6795301363
 31
0
  0
LINE
  5
15C
100
AcDbEntity
  8
SEMA2D
100
AcDbLine
370
9
 62
7
  6
_SOLID
 10
4.0457826717
 20
4.6806037498
 30
0
 11
4.0431998587
 21
4.6806037498
 31
0
  0
LINE
  5
15D
100
AcDbEntity
  8
SEMA2D
100
AcDbLine
370
9
 62
7
  6
_SOLID
 10
4.0274833914
 20
4.6806037498
 30
0
 11
4.0033166081
 21
4.6806037498
 31
0
  0
LINE
  5
15E
100
AcDbEntity
  8
SEMA2D
100
AcDbLine
370
9
 62
7
  6
_SOLID
 10
3.9848531573
 20
4.6806037498
 30
0
 11
3.9638218587
 21
4.6806037498
 31
0
  0
LINE
  5
15F
100
AcDbEntity
  8
SEMA2D
100
AcDbLine
370
9
 62
7
  6
_SOLID
 10
3.9481053914
 20
4.6806037498
 30
0
 11
3.9362925785
 21
4.6806037498
 31
0
  0
LINE
  5
160
100
AcDbEntity
  8
SEMA2D
100
AcDbLine
370
9
 62
7
  6
_SOLID
 10
3.9956164091
 20
4.6807745758
 30
0
 11
3.9938442787
 21
4.6807745291
 31
0
  0
LINE
  5
161
100
AcDbEntity
  8
SEMA2D
100
AcDbLine
370
9
 62
7
  6
_SOLID
 10
3.8688377654
 20
4.6813855141
 30
0
 11
3.9270370395
 21
4.6813855141
 31
0
  0
LINE
  5
162
100
AcDbEntity
  8
SEMA2D
100
AcDbLine
370
9
 62
7
  6
_SOLID
 10
4.0550382106
 20
4.6813855141
 30
0
 11
4.1131530291
 21
4.6813855141
 31
0
  0
LINE
  5
163
100
AcDbEntity
  8
SEMA2D
100
AcDbLine
370
9
 62
7
  6
_SOLID
 10
4.1131598151
 20
4.681392472
 30
0
 11
4.0591946646
 21
4.6813924719
 31
0
  0
LINE
  5
164
100
AcDbEntity
  8
SEMA2D
100
AcDbLine
370
9
 62
7
  6
_SOLID
 10
3.9228805852
 20
4.6813924719
 30
0
 11
3.8688309779
 21
4.681392472
 31
0
  0
LINE
  5
165
100
AcDbEntity
  8
SEMA2D
100
AcDbLine
370
9
 62
7
  6
_SOLID
 10
3.9622971521
 20
4.6834398792
 30
0
 11
3.9905888125
 21
4.6834398791
 31
0
  0
LINE
  5
166
100
AcDbEntity
  8
SEMA2D
100
AcDbLine
370
9
 62
7
  6
_SOLID
 10
3.929807892
 20
4.6834398791
 30
0
 11
3.9496300971
 21
4.6834398793
 31
0
  0
LINE
  5
167
100
AcDbEntity
  8
SEMA2D
100
AcDbLine
370
9
 62
7
  6
_SOLID
 10
4.0416751513
 20
4.6834398792
 30
0
 11
4.0522673581
 21
4.6834398791
 31
0
  0
LINE
  5
168
100
AcDbEntity
  8
SEMA2D
100
AcDbLine
370
9
 62
7
  6
_SOLID
 10
3.9943640071
 20
4.6838516498
 30
0
 11
3.9977101639
 21
4.6838516502
 31
0
  0
LINE
  5
169
100
AcDbEntity
  8
SEMA2D
100
AcDbLine
370
9
 62
7
  6
_SOLID
 10
4.1139415264
 20
4.6851032264
 30
0
 11
4.0591946457
 21
4.6851032249
 31
0
  0
LINE
  5
16A
100
AcDbEntity
  8
SEMA2D
100
AcDbLine
370
9
 62
7
  6
_SOLID
 10
3.9228806026
 20
4.6851032269
 30
0
 11
3.8680480723
 21
4.6851032264
 31
0
  0
LINE
  5
16B
100
AcDbEntity
  8
SEMA2D
100
AcDbLine
370
9
 62
7
  6
_SOLID
 10
3.9246197112
 20
4.6859848225
 30
0
 11
3.9228140495
 21
4.6859848225
 31
0
  0
LINE
  5
16C
100
AcDbEntity
  8
SEMA2D
100
AcDbLine
370
9
 62
7
  6
_SOLID
 10
4.0574555402
 20
4.6859848225
 30
0
 11
4.0592612007
 21
4.6859848225
 31
0
  0
LINE
  5
16D
100
AcDbEntity
  8
SEMA2D
100
AcDbLine
370
9
 62
7
  6
_SOLID
 10
3.929807892
 20
4.6862229458
 30
0
 11
3.9496300973
 21
4.6862229456
 31
0
  0
LINE
  5
16E
100
AcDbEntity
  8
SEMA2D
100
AcDbLine
370
9
 62
7
  6
_SOLID
 10
3.9622971519
 20
4.6862229457
 30
0
 11
3.9905888128
 21
4.6862229458
 31
0
  0
LINE
  5
16F
100
AcDbEntity
  8
SEMA2D
100
AcDbLine
370
9
 62
7
  6
_SOLID
 10
4.0416751512
 20
4.6862229458
 30
0
 11
4.0522673581
 21
4.6862229458
 31
0
  0
LINE
  5
170
100
AcDbEntity
  8
SEMA2D
100
AcDbLine
370
9
 62
7
  6
_SOLID
 10
3.8688377654
 20
4.6795301363
 30
0
 11
3.8670198274
 21
4.6795383097
 31
0
  0
LINE
  5
171
100
AcDbEntity
  8
SEMA2D
100
AcDbLine
370
9
 62
7
  6
_SOLID
 10
3.8680480723
 20
4.6851032275
 30
0
 11
3.8662303443
 21
4.6851113999
 31
0
  0
LINE
  5
172
100
AcDbEntity
  8
SEMA2D
100
AcDbLine
370
9
 62
7
  6
_SOLID
 10
3.9293445685
 20
4.679374361
 30
0
 11
3.935092878
 21
4.6787771229
 31
0
  0
LINE
  5
173
100
AcDbEntity
  8
SEMA2D
100
AcDbLine
370
9
 62
7
  6
_SOLID
 10
3.9302675395
 20
4.6812297418
 30
0
 11
3.9362925785
 21
4.6806037498
 31
0
  0
LINE
  5
174
100
AcDbEntity
  8
SEMA2D
100
AcDbLine
370
9
 62
7
  6
_SOLID
 10
4.05048982
 20
4.6751977732
 30
0
 11
4.0461747471
 21
4.6758790599
 31
0
  0
LINE
  5
175
100
AcDbEntity
  8
SEMA2D
100
AcDbLine
370
9
 62
7
  6
_SOLID
 10
4.0527306802
 20
4.6765638166
 30
0
 11
4.0469823721
 21
4.6774713886
 31
0
  0
LINE
  5
176
100
AcDbEntity
  8
SEMA2D
100
AcDbLine
370
9
 62
7
  6
_SOLID
 10
4.0417359451
 20
4.6789802942
 30
0
 11
4.0413766375
 21
4.6791189615
 31
0
  0
LINE
  5
177
100
AcDbEntity
  8
SEMA2D
100
AcDbLine
370
9
 62
7
  6
_SOLID
 10
4.0274833914
 20
4.6758790599
 30
0
 11
4.0284013092
 21
4.6753407594
 31
0
  0
LINE
  5
178
100
AcDbEntity
  8
SEMA2D
100
AcDbLine
370
9
 62
7
  6
_SOLID
 10
4.0289473051
 20
4.6774713886
 30
0
 11
4.0293066126
 21
4.6772606715
 31
0
  0
LINE
  5
179
100
AcDbEntity
  8
SEMA2D
100
AcDbLine
370
9
 62
7
  6
_SOLID
 10
4.0522673581
 20
4.6834398791
 30
0
 11
4.0537129578
 21
4.6822160111
 31
0
  0
LINE
  5
17A
100
AcDbEntity
  8
SEMA2D
100
AcDbLine
370
9
 62
7
  6
_SOLID
 10
4.0559763564
 20
4.6872371433
 30
0
 11
4.0574555402
 21
4.6859848632
 31
0
  0
LINE
  5
17B
100
AcDbEntity
  8
SEMA2D
100
AcDbLine
370
9
 62
7
  6
_SOLID
 10
4.0655906008
 20
4.7106256538
 30
0
 11
4.0611339688
 21
4.7099864218
 31
0
  0
LINE
  5
17C
100
AcDbEntity
  8
SEMA2D
100
AcDbLine
370
9
 62
7
  6
_SOLID
 10
4.0642852879
 20
4.7124913197
 30
0
 11
4.0598286496
 21
4.7118520868
 31
0
  0
LINE
  5
17D
100
AcDbEntity
  8
SEMA2D
100
AcDbLine
370
9
 62
7
  6
_SOLID
 10
4.0559763564
 20
4.6872371433
 30
0
 11
4.0532678657
 21
4.6872371433
 31
0
  0
LINE
  5
17E
100
AcDbEntity
  8
SEMA2D
100
AcDbLine
370
9
 62
7
  6
_SOLID
 10
3.926098919
 20
4.6872371433
 30
0
 11
3.9288073844
 21
4.6872371433
 31
0
  0
LINE
  5
17F
100
AcDbEntity
  8
SEMA2D
100
AcDbLine
370
9
 62
7
  6
_SOLID
 10
4.1139152627
 20
4.6909017234
 30
0
 11
4.0925676251
 21
4.6909017234
 31
0
  0
LINE
  5
180
100
AcDbEntity
  8
SEMA2D
100
AcDbLine
370
9
 62
7
  6
_SOLID
 10
4.1142772701
 20
4.6927215276
 30
0
 11
4.0925676251
 21
4.6927215276
 31
0
  0
LINE
  5
181
100
AcDbEntity
  8
SEMA2D
100
AcDbLine
370
9
 62
7
  6
_SOLID
 10
4.0925676251
 20
4.693357
 30
0
 11
4.1161041251
 21
4.693357
 31
0
  0
LINE
  5
182
100
AcDbEntity
  8
SEMA2D
100
AcDbLine
370
9
 62
7
  6
_SOLID
 10
4.0925676251
 20
4.694299
 30
0
 11
4.1170228667
 21
4.694299
 31
0
  0
LINE
  5
183
100
AcDbEntity
  8
SEMA2D
100
AcDbLine
370
9
 62
7
  6
_SOLID
 10
4.0897986251
 20
4.696183
 30
0
 11
4.0891759701
 21
4.696183
 31
0
  0
LINE
  5
184
100
AcDbEntity
  8
SEMA2D
100
AcDbLine
370
9
 62
7
  6
_SOLID
 10
4.087392871
 20
4.696183
 30
0
 11
4.0891759701
 21
4.696183
 31
0
  0
LINE
  5
185
100
AcDbEntity
  8
SEMA2D
100
AcDbLine
370
9
 62
7
  6
_SOLID
 10
4.0559763564
 20
4.6968538574
 30
0
 11
4.0532678657
 21
4.6968538574
 31
0
  0
LINE
  5
186
100
AcDbEntity
  8
SEMA2D
100
AcDbLine
370
9
 62
7
  6
_SOLID
 10
3.9260988937
 20
4.6968538574
 30
0
 11
3.9288073844
 21
4.6968538574
 31
0
  0
LINE
  5
187
100
AcDbEntity
  8
SEMA2D
100
AcDbLine
370
9
 62
7
  6
_SOLID
 10
4.0522747525
 20
4.697867414
 30
0
 11
3.9298004977
 21
4.697867414
 31
0
  0
LINE
  5
188
100
AcDbEntity
  8
SEMA2D
100
AcDbLine
370
9
 62
7
  6
_SOLID
 10
3.9246197099
 20
4.6983634903
 30
0
 11
3.9228140495
 21
4.6983634903
 31
0
  0
LINE
  5
189
100
AcDbEntity
  8
SEMA2D
100
AcDbLine
370
9
 62
7
  6
_SOLID
 10
4.0574555391
 20
4.6983634903
 30
0
 11
4.0592612007
 21
4.6983634903
 31
0
  0
LINE
  5
18A
100
AcDbEntity
  8
SEMA2D
100
AcDbLine
370
9
 62
7
  6
_SOLID
 10
3.8681098145
 20
4.6994072237
 30
0
 11
3.9229065453
 21
4.6994072185
 31
0
  0
LINE
  5
18B
100
AcDbEntity
  8
SEMA2D
100
AcDbLine
370
9
 62
7
  6
_SOLID
 10
4.0591687074
 20
4.6994072143
 30
0
 11
4.0891756716
 21
4.6994072227
 31
0
  0
LINE
  5
18C
100
AcDbEntity
  8
SEMA2D
100
AcDbLine
370
9
 62
7
  6
_SOLID
 10
4.0522747525
 20
4.7006316591
 30
0
 11
3.9298004977
 21
4.7006316591
 31
0
  0
LINE
  5
18D
100
AcDbEntity
  8
SEMA2D
100
AcDbLine
370
9
 62
7
  6
_SOLID
 10
3.8681098145
 20
4.6994072227
 30
0
 11
3.8662918765
 21
4.6994153961
 31
0
  0
LINE
  5
18E
100
AcDbEntity
  8
SEMA2D
100
AcDbLine
370
9
 62
7
  6
_SOLID
 10
4.0431998587
 20
4.6806037498
 30
0
 11
4.042373064
 21
4.680922841
 31
0
  0
LINE
  5
18F
100
AcDbEntity
  8
SEMA2D
100
AcDbLine
370
9
 62
7
  6
_SOLID
 10
4.0591687248
 20
4.7030928828
 30
0
 11
4.086217482
 21
4.7030928885
 31
0
  0
LINE
  5
190
100
AcDbEntity
  8
SEMA2D
100
AcDbLine
370
9
 62
7
  6
_SOLID
 10
3.8689071512
 20
4.7030928829
 30
0
 11
3.9229065249
 21
4.7030928828
 31
0
  0
LINE
  5
191
100
AcDbEntity
  8
SEMA2D
100
AcDbLine
370
9
 62
7
  6
_SOLID
 10
4.0668959261
 20
4.7031424333
 30
0
 11
4.0861562855
 21
4.7031424333
 31
0
  0
LINE
  5
192
100
AcDbEntity
  8
SEMA2D
100
AcDbLine
370
9
 62
7
  6
_SOLID
 10
3.8699293252
 20
4.704343803
 30
0
 11
4.0598286496
 21
4.704343803
 31
0
  0
LINE
  5
193
100
AcDbEntity
  8
SEMA2D
100
AcDbLine
370
9
 62
7
  6
_SOLID
 10
4.0668959326
 20
4.7049852634
 30
0
 11
4.0879393846
 21
4.7049852634
 31
0
  0
LINE
  5
194
100
AcDbEntity
  8
SEMA2D
100
AcDbLine
370
9
 62
7
  6
_SOLID
 10
3.8699293252
 20
4.7061866331
 30
0
 11
4.0611339688
 21
4.7061866331
 31
0
  0
LINE
  5
195
100
AcDbEntity
  8
SEMA2D
100
AcDbLine
370
9
 62
7
  6
_SOLID
 10
4.0611339688
 20
4.7099864218
 30
0
 11
3.8701967105
 21
4.7099864218
 31
0
  0
LINE
  5
196
100
AcDbEntity
  8
SEMA2D
100
AcDbLine
370
9
 62
7
  6
_SOLID
 10
4.0861562855
 20
4.7106307771
 30
0
 11
4.0879392411
 21
4.7106307771
 31
0
  0
LINE
  5
197
100
AcDbEntity
  8
SEMA2D
100
AcDbLine
370
9
 62
7
  6
_SOLID
 10
4.0860002529
 20
4.7107807586
 30
0
 11
4.0668959325
 21
4.7107807586
 31
0
  0
LINE
  5
198
100
AcDbEntity
  8
SEMA2D
100
AcDbLine
370
9
 62
7
  6
_SOLID
 10
4.0598286496
 20
4.7118520868
 30
0
 11
3.8701967105
 21
4.7118520868
 31
0
  0
LINE
  5
199
100
AcDbEntity
  8
SEMA2D
100
AcDbLine
370
9
 62
7
  6
_SOLID
 10
4.0860002529
 20
4.7126464236
 30
0
 11
4.0668959261
 21
4.7126464236
 31
0
  0
LINE
  5
19A
100
AcDbEntity
  8
SEMA2D
100
AcDbLine
370
9
 62
7
  6
_SOLID
 10
4.0897986251
 20
4.71361
 30
0
 11
3.8659711251
 21
4.71361
 31
0
  0
LINE
  5
19B
100
AcDbEntity
  8
SEMA2D
100
AcDbLine
370
9
 62
7
  6
_SOLID
 10
4.0907216251
 20
4.714552
 30
0
 11
3.8650521822
 21
4.714552
 31
0
  0
LINE
  5
19C
100
AcDbEntity
  8
SEMA2D
100
AcDbLine
370
9
 62
7
  6
_SOLID
 10
3.8699293376
 20
4.7061866205
 30
0
 11
3.8681113872
 21
4.7061948065
 31
0
  0
LINE
  5
19D
100
AcDbEntity
  8
SEMA2D
100
AcDbLine
370
9
 62
7
  6
_SOLID
 10
3.8699446337
 20
4.7097331824
 30
0
 11
3.8681266957
 21
4.7097413558
 31
0
  0
LINE
  5
19E
100
AcDbEntity
  8
SEMA2D
100
AcDbLine
370
9
 62
7
  6
_SOLID
 10
4.0598286496
 20
4.704343803
 30
0
 11
4.0642852879
 21
4.7033770154
 31
0
  0
LINE
  5
19F
100
AcDbEntity
  8
SEMA2D
100
AcDbLine
370
9
 62
7
  6
_SOLID
 10
4.0611339688
 20
4.7061866331
 30
0
 11
4.0655906008
 21
4.7052198468
 31
0
  0
ARC
  5
1A0
100
AcDbEntity
  8
SEMA2D
100
AcDbCircle
370
9
 62
7
  6
_SOLID
 10
3.8470035059
 20
4.6735927774
 30
0
 40
0.1539684545
100
AcDbArc
 50
2.25088489617735
 51
3.26091936547268
  0
ARC
  5
1A1
100
AcDbEntity
  8
SEMA2D
100
AcDbCircle
370
9
 62
7
  6
_SOLID
 10
3.8934381467
 20
4.6795147887
 30
0
 40
0.1098838574
100
AcDbArc
 50
0.567816731878774
 51
2.04706105267261
  0
ARC
  5
1A2
100
AcDbEntity
  8
SEMA2D
100
AcDbCircle
370
9
 62
7
  6
_SOLID
 10
3.9640039199
 20
4.719265005
 30
0
 40
0.0557304237999998
100
AcDbArc
 50
312.120871913906
 51
312.886316180042
  0
ARC
  5
1A3
100
AcDbEntity
  8
SEMA2D
100
AcDbCircle
370
9
 62
7
  6
_SOLID
 10
3.963791231
 20
4.7195310701
 30
0
 40
0.0544508050000001
100
AcDbArc
 50
312.133605865521
 51
312.894446650178
  0
ARC
  5
1A4
100
AcDbEntity
  8
SEMA2D
100
AcDbCircle
370
9
 62
7
  6
_SOLID
 10
3.9546978401
 20
4.6468740898
 30
0
 40
0.0290267389999999
100
AcDbArc
 50
101.273538132815
 51
102.041526093091
  0
ARC
  5
1A5
100
AcDbEntity
  8
SEMA2D
100
AcDbCircle
370
9
 62
7
  6
_SOLID
 10
3.9572395779
 20
4.6469241583
 30
0
 40
0.0289756491000002
100
AcDbArc
 50
77.9575222240384
 51
78.7268282914113
  0
ARC
  5
1A6
100
AcDbEntity
  8
SEMA2D
100
AcDbCircle
370
9
 62
7
  6
_SOLID
 10
3.8817027045
 20
4.4997760004
 30
0
 40
0.0154586578
100
AcDbArc
 50
179.752695676344
 51
180.247312024283
  0
ARC
  5
1A7
100
AcDbEntity
  8
SEMA2D
100
AcDbCircle
370
9
 62
7
  6
_SOLID
 10
3.8816270632
 20
4.4997760002
 30
0
 40
0.0135650679000001
100
AcDbArc
 50
179.752690313413
 51
180.247311726349
  0
ARC
  5
1A8
100
AcDbEntity
  8
SEMA2D
100
AcDbCircle
370
9
 62
7
  6
_SOLID
 10
3.9560667554
 20
4.683175477
 30
0
 40
0.0107031844999999
100
AcDbArc
 50
299.435887675052
 51
301.033366269099
  0
ARC
  5
1A9
100
AcDbEntity
  8
SEMA2D
100
AcDbCircle
370
9
 62
7
  6
_SOLID
 10
3.9555493869
 20
4.6782632739
 30
0
 40
0.00940296249999961
100
AcDbArc
 50
239.223104481146
 51
297.864068898016
  0
ARC
  5
1AA
100
AcDbEntity
  8
SEMA2D
100
AcDbCircle
370
9
 62
7
  6
_SOLID
 10
3.9559636251
 20
4.6786402143
 30
0
 40
0.00936888950000014
100
AcDbArc
 50
58.5472203628439
 51
121.452780053804
  0
ARC
  5
1AB
100
AcDbEntity
  8
SEMA2D
100
AcDbCircle
370
9
 62
7
  6
_SOLID
 10
3.9490179626
 20
4.6676250668
 30
0
 40
0.00764631400000026
100
AcDbArc
 50
88.8120398892949
 51
92.8162238226033
  0
ARC
  5
1AC
100
AcDbEntity
  8
SEMA2D
100
AcDbCircle
370
9
 62
7
  6
_SOLID
 10
3.962909301
 20
4.6676253486
 30
0
 40
0.00764603130000019
100
AcDbArc
 50
87.1837716686891
 51
91.1880575918099
  0
ARC
  5
1AD
100
AcDbEntity
  8
SEMA2D
100
AcDbCircle
370
9
 62
7
  6
_SOLID
 10
3.9486538403
 20
4.6880055592
 30
0
 40
0.00701042459999979
100
AcDbArc
 50
268.072107331289
 51
274.216457196643
  0
ARC
  5
1AE
100
AcDbEntity
  8
SEMA2D
100
AcDbCircle
370
9
 62
7
  6
_SOLID
 10
3.9632733866
 20
4.688004656
 30
0
 40
0.00700952139999989
100
AcDbArc
 50
265.783197365985
 51
271.928311113208
  0
ARC
  5
1AF
100
AcDbEntity
  8
SEMA2D
100
AcDbCircle
370
9
 62
7
  6
_SOLID
 10
3.9287198484
 20
4.6983660775
 30
0
 40
0.00590579950000025
100
AcDbArc
 50
169.846188176245
 51
180.025099872333
  0
ARC
  5
1B0
100
AcDbEntity
  8
SEMA2D
100
AcDbCircle
370
9
 62
7
  6
_SOLID
 10
3.9286653556
 20
4.6859832373
 30
0
 40
0.00585130630000008
100
AcDbArc
 50
179.984477272524
 51
188.649849200458
  0
ARC
  5
1B1
100
AcDbEntity
  8
SEMA2D
100
AcDbCircle
370
9
 62
7
  6
_SOLID
 10
3.9560258961
 20
4.678188823
 30
0
 40
0.00557132540000005
100
AcDbArc
 50
231.719104137139
 51
237.779781135669
  0
ARC
  5
1B2
100
AcDbEntity
  8
SEMA2D
100
AcDbCircle
370
9
 62
7
  6
_SOLID
 10
3.9560136235
 20
4.6781698406
 30
0
 40
0.00554872269999973
100
AcDbArc
 50
90
 51
270
  0
ARC
  5
1B3
100
AcDbEntity
  8
SEMA2D
100
AcDbCircle
370
9
 62
7
  6
_SOLID
 10
3.9560136235
 20
4.6781698406
 30
0
 40
0.00554872269999973
100
AcDbArc
 50
270
 51
90
  0
ARC
  5
1B4
100
AcDbEntity
  8
SEMA2D
100
AcDbCircle
370
9
 62
7
  6
_SOLID
 10
3.9622419945
 20
4.6888958006
 30
0
 40
0.00545591530000022
100
AcDbArc
 50
239.062696429239
 51
270
  0
ARC
  5
1B5
100
AcDbEntity
  8
SEMA2D
100
AcDbCircle
370
9
 62
7
  6
_SOLID
 10
3.9496852557
 20
4.6888958004
 30
0
 40
0.00545591510000043
100
AcDbArc
 50
270
 51
300.93730451899
  0
ARC
  5
1B6
100
AcDbEntity
  8
SEMA2D
100
AcDbCircle
370
9
 62
7
  6
_SOLID
 10
3.9882197928
 20
4.6842546984
 30
0
 40
0.00448358740000021
100
AcDbArc
 50
311.114306850813
 51
316.7496154193
  0
ARC
  5
1B7
100
AcDbEntity
  8
SEMA2D
100
AcDbCircle
370
9
 62
7
  6
_SOLID
 10
3.9493264916
 20
4.6678157475
 30
0
 40
0.00275741230000004
100
AcDbArc
 50
59.211882874895
 51
73.4246408023068
  0
ARC
  5
1B8
100
AcDbEntity
  8
SEMA2D
100
AcDbCircle
370
9
 62
7
  6
_SOLID
 10
3.9769557056
 20
5.3822604934
 30
0
 40
0.7122288952
100
AcDbArc
 50
268.717775278707
 51
270.019059166386
  0
ARC
  5
1B9
100
AcDbEntity
  8
SEMA2D
100
AcDbCircle
370
9
 62
7
  6
_SOLID
 10
3.9771265276
 20
5.3628293415
 30
0
 40
0.6891564676
100
AcDbArc
 50
268.686313799585
 51
270
  0
ARC
  5
1BA
100
AcDbEntity
  8
SEMA2D
100
AcDbCircle
370
9
 62
7
  6
_SOLID
 10
3.9757765508
 20
5.3468072921
 30
0
 40
0.6767547813
100
AcDbArc
 50
266.158736818081
 51
267.773653307736
  0
ARC
  5
1BB
100
AcDbEntity
  8
SEMA2D
100
AcDbCircle
370
9
 62
7
  6
_SOLID
 10
3.9760039762
 20
5.3301487808
 30
0
 40
0.6564554499
100
AcDbArc
 50
266.098288124917
 51
267.73122959752
  0
ARC
  5
1BC
100
AcDbEntity
  8
SEMA2D
100
AcDbCircle
370
9
 62
7
  6
_SOLID
 10
15.4119529858
 20
4.5691323287
 30
0
 40
11.4882090593
100
AcDbArc
 50
179.899586178648
 51
180.1540279655
  0
ARC
  5
1BD
100
AcDbEntity
  8
SEMA2D
100
AcDbCircle
370
9
 62
7
  6
_SOLID
 10
4.0051876331
 20
5.3765530268
 30
0
 40
0.7065214551
100
AcDbArc
 50
269.975265176303
 51
272.014604425513
  0
ARC
  5
1BE
100
AcDbEntity
  8
SEMA2D
100
AcDbCircle
370
9
 62
7
  6
_SOLID
 10
4.0050093545
 20
5.3579413586
 30
0
 40
0.684268493199999
100
AcDbArc
 50
270
 51
272.054773960324
  0
ARC
  5
1BF
100
AcDbEntity
  8
SEMA2D
100
AcDbCircle
370
9
 62
7
  6
_SOLID
 10
4.0069329866
 20
5.3157225218
 30
0
 40
0.6420040086
100
AcDbArc
 50
273.126821705949
 51
273.890226583819
  0
ARC
  5
1C0
100
AcDbEntity
  8
SEMA2D
100
AcDbCircle
370
9
 62
7
  6
_SOLID
 10
3.9929372739
 20
5.0823194011
 30
0
 40
0.4124138913
100
AcDbArc
 50
260.012934765888
 51
260.51689538466
  0
ARC
  5
1C1
100
AcDbEntity
  8
SEMA2D
100
AcDbCircle
370
9
 62
7
  6
_SOLID
 10
4.0334633884
 20
4.603752113
 30
0
 40
0.0904896089
100
AcDbArc
 50
118.281677670714
 51
118.471634896674
  0
ARC
  5
1C2
100
AcDbEntity
  8
SEMA2D
100
AcDbCircle
370
9
 62
7
  6
_SOLID
 10
4.0340760484
 20
4.6468730687
 30
0
 40
0.0290277811999999
100
AcDbArc
 50
101.273547141222
 51
102.041507556759
  0
ARC
  5
1C3
100
AcDbEntity
  8
SEMA2D
100
AcDbCircle
370
9
 62
7
  6
_SOLID
 10
4.0366167692
 20
4.6469201609
 30
0
 40
0.0289797274999994
100
AcDbArc
 50
77.9576047413494
 51
78.726805091144
  0
ARC
  5
1C4
100
AcDbEntity
  8
SEMA2D
100
AcDbCircle
370
9
 62
7
  6
_SOLID
 10
4.0092243143
 20
4.6726089244
 30
0
 40
0.0266654978999998
100
AcDbArc
 50
185.54377239987
 51
186.796453246209
  0
ARC
  5
1C5
100
AcDbEntity
  8
SEMA2D
100
AcDbCircle
370
9
 62
7
  6
_SOLID
 10
4.1003725211
 20
4.4896494996
 30
0
 40
0.0154586668999994
100
AcDbArc
 50
-0.259598084229282
 51
0.259605590057017
  0
ARC
  5
1C6
100
AcDbEntity
  8
SEMA2D
100
AcDbCircle
370
9
 62
7
  6
_SOLID
 10
4.1004481603
 20
4.4896494998
 30
0
 40
0.0135650799000002
100
AcDbArc
 50
-0.259603785233971
 51
0.259605360876354
  0
ARC
  5
1C7
100
AcDbEntity
  8
SEMA2D
100
AcDbCircle
370
9
 62
7
  6
_SOLID
 10
4.0359358322
 20
4.6782638411
 30
0
 40
0.00940342680000006
100
AcDbArc
 50
239.299695115724
 51
304.9261159333
  0
ARC
  5
1C8
100
AcDbEntity
  8
SEMA2D
100
AcDbCircle
370
9
 62
7
  6
_SOLID
 10
4.0353416251
 20
4.6786402143
 30
0
 40
0.00936888950000014
100
AcDbArc
 50
58.5472201181235
 51
121.452780699415
  0
ARC
  5
1C9
100
AcDbEntity
  8
SEMA2D
100
AcDbCircle
370
9
 62
7
  6
_SOLID
 10
4.0283959625
 20
4.6676250498
 30
0
 40
0.00764633100000012
100
AcDbArc
 50
88.8120413277038
 51
92.8162177130556
  0
ARC
  5
1CA
100
AcDbEntity
  8
SEMA2D
100
AcDbCircle
370
9
 62
7
  6
_SOLID
 10
4.0422873028
 20
4.6676252905
 30
0
 40
0.0076460893000001
100
AcDbArc
 50
87.1838094089828
 51
91.188063116309
  0
ARC
  5
1CB
100
AcDbEntity
  8
SEMA2D
100
AcDbCircle
370
9
 62
7
  6
_SOLID
 10
4.0280318402
 20
4.6880059617
 30
0
 40
0.00701082650000018
100
AcDbArc
 50
268.072220749471
 51
274.2161920763
  0
ARC
  5
1CC
100
AcDbEntity
  8
SEMA2D
100
AcDbCircle
370
9
 62
7
  6
_SOLID
 10
4.042651386
 20
4.6880045162
 30
0
 40
0.00700938170000009
100
AcDbArc
 50
265.783110137862
 51
271.928351134049
  0
ARC
  5
1CD
100
AcDbEntity
  8
SEMA2D
100
AcDbCircle
370
9
 62
7
  6
_SOLID
 10
4.0533556819
 20
4.698366112
 30
0
 40
0.00590551940000017
100
AcDbArc
 50
-0.0254364850674304
 51
10.1539168413293
  0
ARC
  5
1CE
100
AcDbEntity
  8
SEMA2D
100
AcDbCircle
370
9
 62
7
  6
_SOLID
 10
4.0534096367
 20
4.685983267
 30
0
 40
0.00585156420000033
100
AcDbArc
 50
351.350220044481
 51
0.0152310403760739
  0
ARC
  5
1CF
100
AcDbEntity
  8
SEMA2D
100
AcDbCircle
370
9
 62
7
  6
_SOLID
 10
4.0353859377
 20
4.6781604627
 30
0
 40
0.00553775580000027
100
AcDbArc
 50
90
 51
270
  0
ARC
  5
1D0
100
AcDbEntity
  8
SEMA2D
100
AcDbCircle
370
9
 62
7
  6
_SOLID
 10
4.0353859377
 20
4.6781604627
 30
0
 40
0.00553775580000027
100
AcDbArc
 50
270
 51
90
  0
ARC
  5
1D1
100
AcDbEntity
  8
SEMA2D
100
AcDbCircle
370
9
 62
7
  6
_SOLID
 10
4.0416199938
 20
4.6888957987
 30
0
 40
0.00545591330000006
100
AcDbArc
 50
239.062692494841
 51
270
  0
ARC
  5
1D2
100
AcDbEntity
  8
SEMA2D
100
AcDbCircle
370
9
 62
7
  6
_SOLID
 10
4.0290632566
 20
4.6888957973
 30
0
 40
0.0054559118999995
100
AcDbArc
 50
270
 51
300.9373110976
  0
LINE
  5
1D3
100
AcDbEntity
  8
SEMA2D
100
AcDbLine
370
9
 62
7
  6
_SOLID
 10
3.98310166
 20
4.6700753035
 30
0
 11
3.9827461723
 21
4.669453483
 31
0
  0
LINE
  5
1D4
100
AcDbEntity
  8
SEMA2D
100
AcDbLine
370
9
 62
7
  6
_SOLID
 10
3.9826835241
 20
4.670033054
 30
0
 11
3.9771926251
 21
4.6700316376
 31
0
  0
LINE
  5
1D5
100
AcDbEntity
  8
SEMA2D
100
AcDbLine
370
9
 62
7
  6
_SOLID
 10
3.9902357009
 20
4.6694520517
 30
0
 11
3.9827461742
 21
4.6694531082
 31
0
  0
LINE
  5
1D6
100
AcDbEntity
  8
SEMA2D
100
AcDbLine
370
9
 62
7
  6
_SOLID
 10
3.9998620058
 20
4.6814816482
 30
0
 11
4.000722509
 21
4.6823508289
 31
0
  0
LINE
  5
1D7
100
AcDbEntity
  8
SEMA2D
100
AcDbLine
370
9
 62
7
  6
_SOLID
 10
3.9890670078
 20
4.6715033167
 30
0
 11
3.9855727322
 21
4.6715037196
 31
0
  0
LINE
  5
1D8
100
AcDbEntity
  8
SEMA2D
100
AcDbLine
370
9
 62
7
  6
_SOLID
 10
4.0048826249
 20
4.6700327988
 30
0
 11
3.9962489807
 21
4.6700328046
 31
0
  0
LINE
  5
1D9
100
AcDbEntity
  8
SEMA2D
100
AcDbLine
370
9
 62
7
  6
_SOLID
 10
4.0032518789
 20
4.6834398799
 30
0
 11
4.0290080989
 21
4.6834398791
 31
0
  0
LINE
  5
1DA
100
AcDbEntity
  8
SEMA2D
100
AcDbLine
370
9
 62
7
  6
_SOLID
 10
4.1139415264
 20
4.6851032264
 30
0
 11
4.1139152627
 21
4.6909017234
 31
0
  0
LINE
  5
1DB
100
AcDbEntity
  8
SEMA2D
100
AcDbLine
370
9
 62
7
  6
_SOLID
 10
3.9821176006
 20
4.6736733279
 30
0
 11
3.977191462
 21
4.6736727343
 31
0
  0
LINE
  5
1DC
100
AcDbEntity
  8
SEMA2D
100
AcDbLine
370
9
 62
7
  6
_SOLID
 10
4.0048837878
 20
4.6736726552
 30
0
 11
3.9962492399
 21
4.6736735232
 31
0
  0
LINE
  5
1DD
100
AcDbEntity
  8
SEMA2D
100
AcDbLine
370
9
 62
7
  6
_SOLID
 10
4.1157594627
 20
4.6851118072
 30
0
 11
4.115733188
 21
4.690910303
 31
0
  0
ARC
  5
1DE
100
AcDbEntity
  8
SEMA2D
100
AcDbCircle
370
9
 62
7
  6
_SOLID
 10
4.0925676251
 20
4.696183
 30
0
 40
0.001884
100
AcDbArc
 50
90
 51
180
  0
LINE
  5
1DF
100
AcDbEntity
  8
SEMA2D
100
AcDbLine
370
9
 62
7
  6
_SOLID
 10
4.0413194788
 20
4.6705540561
 30
0
 11
4.0582826251
 21
4.6722427815
 31
0
  0
LINE
  5
1E0
100
AcDbEntity
  8
SEMA2D
100
AcDbLine
370
9
 62
7
  6
_SOLID
 10
3.6463963849
 20
4.7106307771
 30
0
 11
3.653478
 21
4.71361
 31
0
  0
LINE
  5
1E1
100
AcDbEntity
  8
SEMA2D
100
AcDbLine
370
9
 62
7
  6
_SOLID
 10
3.6878776151
 20
4.2901750106
 30
0
 11
3.681738
 21
4.288580382
 31
0
  0
LINE
  5
1E2
100
AcDbEntity
  8
SEMA2D
100
AcDbLine
370
9
 62
7
  6
_SOLID
 10
3.689274
 20
4.2893226637
 30
0
 11
3.6896173214
 21
4.2893953089
 31
0
  0
LINE
  5
1E3
100
AcDbEntity
  8
SEMA2D
100
AcDbLine
370
9
 62
7
  6
_SOLID
 10
3.681738
 20
4.286413
 30
0
 11
3.6957241532
 21
4.2888791361
 31
0
  0
LINE
  5
1E4
100
AcDbEntity
  8
SEMA2D
100
AcDbLine
370
9
 62
7
  6
_SOLID
 10
3.6955977606
 20
4.2945270734
 30
0
 11
3.6963994555
 21
4.2945285839
 31
0
  0
LINE
  5
1E5
100
AcDbEntity
  8
SEMA2D
100
AcDbLine
370
9
 62
7
  6
_SOLID
 10
3.681738
 20
4.285
 30
0
 11
3.67797
 21
4.285
 31
0
  0
LINE
  5
1E6
100
AcDbEntity
  8
SEMA2D
100
AcDbLine
370
9
 62
7
  6
_SOLID
 10
3.6579294102
 20
4.2970890064
 30
0
 11
3.653478
 21
4.2970890064
 31
0
  0
LINE
  5
1E7
100
AcDbEntity
  8
SEMA2D
100
AcDbLine
370
9
 62
7
  6
_SOLID
 10
3.6964705259
 20
4.2921109421
 30
0
 11
3.697281
 21
4.2921065601
 31
0
  0
LINE
  5
1E8
100
AcDbEntity
  8
SEMA2D
100
AcDbLine
370
9
 62
7
  6
_SOLID
 10
3.6735757447
 20
4.2867168258
 30
0
 11
3.6652390086
 21
4.2881868173
 31
0
  0
LINE
  5
1E9
100
AcDbEntity
  8
SEMA2D
100
AcDbLine
370
9
 62
7
  6
_SOLID
 10
3.6815292021
 20
4.302608721
 30
0
 11
3.683151
 21
4.302608721
 31
0
  0
LINE
  5
1EA
100
AcDbEntity
  8
SEMA2D
100
AcDbLine
370
9
 62
7
  6
_SOLID
 10
3.6857042457
 20
4.2979754653
 30
0
 11
3.6855219879
 21
4.2980212493
 31
0
  0
LINE
  5
1EB
100
AcDbEntity
  8
SEMA2D
100
AcDbLine
370
9
 62
7
  6
_SOLID
 10
3.6886791767
 20
4.2971907218
 30
0
 11
3.6860025667
 21
4.2978965567
 31
0
  0
LINE
  5
1EC
100
AcDbEntity
  8
SEMA2D
100
AcDbLine
370
9
 62
7
  6
_SOLID
 10
3.6860025667
 20
4.2978965567
 30
0
 11
3.685703433
 21
4.297975681
 31
0
  0
LINE
  5
1ED
100
AcDbEntity
  8
SEMA2D
100
AcDbLine
370
9
 62
7
  6
_SOLID
 10
3.6783189549
 20
4.2968828759
 30
0
 11
3.6841423901
 21
4.2953224911
 31
0
  0
LINE
  5
1EE
100
AcDbEntity
  8
SEMA2D
100
AcDbLine
370
9
 62
7
  6
_SOLID
 10
3.6843988989
 20
4.2971392794
 30
0
 11
3.67085517
 21
4.3007683106
 31
0
  0
LINE
  5
1EF
100
AcDbEntity
  8
SEMA2D
100
AcDbLine
370
9
 62
7
  6
_SOLID
 10
3.6932973039
 20
4.2969004282
 30
0
 11
3.683151
 21
4.2996191221
 31
0
  0
LINE
  5
1F0
100
AcDbEntity
  8
SEMA2D
100
AcDbLine
370
9
 62
7
  6
_SOLID
 10
3.6888299098
 20
4.2971488906
 30
0
 11
3.688679007
 21
4.2971909453
 31
0
  0
LINE
  5
1F1
100
AcDbEntity
  8
SEMA2D
100
AcDbLine
370
9
 62
7
  6
_SOLID
 10
3.650773293
 20
4.298159046
 30
0
 11
3.653478
 21
4.297246
 31
0
  0
LINE
  5
1F2
100
AcDbEntity
  8
SEMA2D
100
AcDbLine
370
9
 62
7
  6
_SOLID
 10
3.681738
 20
4.288580382
 30
0
 11
3.657251984
 21
4.297492563
 31
0
  0
LINE
  5
1F3
100
AcDbEntity
  8
SEMA2D
100
AcDbLine
370
9
 62
7
  6
_SOLID
 10
3.681738
 20
4.2882787839
 30
0
 11
3.6579294102
 21
4.2970890064
 31
0
  0
LINE
  5
1F4
100
AcDbEntity
  8
SEMA2D
100
AcDbLine
370
9
 62
7
  6
_SOLID
 10
3.67797
 20
4.285
 30
0
 11
3.6540096233
 21
4.2943612658
 31
0
  0
LINE
  5
1F5
100
AcDbEntity
  8
SEMA2D
100
AcDbLine
370
9
 62
7
  6
_SOLID
 10
3.6815292021
 20
4.3189717437
 30
0
 11
3.683150923
 21
4.3189717677
 31
0
  0
LINE
  5
1F6
100
AcDbEntity
  8
SEMA2D
100
AcDbLine
370
9
 62
7
  6
_SOLID
 10
3.6815292021
 20
4.3026087611
 30
0
 11
3.6669026495
 21
4.306527894
 31
0
  0
LINE
  5
1F7
100
AcDbEntity
  8
SEMA2D
100
AcDbLine
370
9
 62
7
  6
_SOLID
 10
3.6848759014
 20
4.2969765943
 30
0
 11
3.6847210916
 21
4.2970477189
 31
0
  0
LINE
  5
1F8
100
AcDbEntity
  8
SEMA2D
100
AcDbLine
370
9
 62
7
  6
_SOLID
 10
3.6579294102
 20
4.2970890064
 30
0
 11
3.657251984
 21
4.2974882069
 31
0
  0
LINE
  5
1F9
100
AcDbEntity
  8
SEMA2D
100
AcDbLine
370
9
 62
7
  6
_SOLID
 10
3.68011603
 20
4.3193504021
 30
0
 11
3.6815292021
 21
4.3189717437
 31
0
  0
LINE
  5
1FA
100
AcDbEntity
  8
SEMA2D
100
AcDbLine
370
9
 62
7
  6
_SOLID
 10
3.6847234376
 20
4.2970465562
 30
0
 11
3.6845724007
 21
4.297127186
 31
0
  0
LINE
  5
1FB
100
AcDbEntity
  8
SEMA2D
100
AcDbLine
370
9
 62
7
  6
_SOLID
 10
3.6922468767
 20
4.2948971939
 30
0
 11
3.6920901291
 21
4.2950242087
 31
0
  0
LINE
  5
1FC
100
AcDbEntity
  8
SEMA2D
100
AcDbLine
370
9
 62
7
  6
_SOLID
 10
3.6920901291
 20
4.2950242087
 30
0
 11
3.6919247611
 21
4.2951614292
 31
0
  0
LINE
  5
1FD
100
AcDbEntity
  8
SEMA2D
100
AcDbLine
370
9
 62
7
  6
_SOLID
 10
3.6919247611
 20
4.2951614292
 30
0
 11
3.6917514962
 21
4.2953084342
 31
0
  0
LINE
  5
1FE
100
AcDbEntity
  8
SEMA2D
100
AcDbLine
370
9
 62
7
  6
_SOLID
 10
3.6917514962
 20
4.2953084342
 30
0
 11
3.6915708075
 21
4.2954649774
 31
0
  0
LINE
  5
1FF
100
AcDbEntity
  8
SEMA2D
100
AcDbLine
370
9
 62
7
  6
_SOLID
 10
3.666666
 20
4.3471720005
 30
0
 11
3.6801162021
 21
4.3471720022
 31
0
  0
LINE
  5
200
100
AcDbEntity
  8
SEMA2D
100
AcDbLine
370
9
 62
7
  6
_SOLID
 10
3.681738
 20
4.3505906187
 30
0
 11
3.6799526011
 21
4.3505906187
 31
0
  0
LINE
  5
201
100
AcDbEntity
  8
SEMA2D
100
AcDbLine
370
9
 62
7
  6
_SOLID
 10
3.6491586203
 20
4.3017685513
 30
0
 11
3.653478
 21
4.297246
 31
0
  0
LINE
  5
202
100
AcDbEntity
  8
SEMA2D
100
AcDbLine
370
9
 62
7
  6
_SOLID
 10
3.681738
 20
4.3569413817
 30
0
 11
3.679952601
 21
4.3569413817
 31
0
  0
LINE
  5
203
100
AcDbEntity
  8
SEMA2D
100
AcDbLine
370
9
 62
7
  6
_SOLID
 10
3.666666
 20
4.36036
 30
0
 11
3.6801162021
 21
4.36036
 31
0
  0
LINE
  5
204
100
AcDbEntity
  8
SEMA2D
100
AcDbLine
370
9
 62
7
  6
_SOLID
 10
3.6915708075
 20
4.2954649774
 30
0
 11
3.6913833854
 21
4.2956305997
 31
0
  0
LINE
  5
205
100
AcDbEntity
  8
SEMA2D
100
AcDbLine
370
9
 62
7
  6
_SOLID
 10
3.691119056
 20
4.2958662789
 30
0
 11
3.6909201621
 21
4.2960321878
 31
0
  0
LINE
  5
206
100
AcDbEntity
  8
SEMA2D
100
AcDbLine
370
9
 62
7
  6
_SOLID
 10
3.6909201621
 20
4.2960321878
 30
0
 11
3.6907129901
 21
4.2961924838
 31
0
  0
LINE
  5
207
100
AcDbEntity
  8
SEMA2D
100
AcDbLine
370
9
 62
7
  6
_SOLID
 10
3.6907129901
 20
4.2961924838
 30
0
 11
3.6904980107
 21
4.2963459655
 31
0
  0
LINE
  5
208
100
AcDbEntity
  8
SEMA2D
100
AcDbLine
370
9
 62
7
  6
_SOLID
 10
3.6904980107
 20
4.2963459655
 30
0
 11
3.6902758272
 21
4.2964914908
 31
0
  0
LINE
  5
209
100
AcDbEntity
  8
SEMA2D
100
AcDbLine
370
9
 62
7
  6
_SOLID
 10
3.6902758272
 20
4.2964914908
 30
0
 11
3.6900470677
 21
4.2966280541
 31
0
  0
LINE
  5
20A
100
AcDbEntity
  8
SEMA2D
100
AcDbLine
370
9
 62
7
  6
_SOLID
 10
3.6900470677
 20
4.2966280541
 30
0
 11
3.6898123903
 21
4.2967547736
 31
0
  0
LINE
  5
20B
100
AcDbEntity
  8
SEMA2D
100
AcDbLine
370
9
 62
7
  6
_SOLID
 10
3.6898123903
 20
4.2967547736
 30
0
 11
3.6895725668
 21
4.2968708417
 31
0
  0
LINE
  5
20C
100
AcDbEntity
  8
SEMA2D
100
AcDbLine
370
9
 62
7
  6
_SOLID
 10
3.6895725668
 20
4.2968708417
 30
0
 11
3.6893283689
 21
4.2969755768
 31
0
  0
LINE
  5
20D
100
AcDbEntity
  8
SEMA2D
100
AcDbLine
370
9
 62
7
  6
_SOLID
 10
3.6893283689
 20
4.2969755768
 30
0
 11
3.6890805782
 21
4.2970684102
 31
0
  0
LINE
  5
20E
100
AcDbEntity
  8
SEMA2D
100
AcDbLine
370
9
 62
7
  6
_SOLID
 10
3.6890805782
 20
4.2970684102
 30
0
 11
3.6888299098
 21
4.2971488906
 31
0
  0
LINE
  5
20F
100
AcDbEntity
  8
SEMA2D
100
AcDbLine
370
9
 62
7
  6
_SOLID
 10
3.681738
 20
4.3938099055
 30
0
 11
3.683622
 21
4.3938099054
 31
0
  0
LINE
  5
210
100
AcDbEntity
  8
SEMA2D
100
AcDbLine
370
9
 62
7
  6
_SOLID
 10
3.6955977606
 20
4.2945270734
 30
0
 11
3.6948874432
 21
4.2953735999
 31
0
  0
LINE
  5
211
100
AcDbEntity
  8
SEMA2D
100
AcDbLine
370
9
 62
7
  6
_SOLID
 10
3.6963994555
 20
4.2945285839
 30
0
 11
3.6956863355
 21
4.2953784472
 31
0
  0
LINE
  5
212
100
AcDbEntity
  8
SEMA2D
100
AcDbLine
370
9
 62
7
  6
_SOLID
 10
3.6868878576
 20
4.2923840587
 30
0
 11
3.6851494514
 21
4.2946495938
 31
0
  0
LINE
  5
213
100
AcDbEntity
  8
SEMA2D
100
AcDbLine
370
9
 62
7
  6
_SOLID
 10
3.6864130623
 20
4.2957934466
 30
0
 11
3.6884953705
 21
4.2930797297
 31
0
  0
LINE
  5
214
100
AcDbEntity
  8
SEMA2D
100
AcDbLine
370
9
 62
7
  6
_SOLID
 10
3.684564
 20
4.4077528411
 30
0
 11
3.681738
 21
4.407752822
 31
0
  0
LINE
  5
215
100
AcDbEntity
  8
SEMA2D
100
AcDbLine
370
9
 62
7
  6
_SOLID
 10
3.6825657191
 20
4.3962702808
 30
0
 11
3.6828770554
 21
4.3959589446
 31
0
  0
LINE
  5
216
100
AcDbEntity
  8
SEMA2D
100
AcDbLine
370
9
 62
7
  6
_SOLID
 10
3.639348
 20
4.7099864218
 30
0
 11
3.639348
 21
4.7061866331
 31
0
  0
LINE
  5
217
100
AcDbEntity
  8
SEMA2D
100
AcDbLine
370
9
 62
7
  6
_SOLID
 10
3.6398998108
 20
4.7061866331
 30
0
 11
3.6398998108
 21
4.7099864218
 31
0
  0
LINE
  5
218
100
AcDbEntity
  8
SEMA2D
100
AcDbLine
370
9
 62
7
  6
_SOLID
 10
3.640761
 20
4.6789802942
 30
0
 11
3.640761
 21
4.6774713886
 31
0
  0
LINE
  5
219
100
AcDbEntity
  8
SEMA2D
100
AcDbLine
370
9
 62
7
  6
_SOLID
 10
3.6409818571
 20
4.6774713886
 30
0
 11
3.6409818571
 21
4.6787771229
 31
0
  0
LINE
  5
21A
100
AcDbEntity
  8
SEMA2D
100
AcDbLine
370
9
 62
7
  6
_SOLID
 10
3.643587
 20
4.683073816
 30
0
 11
3.643587
 21
4.68086185
 31
0
  0
LINE
  5
21B
100
AcDbEntity
  8
SEMA2D
100
AcDbLine
370
9
 62
7
  6
_SOLID
 10
3.643587
 20
4.6754492256
 30
0
 11
3.643587
 21
4.673575
 31
0
  0
LINE
  5
21C
100
AcDbEntity
  8
SEMA2D
100
AcDbLine
370
9
 62
7
  6
_SOLID
 10
3.6443689626
 20
4.679374361
 30
0
 11
3.6443689618
 21
4.6765638166
 31
0
  0
LINE
  5
21D
100
AcDbEntity
  8
SEMA2D
100
AcDbLine
370
9
 62
7
  6
_SOLID
 10
3.6444468993
 20
4.6840122314
 30
0
 11
3.6444468994
 21
4.6825111089
 31
0
  0
LINE
  5
21E
100
AcDbEntity
  8
SEMA2D
100
AcDbLine
370
9
 62
7
  6
_SOLID
 10
3.6444481828
 20
4.7052198468
 30
0
 11
3.6444481829
 21
4.7106256538
 31
0
  0
LINE
  5
21F
100
AcDbEntity
  8
SEMA2D
100
AcDbLine
370
9
 62
7
  6
_SOLID
 10
3.6445289996
 20
4.6738152103
 30
0
 11
3.644529
 21
4.672633
 31
0
  0
LINE
  5
220
100
AcDbEntity
  8
SEMA2D
100
AcDbLine
370
9
 62
7
  6
_SOLID
 10
3.645
 20
4.6795301363
 30
0
 11
3.645
 21
4.3123067309
 31
0
  0
LINE
  5
221
100
AcDbEntity
  8
SEMA2D
100
AcDbLine
370
9
 62
7
  6
_SOLID
 10
3.645
 20
4.589266623
 30
0
 11
3.645
 21
4.3123067332
 31
0
  0
LINE
  5
222
100
AcDbEntity
  8
SEMA2D
100
AcDbLine
370
9
 62
7
  6
_SOLID
 10
3.645
 20
4.7049852634
 30
0
 11
3.645
 21
4.7107807586
 31
0
  0
LINE
  5
223
100
AcDbEntity
  8
SEMA2D
100
AcDbLine
370
9
 62
7
  6
_SOLID
 10
3.6463963849
 20
4.7049852634
 30
0
 11
3.6463963849
 21
4.7106307771
 31
0
  0
LINE
  5
224
100
AcDbEntity
  8
SEMA2D
100
AcDbLine
370
9
 62
7
  6
_SOLID
 10
3.6465568502
 20
4.312298149
 30
0
 11
3.6465568502
 21
4.4895794591
 31
0
  0
LINE
  5
225
100
AcDbEntity
  8
SEMA2D
100
AcDbLine
370
9
 62
7
  6
_SOLID
 10
3.6465568502
 20
4.4897195422
 30
0
 11
3.6465568502
 21
4.679538716
 31
0
  0
LINE
  5
226
100
AcDbEntity
  8
SEMA2D
100
AcDbLine
370
9
 62
7
  6
_SOLID
 10
3.64971
 20
4.6994072237
 30
0
 11
3.64971
 21
4.6851032264
 31
0
  0
LINE
  5
227
100
AcDbEntity
  8
SEMA2D
100
AcDbLine
370
9
 62
7
  6
_SOLID
 10
3.6511063849
 20
4.6927215276
 30
0
 11
3.6511063849
 21
4.6994072227
 31
0
  0
LINE
  5
228
100
AcDbEntity
  8
SEMA2D
100
AcDbLine
370
9
 62
7
  6
_SOLID
 10
3.653478
 20
4.2949913964
 30
0
 11
3.653478
 21
4.714552
 31
0
  0
LINE
  5
229
100
AcDbEntity
  8
SEMA2D
100
AcDbLine
370
9
 62
7
  6
_SOLID
 10
3.6796488304
 20
4.2893407776
 30
0
 11
3.6783189549
 21
4.2968828759
 31
0
  0
LINE
  5
22A
100
AcDbEntity
  8
SEMA2D
100
AcDbLine
370
9
 62
7
  6
_SOLID
 10
3.657246
 20
4.2974882069
 30
0
 11
3.657246
 21
4.714552
 31
0
  0
LINE
  5
22B
100
AcDbEntity
  8
SEMA2D
100
AcDbLine
370
9
 62
7
  6
_SOLID
 10
3.6579294102
 20
4.297246
 30
0
 11
3.6579294102
 21
4.2970890064
 31
0
  0
LINE
  5
22C
100
AcDbEntity
  8
SEMA2D
100
AcDbLine
370
9
 62
7
  6
_SOLID
 10
3.6604897958
 20
4.696183
 30
0
 11
3.660489796
 21
4.7116700082
 31
0
  0
LINE
  5
22D
100
AcDbEntity
  8
SEMA2D
100
AcDbLine
370
9
 62
7
  6
_SOLID
 10
3.661956
 20
4.6929918773
 30
0
 11
3.661956
 21
4.7107588224
 31
0
  0
LINE
  5
22E
100
AcDbEntity
  8
SEMA2D
100
AcDbLine
370
9
 62
7
  6
_SOLID
 10
3.661956
 20
4.696183
 30
0
 11
3.661956
 21
4.7107574292
 31
0
  0
LINE
  5
22F
100
AcDbEntity
  8
SEMA2D
100
AcDbLine
370
9
 62
7
  6
_SOLID
 10
3.6643886976
 20
4.6909721199
 30
0
 11
3.6643886983
 21
4.7101762109
 31
0
  0
LINE
  5
230
100
AcDbEntity
  8
SEMA2D
100
AcDbLine
370
9
 62
7
  6
_SOLID
 10
3.6651091976
 20
4.6889248424
 30
0
 11
3.6651091532
 21
4.3062191478
 31
0
  0
LINE
  5
231
100
AcDbEntity
  8
SEMA2D
100
AcDbLine
370
9
 62
7
  6
_SOLID
 10
3.666666
 20
4.6889162745
 30
0
 11
3.666666
 21
4.3062277674
 31
0
  0
LINE
  5
232
100
AcDbEntity
  8
SEMA2D
100
AcDbLine
370
9
 62
7
  6
_SOLID
 10
3.666666
 20
4.4897953634
 30
0
 11
3.666666
 21
4.4894367752
 31
0
  0
LINE
  5
233
100
AcDbEntity
  8
SEMA2D
100
AcDbLine
370
9
 62
7
  6
_SOLID
 10
3.666666
 20
4.4894307049
 30
0
 11
3.666666
 21
4.3075767788
 31
0
  0
LINE
  5
234
100
AcDbEntity
  8
SEMA2D
100
AcDbLine
370
9
 62
7
  6
_SOLID
 10
3.666666
 20
4.3074083289
 30
0
 11
3.666666
 21
4.3062277272
 31
0
  0
LINE
  5
235
100
AcDbEntity
  8
SEMA2D
100
AcDbLine
370
9
 62
7
  6
_SOLID
 10
3.657246
 20
4.4896495
 30
0
 11
3.6651091532
 21
4.4897390208
 31
0
  0
LINE
  5
236
100
AcDbEntity
  8
SEMA2D
100
AcDbLine
370
9
 62
7
  6
_SOLID
 10
3.653478
 20
4.4896495
 30
0
 11
3.6465568502
 21
4.4895794591
 31
0
  0
LINE
  5
237
100
AcDbEntity
  8
SEMA2D
100
AcDbLine
370
9
 62
7
  6
_SOLID
 10
3.653478
 20
4.4896495
 30
0
 11
3.657246
 21
4.4896495
 31
0
  0
LINE
  5
238
100
AcDbEntity
  8
SEMA2D
100
AcDbLine
370
9
 62
7
  6
_SOLID
 10
3.653478
 20
4.4896495
 30
0
 11
3.6465568502
 21
4.4897195422
 31
0
  0
LINE
  5
239
100
AcDbEntity
  8
SEMA2D
100
AcDbLine
370
9
 62
7
  6
_SOLID
 10
3.657246
 20
4.4896495
 30
0
 11
3.6651091532
 21
4.4895599764
 31
0
  0
LINE
  5
23A
100
AcDbEntity
  8
SEMA2D
100
AcDbLine
370
9
 62
7
  6
_SOLID
 10
3.6758772021
 20
4.708561607
 30
0
 11
3.6758772021
 21
4.7013875769
 31
0
  0
LINE
  5
23B
100
AcDbEntity
  8
SEMA2D
100
AcDbLine
370
9
 62
7
  6
_SOLID
 10
3.677499
 20
4.7086548902
 30
0
 11
3.677499
 21
4.7044388345
 31
0
  0
LINE
  5
23C
100
AcDbEntity
  8
SEMA2D
100
AcDbLine
370
9
 62
7
  6
_SOLID
 10
3.677499
 20
4.7086548902
 30
0
 11
3.677499
 21
4.7043395764
 31
0
  0
LINE
  5
23D
100
AcDbEntity
  8
SEMA2D
100
AcDbLine
370
9
 62
7
  6
_SOLID
 10
3.679952601
 20
4.3569413805
 30
0
 11
3.6799526011
 21
4.3505906195
 31
0
  0
LINE
  5
23E
100
AcDbEntity
  8
SEMA2D
100
AcDbLine
370
9
 62
7
  6
_SOLID
 10
3.679952601
 20
4.6442513805
 30
0
 11
3.6799526011
 21
4.6379006195
 31
0
  0
LINE
  5
23F
100
AcDbEntity
  8
SEMA2D
100
AcDbLine
370
9
 62
7
  6
_SOLID
 10
3.6801162021
 20
4.6344820022
 30
0
 11
3.6801162021
 21
4.36036
 31
0
  0
LINE
  5
240
100
AcDbEntity
  8
SEMA2D
100
AcDbLine
370
9
 62
7
  6
_SOLID
 10
3.6801162021
 20
4.64767
 30
0
 11
3.6801162021
 21
4.6693471015
 31
0
  0
LINE
  5
241
100
AcDbEntity
  8
SEMA2D
100
AcDbLine
370
9
 62
7
  6
_SOLID
 10
3.6801162021
 20
4.6838119682
 30
0
 11
3.6801162021
 21
4.7004865496
 31
0
  0
LINE
  5
242
100
AcDbEntity
  8
SEMA2D
100
AcDbLine
370
9
 62
7
  6
_SOLID
 10
3.68011603
 20
4.3193504021
 30
0
 11
3.6801162021
 21
4.3471720022
 31
0
  0
LINE
  5
243
100
AcDbEntity
  8
SEMA2D
100
AcDbLine
370
9
 62
7
  6
_SOLID
 10
3.6815292021
 20
4.3026087611
 30
0
 11
3.6815292021
 21
4.3189717437
 31
0
  0
LINE
  5
244
100
AcDbEntity
  8
SEMA2D
100
AcDbLine
370
9
 62
7
  6
_SOLID
 10
3.681738
 20
4.7004865496
 30
0
 11
3.681738
 21
4.6865904861
 31
0
  0
LINE
  5
245
100
AcDbEntity
  8
SEMA2D
100
AcDbLine
370
9
 62
7
  6
_SOLID
 10
3.681738
 20
4.3277593957
 30
0
 11
3.681738
 21
4.3265997738
 31
0
  0
LINE
  5
246
100
AcDbEntity
  8
SEMA2D
100
AcDbLine
370
9
 62
7
  6
_SOLID
 10
3.681738
 20
4.285
 30
0
 11
3.681738
 21
4.288580382
 31
0
  0
LINE
  5
247
100
AcDbEntity
  8
SEMA2D
100
AcDbLine
370
9
 62
7
  6
_SOLID
 10
3.681738
 20
4.323956239
 30
0
 11
3.681738
 21
4.326593814
 31
0
  0
LINE
  5
248
100
AcDbEntity
  8
SEMA2D
100
AcDbLine
370
9
 62
7
  6
_SOLID
 10
3.681738
 20
4.3650590147
 30
0
 11
3.681738
 21
4.392099731
 31
0
  0
LINE
  5
249
100
AcDbEntity
  8
SEMA2D
100
AcDbLine
370
9
 62
7
  6
_SOLID
 10
3.681738
 20
4.3982685846
 30
0
 11
3.681738
 21
4.5124019268
 31
0
  0
LINE
  5
24A
100
AcDbEntity
  8
SEMA2D
100
AcDbLine
370
9
 62
7
  6
_SOLID
 10
3.681738
 20
4.5260324402
 30
0
 11
3.681738
 21
4.5293156373
 31
0
  0
LINE
  5
24B
100
AcDbEntity
  8
SEMA2D
100
AcDbLine
370
9
 62
7
  6
_SOLID
 10
3.681738
 20
4.5415648317
 30
0
 11
3.681738
 21
4.5658804048
 31
0
  0
LINE
  5
24C
100
AcDbEntity
  8
SEMA2D
100
AcDbLine
370
9
 62
7
  6
_SOLID
 10
3.681738
 20
4.5862202516
 30
0
 11
3.681738
 21
4.6476699951
 31
0
  0
LINE
  5
24D
100
AcDbEntity
  8
SEMA2D
100
AcDbLine
370
9
 62
7
  6
_SOLID
 10
3.681738
 20
4.3219716553
 30
0
 11
3.681738
 21
4.6663724454
 31
0
  0
LINE
  5
24E
100
AcDbEntity
  8
SEMA2D
100
AcDbLine
370
9
 62
7
  6
_SOLID
 10
3.6823401011
 20
4.6697392348
 30
0
 11
3.6823401011
 21
4.6832160762
 31
0
  0
LINE
  5
24F
100
AcDbEntity
  8
SEMA2D
100
AcDbLine
370
9
 62
7
  6
_SOLID
 10
3.6824694226
 20
4.4077528104
 30
0
 11
3.6824694283
 21
4.3963719292
 31
0
  0
LINE
  5
250
100
AcDbEntity
  8
SEMA2D
100
AcDbLine
370
9
 62
7
  6
_SOLID
 10
3.683151
 20
4.3193331547
 30
0
 11
3.683151
 21
4.2995792588
 31
0
  0
LINE
  5
251
100
AcDbEntity
  8
SEMA2D
100
AcDbLine
370
9
 62
7
  6
_SOLID
 10
3.683151
 20
4.6688058196
 30
0
 11
3.683151
 21
4.684156178
 31
0
  0
LINE
  5
252
100
AcDbEntity
  8
SEMA2D
100
AcDbLine
370
9
 62
7
  6
_SOLID
 10
3.683622
 20
4.3939851973
 30
0
 11
3.683622
 21
4.3303617279
 31
0
  0
LINE
  5
253
100
AcDbEntity
  8
SEMA2D
100
AcDbLine
370
9
 62
7
  6
_SOLID
 10
3.683622
 20
4.3938099054
 30
0
 11
3.683622
 21
4.3941604892
 31
0
  0
LINE
  5
254
100
AcDbEntity
  8
SEMA2D
100
AcDbLine
370
9
 62
7
  6
_SOLID
 10
3.6830154215
 20
4.6683201768
 30
0
 11
3.6817437115
 21
4.6318199304
 31
0
  0
LINE
  5
255
100
AcDbEntity
  8
SEMA2D
100
AcDbLine
370
9
 62
7
  6
_SOLID
 10
3.6878776151
 20
4.2887400211
 30
0
 11
3.6878776151
 21
4.2901750106
 31
0
  0
LINE
  5
256
100
AcDbEntity
  8
SEMA2D
100
AcDbLine
370
9
 62
7
  6
_SOLID
 10
3.689274
 20
4.2893226638
 30
0
 11
3.689274
 21
4.2907859235
 31
0
  0
LINE
  5
257
100
AcDbEntity
  8
SEMA2D
100
AcDbLine
370
9
 62
7
  6
_SOLID
 10
3.6957627113
 20
4.6928117143
 30
0
 11
3.6957627113
 21
4.6972086944
 31
0
  0
LINE
  5
258
100
AcDbEntity
  8
SEMA2D
100
AcDbLine
370
9
 62
7
  6
_SOLID
 10
3.69681
 20
4.6976643054
 30
0
 11
3.69681
 21
4.6923567632
 31
0
  0
LINE
  5
259
100
AcDbEntity
  8
SEMA2D
100
AcDbLine
370
9
 62
7
  6
_SOLID
 10
3.697281
 20
4.290734514
 30
0
 11
3.697281
 21
4.2921065601
 31
0
  0
LINE
  5
25A
100
AcDbEntity
  8
SEMA2D
100
AcDbLine
370
9
 62
7
  6
_SOLID
 10
3.6855223373
 20
4.2985532615
 30
0
 11
3.6855219874
 21
4.2980212473
 31
0
  0
LINE
  5
25B
100
AcDbEntity
  8
SEMA2D
100
AcDbLine
370
9
 62
7
  6
_SOLID
 10
3.684564
 20
4.4077528065
 30
0
 11
3.6845639667
 21
4.3592328142
 31
0
  0
LINE
  5
25C
100
AcDbEntity
  8
SEMA2D
100
AcDbLine
370
9
 62
7
  6
_SOLID
 10
3.6838877179
 20
4.3577666316
 30
0
 11
3.684036342
 21
4.3579323809
 31
0
  0
LINE
  5
25D
100
AcDbEntity
  8
SEMA2D
100
AcDbLine
370
9
 62
7
  6
_SOLID
 10
3.666666
 20
4.6344820005
 30
0
 11
3.6801162021
 21
4.6344820022
 31
0
  0
LINE
  5
25E
100
AcDbEntity
  8
SEMA2D
100
AcDbLine
370
9
 62
7
  6
_SOLID
 10
3.681738
 20
4.6379006187
 30
0
 11
3.6799526011
 21
4.6379006187
 31
0
  0
LINE
  5
25F
100
AcDbEntity
  8
SEMA2D
100
AcDbLine
370
9
 62
7
  6
_SOLID
 10
3.681738
 20
4.6442513817
 30
0
 11
3.679952601
 21
4.6442513817
 31
0
  0
LINE
  5
260
100
AcDbEntity
  8
SEMA2D
100
AcDbLine
370
9
 62
7
  6
_SOLID
 10
3.666666
 20
4.64767
 30
0
 11
3.6801162021
 21
4.64767
 31
0
  0
LINE
  5
261
100
AcDbEntity
  8
SEMA2D
100
AcDbLine
370
9
 62
7
  6
_SOLID
 10
3.645
 20
4.6763355514
 30
0
 11
3.6443689618
 21
4.6765638178
 31
0
  0
LINE
  5
262
100
AcDbEntity
  8
SEMA2D
100
AcDbLine
370
9
 62
7
  6
_SOLID
 10
3.6447610622
 20
4.6751243475
 30
0
 11
3.6449193319
 21
4.6750628879
 31
0
  0
LINE
  5
263
100
AcDbEntity
  8
SEMA2D
100
AcDbLine
370
9
 62
7
  6
_SOLID
 10
3.6823401011
 20
4.6697392348
 30
0
 11
3.6801162021
 21
4.6693471015
 31
0
  0
LINE
  5
264
100
AcDbEntity
  8
SEMA2D
100
AcDbLine
370
9
 62
7
  6
_SOLID
 10
3.6823401011
 20
4.6697392348
 30
0
 11
3.683151
 21
4.6697392348
 31
0
  0
LINE
  5
265
100
AcDbEntity
  8
SEMA2D
100
AcDbLine
370
9
 62
7
  6
_SOLID
 10
3.644529
 20
4.672633
 30
0
 11
3.645
 21
4.672633
 31
0
  0
LINE
  5
266
100
AcDbEntity
  8
SEMA2D
100
AcDbLine
370
9
 62
7
  6
_SOLID
 10
3.645
 20
4.6737521161
 30
0
 11
3.6445289996
 21
4.6738152103
 31
0
  0
LINE
  5
267
100
AcDbEntity
  8
SEMA2D
100
AcDbLine
370
9
 62
7
  6
_SOLID
 10
3.6445254331
 20
4.6751977732
 30
0
 11
3.6419828368
 21
4.6758790599
 31
0
  0
LINE
  5
268
100
AcDbEntity
  8
SEMA2D
100
AcDbLine
370
9
 62
7
  6
_SOLID
 10
3.6443689618
 20
4.6765638166
 30
0
 11
3.6409818571
 21
4.6774713886
 31
0
  0
LINE
  5
269
100
AcDbEntity
  8
SEMA2D
100
AcDbLine
370
9
 62
7
  6
_SOLID
 10
3.6445940434
 20
4.6751785324
 30
0
 11
3.6447610622
 21
4.6751243475
 31
0
  0
LINE
  5
26A
100
AcDbEntity
  8
SEMA2D
100
AcDbLine
370
9
 62
7
  6
_SOLID
 10
3.6868878576
 20
4.2923840587
 30
0
 11
3.681738
 21
4.288580382
 31
0
  0
LINE
  5
26B
100
AcDbEntity
  8
SEMA2D
100
AcDbLine
370
9
 62
7
  6
_SOLID
 10
3.6957627113
 20
4.6909919101
 30
0
 11
3.681738
 21
4.687234
 31
0
  0
LINE
  5
26C
100
AcDbEntity
  8
SEMA2D
100
AcDbLine
370
9
 62
7
  6
_SOLID
 10
3.6957627113
 20
4.6928117143
 30
0
 11
3.681738
 21
4.6890538088
 31
0
  0
LINE
  5
26D
100
AcDbEntity
  8
SEMA2D
100
AcDbLine
370
9
 62
7
  6
_SOLID
 10
3.6511063849
 20
4.6927215276
 30
0
 11
3.653478
 21
4.693357
 31
0
  0
LINE
  5
26E
100
AcDbEntity
  8
SEMA2D
100
AcDbLine
370
9
 62
7
  6
_SOLID
 10
3.6443689626
 20
4.6793743601
 30
0
 11
3.645
 21
4.6795301366
 31
0
  0
LINE
  5
26F
100
AcDbEntity
  8
SEMA2D
100
AcDbLine
370
9
 62
7
  6
_SOLID
 10
3.6409818571
 20
4.6787771229
 30
0
 11
3.6443689626
 21
4.679374361
 31
0
  0
LINE
  5
270
100
AcDbEntity
  8
SEMA2D
100
AcDbLine
370
9
 62
7
  6
_SOLID
 10
3.642123241
 20
4.6806037498
 30
0
 11
3.6465963071
 21
4.681392472
 31
0
  0
LINE
  5
271
100
AcDbEntity
  8
SEMA2D
100
AcDbLine
370
9
 62
7
  6
_SOLID
 10
3.6496555397
 20
4.6844679284
 30
0
 11
3.6444467988
 21
4.6840122226
 31
0
  0
LINE
  5
272
100
AcDbEntity
  8
SEMA2D
100
AcDbLine
370
9
 62
7
  6
_SOLID
 10
3.640761
 20
4.6774713886
 30
0
 11
3.6409818571
 21
4.6774713886
 31
0
  0
LINE
  5
273
100
AcDbEntity
  8
SEMA2D
100
AcDbLine
370
9
 62
7
  6
_SOLID
 10
3.640761
 20
4.6787771229
 30
0
 11
3.6409819097
 21
4.6787771229
 31
0
  0
LINE
  5
274
100
AcDbEntity
  8
SEMA2D
100
AcDbLine
370
9
 62
7
  6
_SOLID
 10
3.6823401008
 20
4.6832160762
 30
0
 11
3.683151
 21
4.6832160762
 31
0
  0
LINE
  5
275
100
AcDbEntity
  8
SEMA2D
100
AcDbLine
370
9
 62
7
  6
_SOLID
 10
3.6801162021
 20
4.6838119682
 30
0
 11
3.6823401011
 21
4.6832160762
 31
0
  0
LINE
  5
276
100
AcDbEntity
  8
SEMA2D
100
AcDbLine
370
9
 62
7
  6
_SOLID
 10
3.6652696151
 20
4.6907360788
 30
0
 11
3.657246
 21
4.692886
 31
0
  0
LINE
  5
277
100
AcDbEntity
  8
SEMA2D
100
AcDbLine
370
9
 62
7
  6
_SOLID
 10
3.6444481828
 20
4.705219848
 30
0
 11
3.645
 21
4.7049852633
 31
0
  0
LINE
  5
278
100
AcDbEntity
  8
SEMA2D
100
AcDbLine
370
9
 62
7
  6
_SOLID
 10
3.645
 20
4.7107807587
 30
0
 11
3.6444481829
 21
4.710625653
 31
0
  0
LINE
  5
279
100
AcDbEntity
  8
SEMA2D
100
AcDbLine
370
9
 62
7
  6
_SOLID
 10
3.6444481829
 20
4.7106256538
 30
0
 11
3.6398998108
 21
4.7099864218
 31
0
  0
LINE
  5
27A
100
AcDbEntity
  8
SEMA2D
100
AcDbLine
370
9
 62
7
  6
_SOLID
 10
3.6466217979
 20
4.7126464236
 30
0
 11
3.6409697979
 21
4.7118520868
 31
0
  0
LINE
  5
27B
100
AcDbEntity
  8
SEMA2D
100
AcDbLine
370
9
 62
7
  6
_SOLID
 10
3.6409697979
 20
4.7118520868
 30
0
 11
3.653478
 21
4.71361
 31
0
  0
LINE
  5
27C
100
AcDbEntity
  8
SEMA2D
100
AcDbLine
370
9
 62
7
  6
_SOLID
 10
3.6957627113
 20
4.6928117143
 30
0
 11
3.69681
 21
4.6928117143
 31
0
  0
LINE
  5
27D
100
AcDbEntity
  8
SEMA2D
100
AcDbLine
370
9
 62
7
  6
_SOLID
 10
3.657246
 20
4.694299
 30
0
 11
3.653478
 21
4.694299
 31
0
  0
LINE
  5
27E
100
AcDbEntity
  8
SEMA2D
100
AcDbLine
370
9
 62
7
  6
_SOLID
 10
3.64971
 20
4.696183
 30
0
 11
3.6511063849
 21
4.696183
 31
0
  0
LINE
  5
27F
100
AcDbEntity
  8
SEMA2D
100
AcDbLine
370
9
 62
7
  6
_SOLID
 10
3.6511063849
 20
4.696183
 30
0
 11
3.661956
 21
4.696183
 31
0
  0
LINE
  5
280
100
AcDbEntity
  8
SEMA2D
100
AcDbLine
370
9
 62
7
  6
_SOLID
 10
3.6957627025
 20
4.6972086944
 30
0
 11
3.69681
 21
4.6972086944
 31
0
  0
LINE
  5
281
100
AcDbEntity
  8
SEMA2D
100
AcDbLine
370
9
 62
7
  6
_SOLID
 10
3.6497099986
 20
4.6994072227
 30
0
 11
3.6511064336
 21
4.6994072227
 31
0
  0
LINE
  5
282
100
AcDbEntity
  8
SEMA2D
100
AcDbLine
370
9
 62
7
  6
_SOLID
 10
3.681738
 20
4.7004865496
 30
0
 11
3.6801162021
 21
4.7004865496
 31
0
  0
LINE
  5
283
100
AcDbEntity
  8
SEMA2D
100
AcDbLine
370
9
 62
7
  6
_SOLID
 10
3.645
 20
4.7049852634
 30
0
 11
3.6463963849
 21
4.7049852634
 31
0
  0
LINE
  5
284
100
AcDbEntity
  8
SEMA2D
100
AcDbLine
370
9
 62
7
  6
_SOLID
 10
3.639348
 20
4.7061866331
 30
0
 11
3.6398998108
 21
4.7061866331
 31
0
  0
LINE
  5
285
100
AcDbEntity
  8
SEMA2D
100
AcDbLine
370
9
 62
7
  6
_SOLID
 10
3.6398998108
 20
4.7099864218
 30
0
 11
3.639348
 21
4.7099864218
 31
0
  0
LINE
  5
286
100
AcDbEntity
  8
SEMA2D
100
AcDbLine
370
9
 62
7
  6
_SOLID
 10
3.6639982655
 20
4.7102694944
 30
0
 11
3.6619560031
 21
4.7102694944
 31
0
  0
LINE
  5
287
100
AcDbEntity
  8
SEMA2D
100
AcDbLine
370
9
 62
7
  6
_SOLID
 10
3.645
 20
4.7106307771
 30
0
 11
3.6463964224
 21
4.7106307771
 31
0
  0
LINE
  5
288
100
AcDbEntity
  8
SEMA2D
100
AcDbLine
370
9
 62
7
  6
_SOLID
 10
3.657246
 20
4.714552
 30
0
 11
3.653478
 21
4.714552
 31
0
  0
LINE
  5
289
100
AcDbEntity
  8
SEMA2D
100
AcDbLine
370
9
 62
7
  6
_SOLID
 10
3.6758772021
 20
4.708561607
 30
0
 11
3.6643886983
 21
4.7101762109
 31
0
  0
LINE
  5
28A
100
AcDbEntity
  8
SEMA2D
100
AcDbLine
370
9
 62
7
  6
_SOLID
 10
3.6758772021
 20
4.7105205553
 30
0
 11
3.6602531125
 21
4.7127163779
 31
0
  0
LINE
  5
28B
100
AcDbEntity
  8
SEMA2D
100
AcDbLine
370
9
 62
7
  6
_SOLID
 10
3.657246
 20
4.713139
 30
0
 11
3.6758772021
 21
4.7105205553
 31
0
  0
LINE
  5
28C
100
AcDbEntity
  8
SEMA2D
100
AcDbLine
370
9
 62
7
  6
_SOLID
 10
3.6408402944
 20
4.704343803
 30
0
 11
3.6467253843
 21
4.7030928885
 31
0
  0
LINE
  5
28D
100
AcDbEntity
  8
SEMA2D
100
AcDbLine
370
9
 62
7
  6
_SOLID
 10
3.6398998108
 20
4.7061866331
 30
0
 11
3.6444481828
 21
4.7052198468
 31
0
  0
LINE
  5
28E
100
AcDbEntity
  8
SEMA2D
100
AcDbLine
370
9
 62
7
  6
_SOLID
 10
3.6466295018
 20
4.7049357129
 30
0
 11
3.6463963849
 21
4.7049852634
 31
0
  0
LINE
  5
28F
100
AcDbEntity
  8
SEMA2D
100
AcDbLine
370
9
 62
7
  6
_SOLID
 10
3.6801162021
 20
4.7004865496
 30
0
 11
3.6758772021
 21
4.7013875769
 31
0
  0
LINE
  5
290
100
AcDbEntity
  8
SEMA2D
100
AcDbLine
370
9
 62
7
  6
_SOLID
 10
3.681738
 20
4.700189734
 30
0
 11
3.6957627113
 21
4.6972086944
 31
0
  0
LINE
  5
291
100
AcDbEntity
  8
SEMA2D
100
AcDbLine
370
9
 62
7
  6
_SOLID
 10
3.6802457056
 20
4.7023293797
 30
0
 11
3.6789166797
 21
4.7026118729
 31
0
  0
LINE
  5
292
100
AcDbEntity
  8
SEMA2D
100
AcDbLine
370
9
 62
7
  6
_SOLID
 10
3.6789166797
 20
4.7026118729
 30
0
 11
3.6956907792
 21
4.6990464279
 31
0
  0
LINE
  5
293
100
AcDbEntity
  8
SEMA2D
100
AcDbLine
370
9
 62
7
  6
_SOLID
 10
3.6643886983
 20
4.7101762108
 30
0
 11
3.6639982621
 21
4.7102694944
 31
0
  0
ARC
  5
294
100
AcDbEntity
  8
SEMA2D
100
AcDbCircle
370
9
 62
7
  6
_SOLID
 10
2.9797039906
 20
1.6780090167
 30
0
 40
2.7139328814
100
AcDbArc
 50
74.7959702750846
 51
74.9256569608914
  0
ARC
  5
295
100
AcDbEntity
  8
SEMA2D
100
AcDbCircle
370
9
 62
7
  6
_SOLID
 10
3.6137421628
 20
4.0249447743
 30
0
 40
0.2687764153
100
AcDbArc
 50
77.4803810036947
 51
78.9457983369174
  0
ARC
  5
296
100
AcDbEntity
  8
SEMA2D
100
AcDbCircle
370
9
 62
7
  6
_SOLID
 10
3.6188833061
 20
4.27646631
 30
0
 40
0.0392758827999997
100
AcDbArc
 50
28.2881983534049
 51
28.555465959
  0
ARC
  5
297
100
AcDbEntity
  8
SEMA2D
100
AcDbCircle
370
9
 62
7
  6
_SOLID
 10
3.4927628039
 20
5.9365941697
 30
0
 40
1.2632230308
100
AcDbArc
 50
276.896549476965
 51
277.110220199514
  0
ARC
  5
298
100
AcDbEntity
  8
SEMA2D
100
AcDbCircle
370
9
 62
7
  6
_SOLID
 10
3.6683543421
 20
4.2783982467
 30
0
 40
0.0232184008
100
AcDbArc
 50
35.149680021072
 51
37.0390339187818
  0
ARC
  5
299
100
AcDbEntity
  8
SEMA2D
100
AcDbCircle
370
9
 62
7
  6
_SOLID
 10
3.669492
 20
4.3123067287
 30
0
 40
0.0244920000000002
100
AcDbArc
 50
179.99998956071
 51
207.620688127708
  0
ARC
  5
29A
100
AcDbEntity
  8
SEMA2D
100
AcDbCircle
370
9
 62
7
  6
_SOLID
 10
3.669492
 20
4.3123067287
 30
0
 40
0.0244920000000002
100
AcDbArc
 50
226.896522004825
 51
259.999996845242
  0
ARC
  5
29B
100
AcDbEntity
  8
SEMA2D
100
AcDbCircle
370
9
 62
7
  6
_SOLID
 10
3.669492
 20
4.3123067287
 30
0
 40
0.0244920000000002
100
AcDbArc
 50
179.999994923594
 51
259.999999398923
  0
ARC
  5
29C
100
AcDbEntity
  8
SEMA2D
100
AcDbCircle
370
9
 62
7
  6
_SOLID
 10
3.6688789676
 20
4.3117679841
 30
0
 40
0.0226499149000003
100
AcDbArc
 50
216.929965320227
 51
226.789769593227
  0
ARC
  5
29D
100
AcDbEntity
  8
SEMA2D
100
AcDbCircle
370
9
 62
7
  6
_SOLID
 10
3.6692079912
 20
4.3110576177
 30
0
 40
0.02261029
100
AcDbArc
 50
227.470261736049
 51
227.895504240621
  0
ARC
  5
29E
100
AcDbEntity
  8
SEMA2D
100
AcDbCircle
370
9
 62
7
  6
_SOLID
 10
3.6691648504
 20
4.312298149
 30
0
 40
0.0226080002000004
100
AcDbArc
 50
180.000000074485
 51
207.758547306011
  0
ARC
  5
29F
100
AcDbEntity
  8
SEMA2D
100
AcDbCircle
370
9
 62
7
  6
_SOLID
 10
3.6726451493
 20
4.3062191486
 30
0
 40
0.00753599610000033
100
AcDbArc
 50
180.000006451505
 51
202.489853432662
  0
ARC
  5
2A0
100
AcDbEntity
  8
SEMA2D
100
AcDbCircle
370
9
 62
7
  6
_SOLID
 10
3.6683663543
 20
4.3119901356
 30
0
 40
0.00565495429999996
100
AcDbArc
 50
252.500645825676
 51
254.999005264653
  0
ARC
  5
2A1
100
AcDbEntity
  8
SEMA2D
100
AcDbCircle
370
9
 62
7
  6
_SOLID
 10
3.672318
 20
4.3062277275
 30
0
 40
0.00565200000000021
100
AcDbArc
 50
179.99959510219
 51
255.000160274736
  0
ARC
  5
2A2
100
AcDbEntity
  8
SEMA2D
100
AcDbCircle
370
9
 62
7
  6
_SOLID
 10
3.6834236807
 20
4.2934996677
 30
0
 40
0.00376799999999999
100
AcDbArc
 50
37.5000151389444
 51
75.0000128895044
  0
ARC
  5
2A3
100
AcDbEntity
  8
SEMA2D
100
AcDbCircle
370
9
 62
7
  6
_SOLID
 10
3.6836547737
 20
4.2935026871
 30
0
 40
0.00188400010000023
100
AcDbArc
 50
37.5000009596271
 51
74.9999583708721
  0
ARC
  5
2A4
100
AcDbEntity
  8
SEMA2D
100
AcDbCircle
370
9
 62
7
  6
_SOLID
 10
3.6838645811
 20
4.3220212371
 30
0
 40
0.0021267653999999
100
AcDbArc
 50
190.001153392336
 51
194.273415849605
  0
ARC
  5
2A5
100
AcDbEntity
  8
SEMA2D
100
AcDbCircle
370
9
 62
7
  6
_SOLID
 10
3.6838575
 20
4.3221591547
 30
0
 40
0.00211950000000005
100
AcDbArc
 50
180.000008943861
 51
233.130113318277
  0
ARC
  5
2A6
100
AcDbEntity
  8
SEMA2D
100
AcDbCircle
370
9
 62
7
  6
_SOLID
 10
3.6838575
 20
4.3220241726
 30
0
 40
0.00211950000000005
100
AcDbArc
 50
180
 51
229.679784932592
  0
ARC
  5
2A7
100
AcDbEntity
  8
SEMA2D
100
AcDbCircle
370
9
 62
7
  6
_SOLID
 10
3.6838530538
 20
4.3220190858
 30
0
 40
0.00211506579999998
100
AcDbArc
 50
194.295920955636
 51
229.735795177626
  0
ARC
  5
2A8
100
AcDbEntity
  8
SEMA2D
100
AcDbCircle
370
9
 62
7
  6
_SOLID
 10
3.683840779
 20
4.3220182917
 30
0
 40
0.00210277910000012
100
AcDbArc
 50
180.015959229662
 51
187.362541112139
  0
ARC
  5
2A9
100
AcDbEntity
  8
SEMA2D
100
AcDbCircle
370
9
 62
7
  6
_SOLID
 10
3.6837712365
 20
4.3220497574
 30
0
 40
0.0020767842999998
100
AcDbArc
 50
231.936188912519
 51
235.193781428946
  0
ARC
  5
2AA
100
AcDbEntity
  8
SEMA2D
100
AcDbCircle
370
9
 62
7
  6
_SOLID
 10
3.6837669647
 20
4.3220443523
 30
0
 40
0.00206989499999999
100
AcDbArc
 50
227.670000100984
 51
231.937040385322
  0
ARC
  5
2AB
100
AcDbEntity
  8
SEMA2D
100
AcDbCircle
370
9
 62
7
  6
_SOLID
 10
3.681267
 20
4.3189717437
 30
0
 40
0.00188399999999977
100
AcDbArc
 50
0
 51
49.6797849325797
  0
ARC
  5
2AC
100
AcDbEntity
  8
SEMA2D
100
AcDbCircle
370
9
 62
7
  6
_SOLID
 10
3.681738
 20
4.3303617279
 30
0
 40
0.00188399999999977
100
AcDbArc
 50
306.869894858981
 51
0
  0
ARC
  5
2AD
100
AcDbEntity
  8
SEMA2D
100
AcDbCircle
370
9
 62
7
  6
_SOLID
 10
3.6826804058
 20
4.3592439539
 30
0
 40
0.00188359380000036
100
AcDbArc
 50
316.452413678902
 51
-0.338853506828382
  0
ARC
  5
2AE
100
AcDbEntity
  8
SEMA2D
100
AcDbCircle
370
9
 62
7
  6
_SOLID
 10
3.681738
 20
4.3193331547
 30
0
 40
0.00141299999999966
100
AcDbArc
 50
0
 51
53.1300984660515
  0
ARC
  5
2AF
100
AcDbEntity
  8
SEMA2D
100
AcDbCircle
370
9
 62
7
  6
_SOLID
 10
3.6998437632
 20
4.2978716949
 30
0
 40
0.0340594590999999
100
AcDbArc
 50
165.276797052486
 51
166.74198695335
  0
ARC
  5
2B0
100
AcDbEntity
  8
SEMA2D
100
AcDbCircle
370
9
 62
7
  6
_SOLID
 10
3.6862707142
 20
4.2905385523
 30
0
 40
0.00716075140000028
100
AcDbArc
 50
44.1427044958961
 51
46.3689733171576
  0
ARC
  5
2B1
100
AcDbEntity
  8
SEMA2D
100
AcDbCircle
370
9
 62
7
  6
_SOLID
 10
3.6920782662
 20
4.2923509175
 30
0
 40
0.00471000000000021
100
AcDbArc
 50
40.00000000129
 51
75.000000000303
  0
ARC
  5
2B2
100
AcDbEntity
  8
SEMA2D
100
AcDbCircle
370
9
 62
7
  6
_SOLID
 10
3.6912821913
 20
4.2923755138
 30
0
 40
0.00468890540000011
100
AcDbArc
 50
39.7470880111592
 51
74.8608537359157
  0
ARC
  5
2B3
100
AcDbEntity
  8
SEMA2D
100
AcDbCircle
370
9
 62
7
  6
_SOLID
 10
3.6865207515
 20
4.2890520212
 30
0
 40
0.00394078939999987
100
AcDbArc
 50
11.3057418403295
 51
37.4830490948816
  0
ARC
  5
2B4
100
AcDbEntity
  8
SEMA2D
100
AcDbCircle
370
9
 62
7
  6
_SOLID
 10
3.6926931269
 20
4.2921121158
 30
0
 40
0.0037773991000003
100
AcDbArc
 50
-0.0178031798052165
 51
39.7409507026663
  0
ARC
  5
2B5
100
AcDbEntity
  8
SEMA2D
100
AcDbCircle
370
9
 62
7
  6
_SOLID
 10
3.693513
 20
4.2921065601
 30
0
 40
0.00376799999999999
100
AcDbArc
 50
0
 51
40.0000000012923
  0
ARC
  5
2B6
100
AcDbEntity
  8
SEMA2D
100
AcDbCircle
370
9
 62
7
  6
_SOLID
 10
3.685506
 20
4.2907859363
 30
0
 40
0.00376799999999999
100
AcDbArc
 50
5.55766478543123E-7
 51
37.5000110855604
  0
ARC
  5
2B7
100
AcDbEntity
  8
SEMA2D
100
AcDbCircle
370
9
 62
7
  6
_SOLID
 10
3.6857974032
 20
4.2904503798
 30
0
 40
0.00348611200000004
100
AcDbArc
 50
-0.723222914955486
 51
1.3565045280488
  0
ARC
  5
2B8
100
AcDbEntity
  8
SEMA2D
100
AcDbCircle
370
9
 62
7
  6
_SOLID
 10
3.685977
 20
4.2995792562
 30
0
 40
0.002826
100
AcDbArc
 50
179.999941489553
 51
247.21845241133
  0
ARC
  5
2B9
100
AcDbEntity
  8
SEMA2D
100
AcDbCircle
370
9
 62
7
  6
_SOLID
 10
3.6920382726
 20
4.2907861366
 30
0
 40
0.00276427390000022
100
AcDbArc
 50
180.59036097099
 51
182.957000159472
  0
ARC
  5
2BA
100
AcDbEntity
  8
SEMA2D
100
AcDbCircle
370
9
 62
7
  6
_SOLID
 10
3.68739
 20
4.2893226638
 30
0
 40
0.00188400000000022
100
AcDbArc
 50
280.000000001984
 51
0
  0
ARC
  5
2BB
100
AcDbEntity
  8
SEMA2D
100
AcDbCircle
370
9
 62
7
  6
_SOLID
 10
3.695397
 20
4.290734514
 30
0
 40
0.00188400000000022
100
AcDbArc
 50
280.000000001984
 51
0
  0
ARC
  5
2BC
100
AcDbEntity
  8
SEMA2D
100
AcDbCircle
370
9
 62
7
  6
_SOLID
 10
3.6852506751
 20
4.2962585736
 30
0
 40
0.00178345710000016
100
AcDbArc
 50
75.8964627424799
 51
81.2491760871412
  0
ARC
  5
2BD
100
AcDbEntity
  8
SEMA2D
100
AcDbCircle
370
9
 62
7
  6
_SOLID
 10
3.6852666453
 20
4.2963227657
 30
0
 40
0.00171730330000019
100
AcDbArc
 50
70.0739614750723
 51
75.0635821870808
  0
ARC
  5
2BE
100
AcDbEntity
  8
SEMA2D
100
AcDbCircle
370
9
 62
7
  6
_SOLID
 10
3.6907785998
 20
4.2905728168
 30
0
 40
0.0015046000000003
100
AcDbArc
 50
180.027651763599
 51
186.352164963173
  0
ARC
  5
2BF
100
AcDbEntity
  8
SEMA2D
100
AcDbCircle
370
9
 62
7
  6
_SOLID
 10
3.684564
 20
4.3265937279
 30
0
 40
0.002826
100
AcDbArc
 50
126.869899356697
 51
179.877467043663
  0
ARC
  5
2C0
100
AcDbEntity
  8
SEMA2D
100
AcDbCircle
370
9
 62
7
  6
_SOLID
 10
3.675144
 20
4.4077528411
 30
0
 40
0.00941999999999976
100
AcDbArc
 50
-0.000210223946447213
 51
22.9196927418601
  0
ARC
  5
2C1
100
AcDbEntity
  8
SEMA2D
100
AcDbCircle
370
9
 62
7
  6
_SOLID
 10
3.6747410388
 20
4.4077523383
 30
0
 40
0.00772838349999994
100
AcDbArc
 50
0.00350002155260393
 51
21.1978453990938
  0
ARC
  5
2C2
100
AcDbEntity
  8
SEMA2D
100
AcDbCircle
370
9
 62
7
  6
_SOLID
 10
3.684564
 20
4.3982685675
 30
0
 40
0.002826
100
AcDbArc
 50
179.999653956407
 51
225.000083507933
  0
ARC
  5
2C3
100
AcDbEntity
  8
SEMA2D
100
AcDbCircle
370
9
 62
7
  6
_SOLID
 10
3.6810786
 20
4.3941604892
 30
0
 40
0.00254339999999975
100
AcDbArc
 50
0
 51
44.9999999999929
  0
ARC
  5
2C4
100
AcDbEntity
  8
SEMA2D
100
AcDbCircle
370
9
 62
7
  6
_SOLID
 10
3.643678208
 20
4.6741722974
 30
0
 40
0.00120981189999991
100
AcDbArc
 50
65.1095811833334
 51
74.736790628824
  0
ARC
  5
2C5
100
AcDbEntity
  8
SEMA2D
100
AcDbCircle
370
9
 62
7
  6
_SOLID
 10
3.6441827782
 20
4.6745608839
 30
0
 40
0.000595778600000152
100
AcDbArc
 50
180.067467176782
 51
192.609289874793
  0
ARC
  5
2C6
100
AcDbEntity
  8
SEMA2D
100
AcDbCircle
370
9
 62
7
  6
_SOLID
 10
3.6424095
 20
4.6774713886
 30
0
 40
0.00164849999999994
100
AcDbArc
 50
180
 51
255.000000000304
  0
ARC
  5
2C7
100
AcDbEntity
  8
SEMA2D
100
AcDbCircle
370
9
 62
7
  6
_SOLID
 10
3.6424095
 20
4.6789802942
 30
0
 40
0.00164849999999994
100
AcDbArc
 50
100.000000001988
 51
180
  0
ARC
  5
2C8
100
AcDbEntity
  8
SEMA2D
100
AcDbCircle
370
9
 62
7
  6
_SOLID
 10
3.646884
 20
4.6795301363
 30
0
 40
0.00188400000000022
100
AcDbArc
 50
100.000000001984
 51
180
  0
ARC
  5
2C9
100
AcDbEntity
  8
SEMA2D
100
AcDbCircle
370
9
 62
7
  6
_SOLID
 10
3.6456148501
 20
4.6851118072
 30
0
 40
0.00565200010000022
100
AcDbArc
 50
280.000000688699
 51
-6.93275373206053E-7
  0
ARC
  5
2CA
100
AcDbEntity
  8
SEMA2D
100
AcDbCircle
370
9
 62
7
  6
_SOLID
 10
3.645942
 20
4.6851032275
 30
0
 40
0.00376799999999999
100
AcDbArc
 50
280.000011265204
 51
-1.56589308817384E-5
  0
ARC
  5
2CB
100
AcDbEntity
  8
SEMA2D
100
AcDbCircle
370
9
 62
7
  6
_SOLID
 10
3.651594
 20
4.6909017234
 30
0
 40
0.00188399999999977
100
AcDbArc
 50
104.999999999707
 51
180
  0
ARC
  5
2CC
100
AcDbEntity
  8
SEMA2D
100
AcDbCircle
370
9
 62
7
  6
_SOLID
 10
3.645942
 20
4.6994072227
 30
0
 40
0.00376799999999999
100
AcDbArc
 50
-0.000514607777998259
 51
78.0004183964345
  0
ARC
  5
2CD
100
AcDbEntity
  8
SEMA2D
100
AcDbCircle
370
9
 62
7
  6
_SOLID
 10
3.641232
 20
4.7061866331
 30
0
 40
0.00188399999999977
100
AcDbArc
 50
180
 51
258.000000000585
  0
ARC
  5
2CE
100
AcDbEntity
  8
SEMA2D
100
AcDbCircle
370
9
 62
7
  6
_SOLID
 10
3.646884
 20
4.7049852634
 30
0
 40
0.00188400000000022
100
AcDbArc
 50
180
 51
258.000000000591
  0
ARC
  5
2CF
100
AcDbEntity
  8
SEMA2D
100
AcDbCircle
370
9
 62
7
  6
_SOLID
 10
3.646884
 20
4.7107807586
 30
0
 40
0.00188400000000022
100
AcDbArc
 50
98.0000000025955
 51
180
  0
ARC
  5
2D0
100
AcDbEntity
  8
SEMA2D
100
AcDbCircle
370
9
 62
7
  6
_SOLID
 10
3.641232
 20
4.7099864218
 30
0
 40
0.00188400000000022
100
AcDbArc
 50
98.0000000025955
 51
180
  0
ARC
  5
2D1
100
AcDbEntity
  8
SEMA2D
100
AcDbCircle
370
9
 62
7
  6
_SOLID
 10
3.664782
 20
4.6889162745
 30
0
 40
0.00188400000000022
100
AcDbArc
 50
0
 51
75.0000000003003
  0
ARC
  5
2D2
100
AcDbEntity
  8
SEMA2D
100
AcDbCircle
370
9
 62
7
  6
_SOLID
 10
3.6599778
 20
4.7107574296
 30
0
 40
0.00197820000000037
100
AcDbArc
 50
28.6999897286045
 51
81.9999935872182
  0
ARC
  5
2D3
100
AcDbEntity
  8
SEMA2D
100
AcDbCircle
370
9
 62
7
  6
_SOLID
 10
3.6599778
 20
4.7107574296
 30
0
 40
0.00197820000000037
100
AcDbArc
 50
0
 51
81.9999796138362
  0
ARC
  5
2D4
100
AcDbEntity
  8
SEMA2D
100
AcDbCircle
370
9
 62
7
  6
_SOLID
 10
3.691158
 20
4.631491948
 30
0
 40
0.00941999999999976
100
AcDbArc
 50
178.004691284707
 51
180.000000550037
  0
ARC
  5
2D5
100
AcDbEntity
  8
SEMA2D
100
AcDbCircle
370
9
 62
7
  6
_SOLID
 10
3.683622
 20
4.6663584318
 30
0
 40
0.00188399999999977
100
AcDbArc
 50
119.999990843246
 51
180.000050821347
  0
ARC
  5
2D6
100
AcDbEntity
  8
SEMA2D
100
AcDbCircle
370
9
 62
7
  6
_SOLID
 10
3.6836133027
 20
4.6663707304
 30
0
 40
0.00187530260000002
100
AcDbArc
 50
119.846696433833
 51
179.947572274585
  0
ARC
  5
2D7
100
AcDbEntity
  8
SEMA2D
100
AcDbCircle
370
9
 62
7
  6
_SOLID
 10
3.682209
 20
4.6688058196
 30
0
 40
0.00094200000000022
100
AcDbArc
 50
300.000018312186
 51
0
  0
ARC
  5
2D8
100
AcDbEntity
  8
SEMA2D
100
AcDbCircle
370
9
 62
7
  6
_SOLID
 10
3.675615
 20
4.7086548902
 30
0
 40
0.00188400000000022
100
AcDbArc
 50
0
 51
81.9999999974045
  0
ARC
  5
2D9
100
AcDbEntity
  8
SEMA2D
100
AcDbCircle
370
9
 62
7
  6
_SOLID
 10
3.675615
 20
4.7086548902
 30
0
 40
0.00188400000000022
100
AcDbArc
 50
0
 51
81.9999999974045
  0
ARC
  5
2DA
100
AcDbEntity
  8
SEMA2D
100
AcDbCircle
370
9
 62
7
  6
_SOLID
 10
3.679383
 20
4.7044388431
 30
0
 40
0.00188400000000022
100
AcDbArc
 50
180.000260856238
 51
258.000302011322
  0
ARC
  5
2DB
100
AcDbEntity
  8
SEMA2D
100
AcDbCircle
370
9
 62
7
  6
_SOLID
 10
3.683622
 20
4.6866035658
 30
0
 40
0.00188399999999977
100
AcDbArc
 50
180
 51
240.000010327235
  0
ARC
  5
2DC
100
AcDbEntity
  8
SEMA2D
100
AcDbCircle
370
9
 62
7
  6
_SOLID
 10
3.679854
 20
4.7004865496
 30
0
 40
0.00188399999999977
100
AcDbArc
 50
0
 51
78.000000000585
  0
ARC
  5
2DD
100
AcDbEntity
  8
SEMA2D
100
AcDbCircle
370
9
 62
7
  6
_SOLID
 10
3.6836138635
 20
4.6865921134
 30
0
 40
0.00187586339999979
100
AcDbArc
 50
180.049743772318
 51
240.143383108959
  0
ARC
  5
2DE
100
AcDbEntity
  8
SEMA2D
100
AcDbCircle
370
9
 62
7
  6
_SOLID
 10
3.6792888
 20
4.7043625614
 30
0
 40
0.00178979999999962
100
AcDbArc
 50
180
 51
258.000000000589
  0
ARC
  5
2DF
100
AcDbEntity
  8
SEMA2D
100
AcDbCircle
370
9
 62
7
  6
_SOLID
 10
3.695397
 20
4.6976643054
 30
0
 40
0.00141299999999966
100
AcDbArc
 50
0
 51
78.0000000005857
  0
ARC
  5
2E0
100
AcDbEntity
  8
SEMA2D
100
AcDbCircle
370
9
 62
7
  6
_SOLID
 10
3.695397
 20
4.6923567632
 30
0
 40
0.00141300000000011
100
AcDbArc
 50
284.999999999691
 51
0
  0
ARC
  5
2E1
100
AcDbEntity
  8
SEMA2D
100
AcDbCircle
370
9
 62
7
  6
_SOLID
 10
3.682209
 20
4.684156178
 30
0
 40
0.00094200000000022
100
AcDbArc
 50
0
 51
60.5621420079112
  0
ARC
  5
2E2
100
AcDbEntity
  8
SEMA2D
100
AcDbCircle
370
9
 62
7
  6
_SOLID
 10
3.710046982
 20
4.4214422638
 30
0
 40
0.0301388010000003
100
AcDbArc
 50
200.067564742903
 51
201.192847118437
  0
ARC
  5
2E3
100
AcDbEntity
  8
SEMA2D
100
AcDbCircle
370
9
 62
7
  6
_SOLID
 10
3.708114
 20
4.421693168
 30
0
 40
0.026376
100
AcDbArc
 50
179.999933920777
 51
202.919488368114
  0
LINE
  5
2E4
100
AcDbEntity
  8
SEMA2D
100
AcDbLine
370
9
 62
7
  6
_SOLID
 10
3.6899712238
 20
4.2966689706
 30
0
 11
3.6911616653
 21
4.2964026664
 31
0
  0
LINE
  5
2E5
100
AcDbEntity
  8
SEMA2D
100
AcDbLine
370
9
 62
7
  6
_SOLID
 10
3.6910986176
 20
4.2896549993
 30
0
 11
3.697281
 21
4.2907345141
 31
0
  0
LINE
  5
2E6
100
AcDbEntity
  8
SEMA2D
100
AcDbLine
370
9
 62
7
  6
_SOLID
 10
3.6925067605
 20
4.2969016892
 30
0
 11
3.6932973039
 21
4.2969004282
 31
0
  0
LINE
  5
2E7
100
AcDbEntity
  8
SEMA2D
100
AcDbLine
370
9
 62
7
  6
_SOLID
 10
3.6948874432
 20
4.2953735999
 30
0
 11
3.6956863355
 21
4.2953784472
 31
0
  0
LINE
  5
2E8
100
AcDbEntity
  8
SEMA2D
100
AcDbLine
370
9
 62
7
  6
_SOLID
 10
3.6865650389
 20
4.2958686742
 30
0
 11
3.6886535035
 21
4.293158568
 31
0
  0
LINE
  5
2E9
100
AcDbEntity
  8
SEMA2D
100
AcDbLine
370
9
 62
7
  6
_SOLID
 10
3.6604899457
 20
4.6920167874
 30
0
 11
3.6604897958
 21
4.696183
 31
0
  0
LINE
  5
2EA
100
AcDbEntity
  8
SEMA2D
100
AcDbLine
370
9
 62
7
  6
_SOLID
 10
3.6857061091
 20
4.2979725253
 30
0
 11
3.6855219879
 21
4.2980212493
 31
0
  0
LINE
  5
2EB
100
AcDbEntity
  8
SEMA2D
100
AcDbLine
370
9
 62
7
  6
_SOLID
 10
3.6512668502
 20
4.6851118072
 30
0
 11
3.6512668408
 21
4.690910303
 31
0
  0
LINE
  5
2EC
100
AcDbEntity
  8
SEMA2D
100
AcDbLine
370
9
 62
7
  6
_SOLID
 10
3.8641251161
 20
4.8590759915
 30
0
 11
3.8641251161
 21
4.8628439915
 31
0
  0
LINE
  5
2ED
100
AcDbEntity
  8
SEMA2D
100
AcDbLine
370
9
 62
7
  6
_SOLID
 10
3.8650486359
 20
4.8628469477
 30
0
 11
3.8662440466
 21
4.8697651821
 31
0
  0
LINE
  5
2EE
100
AcDbEntity
  8
SEMA2D
100
AcDbLine
370
9
 62
7
  6
_SOLID
 10
3.868093844
 20
4.8753162434
 30
0
 11
3.867376656
 21
4.8711870687
 31
0
  0
ARC
  5
2EF
100
AcDbEntity
  8
SEMA2D
100
AcDbCircle
370
9
 62
7
  6
_SOLID
 10
3.8700643423
 20
4.8749739915
 30
0
 40
0.00200000000000022
100
AcDbArc
 50
90
 51
170.146710579829
  0
LINE
  5
2F0
100
AcDbEntity
  8
SEMA2D
100
AcDbLine
370
9
 62
7
  6
_SOLID
 10
3.8699293252
 20
4.8754816971
 30
0
 11
3.8692068344
 21
4.8713219915
 31
0
  0
LINE
  5
2F1
100
AcDbEntity
  8
SEMA2D
100
AcDbLine
370
9
 62
7
  6
_SOLID
 10
3.8655101404
 20
4.8590730353
 30
0
 11
3.8667789176
 21
4.8517303149
 31
0
  0
ARC
  5
2F2
100
AcDbEntity
  8
SEMA2D
100
AcDbCircle
370
9
 62
7
  6
_SOLID
 10
3.869242411
 20
4.8521559915
 30
0
 40
0.00250000000000017
100
AcDbArc
 50
189.803555005265
 51
270
  0
LINE
  5
2F3
100
AcDbEntity
  8
SEMA2D
100
AcDbLine
370
9
 62
7
  6
_SOLID
 10
3.8699293252
 20
4.8769739915
 30
0
 11
3.8699293252
 21
4.8754816971
 31
0
  0
LINE
  5
2F4
100
AcDbEntity
  8
SEMA2D
100
AcDbLine
370
9
 62
7
  6
_SOLID
 10
3.8895080576
 20
4.8496559915
 30
0
 11
3.8906937194
 21
4.8541720292
 31
0
  0
LINE
  5
2F5
100
AcDbEntity
  8
SEMA2D
100
AcDbLine
370
9
 62
7
  6
_SOLID
 10
3.8907823884
 20
4.8510523808
 30
0
 11
3.8911031713
 21
4.8522713865
 31
0
  0
LINE
  5
2F6
100
AcDbEntity
  8
SEMA2D
100
AcDbLine
370
9
 62
7
  6
_SOLID
 10
3.8907821274
 20
4.8510513222
 30
0
 11
3.8911029168
 21
4.8522703521
 31
0
  0
LINE
  5
2F7
100
AcDbEntity
  8
SEMA2D
100
AcDbLine
370
9
 62
7
  6
_SOLID
 10
3.8862775459
 20
4.8496559915
 30
0
 11
3.8845978271
 21
4.8543659806
 31
0
  0
LINE
  5
2F8
100
AcDbEntity
  8
SEMA2D
100
AcDbLine
370
9
 62
7
  6
_SOLID
 10
3.9103907191
 20
4.8558678765
 30
0
 11
3.9125432732
 21
4.8349661065
 31
0
  0
ARC
  5
2F9
100
AcDbEntity
  8
SEMA2D
100
AcDbCircle
370
9
 62
7
  6
_SOLID
 10
3.914532751
 20
4.8351709915
 30
0
 40
0.00200000000000022
100
AcDbArc
 50
185.879837188368
 51
270
  0
ARC
  5
2FA
100
AcDbEntity
  8
SEMA2D
100
AcDbCircle
370
9
 62
7
  6
_SOLID
 10
3.9084012413
 20
4.8556629915
 30
0
 40
0.00199999999999978
100
AcDbArc
 50
5.87983718836829
 51
90
  0
LINE
  5
2FB
100
AcDbEntity
  8
SEMA2D
100
AcDbLine
370
9
 62
7
  6
_SOLID
 10
3.9276642384
 20
4.841873488
 30
0
 11
3.9264474171
 21
4.834830495
 31
0
  0
ARC
  5
2FC
100
AcDbEntity
  8
SEMA2D
100
AcDbCircle
370
9
 62
7
  6
_SOLID
 10
3.9296350409
 20
4.8415329915
 30
0
 40
0.00199999999999978
100
AcDbArc
 50
90
 51
170.197746843139
  0
ARC
  5
2FD
100
AcDbEntity
  8
SEMA2D
100
AcDbCircle
370
9
 62
7
  6
_SOLID
 10
3.9244766147
 20
4.8351709915
 30
0
 40
0.00200000000000022
100
AcDbArc
 50
270
 51
350.197746843139
  0
LINE
  5
2FE
100
AcDbEntity
  8
SEMA2D
100
AcDbLine
370
9
 62
7
  6
_SOLID
 10
3.935900503
 20
4.8743391547
 30
0
 11
3.935900503
 21
4.8755609915
 31
0
  0
LINE
  5
2FF
100
AcDbEntity
  8
SEMA2D
100
AcDbLine
370
9
 62
7
  6
_SOLID
 10
3.9481053914
 20
4.8755609915
 30
0
 11
3.9481053914
 21
4.8743391547
 31
0
  0
LINE
  5
300
100
AcDbEntity
  8
SEMA2D
100
AcDbLine
370
9
 62
7
  6
_SOLID
 10
3.935092878
 20
4.8753401344
 30
0
 11
3.9293445699
 21
4.8719530297
 31
0
  0
LINE
  5
301
100
AcDbEntity
  8
SEMA2D
100
AcDbLine
370
9
 62
7
  6
_SOLID
 10
3.9354305707
 20
4.8742732342
 30
0
 11
3.9313353969
 21
4.871860215
 31
0
  0
LINE
  5
302
100
AcDbEntity
  8
SEMA2D
100
AcDbLine
370
9
 62
7
  6
_SOLID
 10
3.94430514
 20
4.8340351758
 30
0
 11
3.9479222506
 21
4.8202580529
 31
0
  0
ARC
  5
303
100
AcDbEntity
  8
SEMA2D
100
AcDbCircle
370
9
 62
7
  6
_SOLID
 10
3.948889471
 20
4.8205119915
 30
0
 40
0.00100000000000011
100
AcDbArc
 50
194.71070002108
 51
270
  0
LINE
  5
304
100
AcDbEntity
  8
SEMA2D
100
AcDbLine
370
9
 62
7
  6
_SOLID
 10
3.946296035
 20
4.8332437158
 30
0
 11
3.9496262641
 21
4.8205592802
 31
0
  0
LINE
  5
305
100
AcDbEntity
  8
SEMA2D
100
AcDbLine
370
9
 62
7
  6
_SOLID
 10
3.9496262641
 20
4.8205592802
 30
0
 11
3.9496262641
 21
4.8195119915
 31
0
  0
LINE
  5
306
100
AcDbEntity
  8
SEMA2D
100
AcDbLine
370
9
 62
7
  6
_SOLID
 10
3.9623579451
 20
4.8746091777
 30
0
 11
3.9619986375
 21
4.8738227787
 31
0
  0
LINE
  5
307
100
AcDbEntity
  8
SEMA2D
100
AcDbLine
370
9
 62
7
  6
_SOLID
 10
3.9638218587
 20
4.8743391547
 30
0
 11
3.9629039394
 21
4.8723301918
 31
0
  0
LINE
  5
308
100
AcDbEntity
  8
SEMA2D
100
AcDbLine
370
9
 62
7
  6
_SOLID
 10
3.9638218587
 20
4.8755609915
 30
0
 11
3.9638218587
 21
4.8743391547
 31
0
  0
LINE
  5
309
100
AcDbEntity
  8
SEMA2D
100
AcDbLine
370
9
 62
7
  6
_SOLID
 10
3.948889471
 20
4.8195119915
 30
0
 11
3.9694987792
 21
4.8195119915
 31
0
  0
ARC
  5
30A
100
AcDbEntity
  8
SEMA2D
100
AcDbCircle
370
9
 62
7
  6
_SOLID
 10
3.9694987792
 20
4.8205119915
 30
0
 40
0.00100000000000011
100
AcDbArc
 50
270
 51
345.289300322158
  0
LINE
  5
30B
100
AcDbEntity
  8
SEMA2D
100
AcDbLine
370
9
 62
7
  6
_SOLID
 10
4.012576471
 20
4.8195119915
 30
0
 11
4.0331857792
 21
4.8195119915
 31
0
  0
ARC
  5
30C
100
AcDbEntity
  8
SEMA2D
100
AcDbCircle
370
9
 62
7
  6
_SOLID
 10
4.0331857792
 20
4.8205119915
 30
0
 40
0.00099999999999989
100
AcDbArc
 50
270
 51
345.28930058199
  0
ARC
  5
30D
100
AcDbEntity
  8
SEMA2D
100
AcDbCircle
370
9
 62
7
  6
_SOLID
 10
4.012576471
 20
4.8205119915
 30
0
 40
0.00100000000000033
100
AcDbArc
 50
194.710699677835
 51
270
  0
LINE
  5
30E
100
AcDbEntity
  8
SEMA2D
100
AcDbLine
370
9
 62
7
  6
_SOLID
 10
3.9496262641
 20
4.8205592802
 30
0
 11
3.9687619861
 21
4.8205592802
 31
0
  0
LINE
  5
30F
100
AcDbEntity
  8
SEMA2D
100
AcDbLine
370
9
 62
7
  6
_SOLID
 10
4.0133132641
 20
4.8205592802
 30
0
 11
4.0324489861
 21
4.8205592802
 31
0
  0
LINE
  5
310
100
AcDbEntity
  8
SEMA2D
100
AcDbLine
370
9
 62
7
  6
_SOLID
 10
3.9481053914
 20
4.8743391547
 30
0
 11
3.9490233092
 21
4.87233019
 31
0
  0
LINE
  5
311
100
AcDbEntity
  8
SEMA2D
100
AcDbLine
370
9
 62
7
  6
_SOLID
 10
3.9495693051
 20
4.8746091777
 30
0
 11
3.9499286126
 21
4.8738227787
 31
0
  0
LINE
  5
312
100
AcDbEntity
  8
SEMA2D
100
AcDbLine
370
9
 62
7
  6
_SOLID
 10
3.9687619861
 20
4.8205592802
 30
0
 11
3.9687619861
 21
4.8195119915
 31
0
  0
LINE
  5
313
100
AcDbEntity
  8
SEMA2D
100
AcDbLine
370
9
 62
7
  6
_SOLID
 10
3.9744269987
 20
4.8421366066
 30
0
 11
3.9744269987
 21
4.8435329915
 31
0
  0
LINE
  5
314
100
AcDbEntity
  8
SEMA2D
100
AcDbLine
370
9
 62
7
  6
_SOLID
 10
3.9771914617
 20
4.8661055679
 30
0
 11
3.9771926012
 21
4.8633221232
 31
0
  0
LINE
  5
315
100
AcDbEntity
  8
SEMA2D
100
AcDbLine
370
9
 62
7
  6
_SOLID
 10
3.9771926251
 20
4.859903831
 30
0
 11
3.9771926251
 21
4.861952095
 31
0
  0
LINE
  5
316
100
AcDbEntity
  8
SEMA2D
100
AcDbLine
370
9
 62
7
  6
_SOLID
 10
3.9771926251
 20
4.861952095
 30
0
 11
3.9771926251
 21
4.8633149915
 31
0
  0
LINE
  5
317
100
AcDbEntity
  8
SEMA2D
100
AcDbLine
370
9
 62
7
  6
_SOLID
 10
3.9826164014
 20
4.8755609915
 30
0
 11
3.9826164014
 21
4.8743391547
 31
0
  0
LINE
  5
318
100
AcDbEntity
  8
SEMA2D
100
AcDbLine
370
9
 62
7
  6
_SOLID
 10
3.9826164014
 20
4.8743391547
 30
0
 11
3.9821176007
 21
4.8661068691
 31
0
  0
LINE
  5
319
100
AcDbEntity
  8
SEMA2D
100
AcDbLine
370
9
 62
7
  6
_SOLID
 10
3.9687619861
 20
4.8205592802
 30
0
 11
3.9744269949
 21
4.8421366066
 31
0
  0
LINE
  5
31A
100
AcDbEntity
  8
SEMA2D
100
AcDbLine
370
9
 62
7
  6
_SOLID
 10
3.9704659996
 20
4.8202580529
 30
0
 11
3.9762100978
 21
4.8421366066
 31
0
  0
LINE
  5
31B
100
AcDbEntity
  8
SEMA2D
100
AcDbLine
370
9
 62
7
  6
_SOLID
 10
4.0594159679
 20
4.8331709915
 30
0
 11
4.0587608815
 21
4.8331709915
 31
0
  0
LINE
  5
31C
100
AcDbEntity
  8
SEMA2D
100
AcDbLine
370
9
 62
7
  6
_SOLID
 10
3.9244766147
 20
4.8331709915
 30
0
 11
3.9226929044
 21
4.8331709915
 31
0
  0
LINE
  5
31D
100
AcDbEntity
  8
SEMA2D
100
AcDbLine
370
9
 62
7
  6
_SOLID
 10
3.914532751
 20
4.8331709915
 30
0
 11
3.9244766147
 21
4.8331709915
 31
0
  0
LINE
  5
31E
100
AcDbEntity
  8
SEMA2D
100
AcDbLine
370
9
 62
7
  6
_SOLID
 10
4.0575986355
 20
4.8331709915
 30
0
 11
4.0656741328
 21
4.8331709915
 31
0
  0
ARC
  5
31F
100
AcDbEntity
  8
SEMA2D
100
AcDbCircle
370
9
 62
7
  6
_SOLID
 10
4.0656741328
 20
4.8351709915
 30
0
 40
0.00200000000000022
100
AcDbArc
 50
270
 51
-2.93959772196582
  0
ARC
  5
320
100
AcDbEntity
  8
SEMA2D
100
AcDbCircle
370
9
 62
7
  6
_SOLID
 10
4.0575986355
 20
4.8351709915
 30
0
 40
0.00200000000000067
100
AcDbArc
 50
189.802253220914
 51
270
  0
LINE
  5
321
100
AcDbEntity
  8
SEMA2D
100
AcDbLine
370
9
 62
7
  6
_SOLID
 10
3.9461687157
 20
4.8332437158
 30
0
 11
3.948221533
 21
4.8332437158
 31
0
  0
LINE
  5
322
100
AcDbEntity
  8
SEMA2D
100
AcDbLine
370
9
 62
7
  6
_SOLID
 10
3.9900112157
 20
4.8332437158
 30
0
 11
3.992064033
 21
4.8332437158
 31
0
  0
LINE
  5
323
100
AcDbEntity
  8
SEMA2D
100
AcDbLine
370
9
 62
7
  6
_SOLID
 10
3.9461719186
 20
4.8332453438
 30
0
 11
3.9482183315
 21
4.8332453438
 31
0
  0
LINE
  5
324
100
AcDbEntity
  8
SEMA2D
100
AcDbLine
370
9
 62
7
  6
_SOLID
 10
3.9900144186
 20
4.8332453438
 30
0
 11
3.9920608315
 21
4.8332453438
 31
0
  0
LINE
  5
325
100
AcDbEntity
  8
SEMA2D
100
AcDbLine
370
9
 62
7
  6
_SOLID
 10
3.9853727134
 20
4.8741272789
 30
0
 11
3.9848573826
 21
4.8656225695
 31
0
  0
LINE
  5
326
100
AcDbEntity
  8
SEMA2D
100
AcDbLine
370
9
 62
7
  6
_SOLID
 10
3.998780679
 20
4.8740596464
 30
0
 11
3.9945315677
 21
4.8653963519
 31
0
  0
LINE
  5
327
100
AcDbEntity
  8
SEMA2D
100
AcDbLine
370
9
 62
7
  6
_SOLID
 10
4.0000187347
 20
4.8737928762
 30
0
 11
3.9962492398
 21
4.8661074527
 31
0
  0
LINE
  5
328
100
AcDbEntity
  8
SEMA2D
100
AcDbLine
370
9
 62
7
  6
_SOLID
 10
3.9571532324
 20
4.8421366066
 30
0
 11
3.9744269949
 21
4.8421366066
 31
0
  0
LINE
  5
329
100
AcDbEntity
  8
SEMA2D
100
AcDbLine
370
9
 62
7
  6
_SOLID
 10
4.0076482552
 20
4.8421366066
 30
0
 11
4.0249229494
 21
4.8421366066
 31
0
  0
LINE
  5
32A
100
AcDbEntity
  8
SEMA2D
100
AcDbLine
370
9
 62
7
  6
_SOLID
 10
4.0524402093
 20
4.8435329915
 30
0
 11
4.0427507734
 21
4.8435329915
 31
0
  0
ARC
  5
32B
100
AcDbEntity
  8
SEMA2D
100
AcDbCircle
370
9
 62
7
  6
_SOLID
 10
4.0524402093
 20
4.8415329915
 30
0
 40
0.00199999999999934
100
AcDbArc
 50
9.80225351666272
 51
90
  0
LINE
  5
32C
100
AcDbEntity
  8
SEMA2D
100
AcDbLine
370
9
 62
7
  6
_SOLID
 10
4.0521880729
 20
4.8435329915
 30
0
 11
4.0420028294
 21
4.8435329915
 31
0
  0
ARC
  5
32D
100
AcDbEntity
  8
SEMA2D
100
AcDbCircle
370
9
 62
7
  6
_SOLID
 10
4.0420028294
 20
4.8415329915
 30
0
 40
0.00200000000000022
100
AcDbArc
 50
90
 51
165.289300293024
  0
LINE
  5
32E
100
AcDbEntity
  8
SEMA2D
100
AcDbLine
370
9
 62
7
  6
_SOLID
 10
4.0226029556
 20
4.8435329915
 30
0
 11
4.0033148298
 21
4.8435329915
 31
0
  0
LINE
  5
32F
100
AcDbEntity
  8
SEMA2D
100
AcDbLine
370
9
 62
7
  6
_SOLID
 10
3.9787604556
 20
4.8435329915
 30
0
 11
3.9733171346
 21
4.8435329915
 31
0
  0
LINE
  5
330
100
AcDbEntity
  8
SEMA2D
100
AcDbLine
370
9
 62
7
  6
_SOLID
 10
3.9787604556
 20
4.8435329915
 30
0
 11
3.9594715935
 21
4.8435329915
 31
0
  0
LINE
  5
331
100
AcDbEntity
  8
SEMA2D
100
AcDbLine
370
9
 62
7
  6
_SOLID
 10
3.9393243309
 20
4.8435329915
 30
0
 11
3.9296350409
 21
4.8435329915
 31
0
  0
LINE
  5
332
100
AcDbEntity
  8
SEMA2D
100
AcDbLine
370
9
 62
7
  6
_SOLID
 10
3.9398833247
 20
4.8435329915
 30
0
 11
3.9296350409
 21
4.8435329915
 31
0
  0
ARC
  5
333
100
AcDbEntity
  8
SEMA2D
100
AcDbCircle
370
9
 62
7
  6
_SOLID
 10
3.9398833247
 20
4.8415329915
 30
0
 40
0.00199999999999978
100
AcDbArc
 50
14.9999999996899
 51
90
  0
LINE
  5
334
100
AcDbEntity
  8
SEMA2D
100
AcDbLine
370
9
 62
7
  6
_SOLID
 10
4.0033148298
 20
4.8435329915
 30
0
 11
4.0226029556
 21
4.8435329915
 31
0
  0
LINE
  5
335
100
AcDbEntity
  8
SEMA2D
100
AcDbLine
370
9
 62
7
  6
_SOLID
 10
3.8880915719
 20
4.8496559915
 30
0
 11
3.8862775459
 21
4.8496559915
 31
0
  0
LINE
  5
336
100
AcDbEntity
  8
SEMA2D
100
AcDbLine
370
9
 62
7
  6
_SOLID
 10
3.8895080576
 20
4.8496559915
 30
0
 11
3.8880920218
 21
4.8496559915
 31
0
  0
LINE
  5
337
100
AcDbEntity
  8
SEMA2D
100
AcDbLine
370
9
 62
7
  6
_SOLID
 10
3.87101768
 20
4.8496559915
 30
0
 11
3.869242411
 21
4.8496559915
 31
0
  0
ARC
  5
338
100
AcDbEntity
  8
SEMA2D
100
AcDbCircle
370
9
 62
7
  6
_SOLID
 10
3.87101768
 20
4.8516559915
 30
0
 40
0.00199999999999978
100
AcDbArc
 50
270
 51
335.027063094791
  0
LINE
  5
339
100
AcDbEntity
  8
SEMA2D
100
AcDbLine
370
9
 62
7
  6
_SOLID
 10
4.0863480002
 20
4.8496559915
 30
0
 11
4.0909790501
 21
4.8496559915
 31
0
  0
ARC
  5
33A
100
AcDbEntity
  8
SEMA2D
100
AcDbCircle
370
9
 62
7
  6
_SOLID
 10
4.0863480002
 20
4.8516559915
 30
0
 40
0.00199999999999978
100
AcDbArc
 50
194.775755518412
 51
270
  0
ARC
  5
33B
100
AcDbEntity
  8
SEMA2D
100
AcDbCircle
370
9
 62
7
  6
_SOLID
 10
4.0909790501
 20
4.8516559915
 30
0
 40
0.00200000000000022
100
AcDbArc
 50
270
 51
345.289300286027
  0
LINE
  5
33C
100
AcDbEntity
  8
SEMA2D
100
AcDbLine
370
9
 62
7
  6
_SOLID
 10
4.1105147658
 20
4.8496559915
 30
0
 11
4.1140501784
 21
4.8496559915
 31
0
  0
ARC
  5
33D
100
AcDbEntity
  8
SEMA2D
100
AcDbCircle
370
9
 62
7
  6
_SOLID
 10
4.1105147658
 20
4.8506559915
 30
0
 40
0.00100000000000033
100
AcDbArc
 50
208.404518185056
 51
270
  0
ARC
  5
33E
100
AcDbEntity
  8
SEMA2D
100
AcDbCircle
370
9
 62
7
  6
_SOLID
 10
4.1140501784
 20
4.8506559915
 30
0
 40
0.00100000000000033
100
AcDbArc
 50
270
 51
350.1976438349
  0
LINE
  5
33F
100
AcDbEntity
  8
SEMA2D
100
AcDbLine
370
9
 62
7
  6
_SOLID
 10
4.0008773293
 20
4.8743391547
 30
0
 11
4.0008773293
 21
4.8755609915
 31
0
  0
LINE
  5
340
100
AcDbEntity
  8
SEMA2D
100
AcDbLine
370
9
 62
7
  6
_SOLID
 10
3.9962492426
 20
4.8661074527
 30
0
 11
3.9962488163
 21
4.8633160812
 31
0
  0
LINE
  5
341
100
AcDbEntity
  8
SEMA2D
100
AcDbLine
370
9
 62
7
  6
_SOLID
 10
3.8907823884
 20
4.8510523808
 30
0
 11
3.8898751048
 21
4.8510523808
 31
0
  0
LINE
  5
342
100
AcDbEntity
  8
SEMA2D
100
AcDbLine
370
9
 62
7
  6
_SOLID
 10
4.1041984396
 20
4.8543659915
 30
0
 11
4.0953010191
 21
4.8543659915
 31
0
  0
ARC
  5
343
100
AcDbEntity
  8
SEMA2D
100
AcDbCircle
370
9
 62
7
  6
_SOLID
 10
4.0953010191
 20
4.8523659915
 30
0
 40
0.00200000000000022
100
AcDbArc
 50
90
 51
165.289300285996
  0
LINE
  5
344
100
AcDbEntity
  8
SEMA2D
100
AcDbLine
370
9
 62
7
  6
_SOLID
 10
4.0820239537
 20
4.8543659915
 30
0
 11
4.070470283
 21
4.8543659915
 31
0
  0
ARC
  5
345
100
AcDbEntity
  8
SEMA2D
100
AcDbCircle
370
9
 62
7
  6
_SOLID
 10
4.0820239537
 20
4.8523659915
 30
0
 40
0.00199999999999978
100
AcDbArc
 50
14.7757562466038
 51
90
  0
LINE
  5
346
100
AcDbEntity
  8
SEMA2D
100
AcDbLine
370
9
 62
7
  6
_SOLID
 10
4.0835648149
 20
4.8543659915
 30
0
 11
4.0705623788
 21
4.8543659915
 31
0
  0
ARC
  5
347
100
AcDbEntity
  8
SEMA2D
100
AcDbCircle
370
9
 62
7
  6
_SOLID
 10
4.0705623788
 20
4.8523659915
 30
0
 40
0.00200000000000022
100
AcDbArc
 50
90
 51
177.060402306647
  0
LINE
  5
348
100
AcDbEntity
  8
SEMA2D
100
AcDbLine
370
9
 62
7
  6
_SOLID
 10
3.9105453897
 20
4.8543659915
 30
0
 11
3.8935982198
 21
4.8543659915
 31
0
  0
LINE
  5
349
100
AcDbEntity
  8
SEMA2D
100
AcDbLine
370
9
 62
7
  6
_SOLID
 10
3.9105453897
 20
4.8543659915
 30
0
 11
3.8935982198
 21
4.8543659915
 31
0
  0
LINE
  5
34A
100
AcDbEntity
  8
SEMA2D
100
AcDbLine
370
9
 62
7
  6
_SOLID
 10
3.8833877573
 20
4.8543659915
 30
0
 11
3.8777959023
 21
4.8543659915
 31
0
  0
LINE
  5
34B
100
AcDbEntity
  8
SEMA2D
100
AcDbLine
370
9
 62
7
  6
_SOLID
 10
3.9084012413
 20
4.8576629915
 30
0
 11
3.8951514672
 21
4.8576629915
 31
0
  0
LINE
  5
34C
100
AcDbEntity
  8
SEMA2D
100
AcDbLine
370
9
 62
7
  6
_SOLID
 10
4.1179042517
 20
4.8590759915
 30
0
 11
4.1165197369
 21
4.8590759915
 31
0
  0
LINE
  5
34D
100
AcDbEntity
  8
SEMA2D
100
AcDbLine
370
9
 62
7
  6
_SOLID
 10
3.8655096296
 20
4.8590759915
 30
0
 11
3.8641251161
 21
4.8590759915
 31
0
  0
LINE
  5
34E
100
AcDbEntity
  8
SEMA2D
100
AcDbLine
370
9
 62
7
  6
_SOLID
 10
3.8914052579
 20
4.8541719296
 30
0
 11
3.890694149
 21
4.8541720182
 31
0
  0
LINE
  5
34F
100
AcDbEntity
  8
SEMA2D
100
AcDbLine
370
9
 62
7
  6
_SOLID
 10
3.8777959024
 20
4.8543659915
 30
0
 11
3.8845978271
 21
4.8543659806
 31
0
  0
LINE
  5
350
100
AcDbEntity
  8
SEMA2D
100
AcDbLine
370
9
 62
7
  6
_SOLID
 10
3.9865449642
 20
4.8736480402
 30
0
 11
3.9899044099
 21
4.8633149915
 31
0
  0
LINE
  5
351
100
AcDbEntity
  8
SEMA2D
100
AcDbLine
370
9
 62
7
  6
_SOLID
 10
3.9902758617
 20
4.8633149915
 30
0
 11
3.9868315973
 21
4.8739089267
 31
0
  0
LINE
  5
352
100
AcDbEntity
  8
SEMA2D
100
AcDbLine
370
9
 62
7
  6
_SOLID
 10
4.0048826251
 20
4.859903831
 30
0
 11
4.0048826251
 21
4.861952095
 31
0
  0
LINE
  5
353
100
AcDbEntity
  8
SEMA2D
100
AcDbLine
370
9
 62
7
  6
_SOLID
 10
4.0048826251
 20
4.861952095
 30
0
 11
4.0048826251
 21
4.8633149915
 31
0
  0
LINE
  5
354
100
AcDbEntity
  8
SEMA2D
100
AcDbLine
370
9
 62
7
  6
_SOLID
 10
4.0076482514
 20
4.8421366066
 30
0
 11
4.0076482514
 21
4.8435329915
 31
0
  0
LINE
  5
355
100
AcDbEntity
  8
SEMA2D
100
AcDbLine
370
9
 62
7
  6
_SOLID
 10
4.0048837883
 20
4.8661055679
 30
0
 11
4.0048826488
 21
4.8633221232
 31
0
  0
LINE
  5
356
100
AcDbEntity
  8
SEMA2D
100
AcDbLine
370
9
 62
7
  6
_SOLID
 10
4.0048826251
 20
4.863322123
 30
0
 11
3.9956772249
 21
4.8633157867
 31
0
  0
LINE
  5
357
100
AcDbEntity
  8
SEMA2D
100
AcDbLine
370
9
 62
7
  6
_SOLID
 10
4.1179042517
 20
4.8628439915
 30
0
 11
4.1169812418
 21
4.8628439915
 31
0
  0
LINE
  5
358
100
AcDbEntity
  8
SEMA2D
100
AcDbLine
370
9
 62
7
  6
_SOLID
 10
3.8650481251
 20
4.8628439915
 30
0
 11
3.8641251161
 21
4.8628439915
 31
0
  0
LINE
  5
359
100
AcDbEntity
  8
SEMA2D
100
AcDbLine
370
9
 62
7
  6
_SOLID
 10
4.0048826251
 20
4.8633149915
 30
0
 11
3.9771926251
 21
4.8633149915
 31
0
  0
LINE
  5
35A
100
AcDbEntity
  8
SEMA2D
100
AcDbLine
370
9
 62
7
  6
_SOLID
 10
3.9956772249
 20
4.8633157867
 30
0
 11
3.9863975108
 21
4.8633157874
 31
0
  0
LINE
  5
35B
100
AcDbEntity
  8
SEMA2D
100
AcDbLine
370
9
 62
7
  6
_SOLID
 10
3.9863975108
 20
4.8633157874
 30
0
 11
3.9771926251
 21
4.863322123
 31
0
  0
LINE
  5
35C
100
AcDbEntity
  8
SEMA2D
100
AcDbLine
370
9
 62
7
  6
_SOLID
 10
4.0058651524
 20
4.8421366066
 30
0
 11
4.0116092506
 21
4.8202580529
 31
0
  0
LINE
  5
35D
100
AcDbEntity
  8
SEMA2D
100
AcDbLine
370
9
 62
7
  6
_SOLID
 10
4.0076482552
 20
4.8421366066
 30
0
 11
4.0133132641
 21
4.8205592802
 31
0
  0
LINE
  5
35E
100
AcDbEntity
  8
SEMA2D
100
AcDbLine
370
9
 62
7
  6
_SOLID
 10
4.0133132641
 20
4.8205592802
 30
0
 11
4.0133132641
 21
4.8195119915
 31
0
  0
LINE
  5
35F
100
AcDbEntity
  8
SEMA2D
100
AcDbLine
370
9
 62
7
  6
_SOLID
 10
4.114674449
 20
4.8713219915
 30
0
 11
4.0605908141
 21
4.8713219915
 31
0
  0
ARC
  5
360
100
AcDbEntity
  8
SEMA2D
100
AcDbCircle
370
9
 62
7
  6
_SOLID
 10
4.114674449
 20
4.8703219915
 30
0
 40
0.000999999999999446
100
AcDbArc
 50
9.80225274329656
 51
90
  0
LINE
  5
361
100
AcDbEntity
  8
SEMA2D
100
AcDbLine
370
9
 62
7
  6
_SOLID
 10
4.0604128617
 20
4.8713219915
 30
0
 11
4.0550382443
 21
4.8713219915
 31
0
  0
LINE
  5
362
100
AcDbEntity
  8
SEMA2D
100
AcDbLine
370
9
 62
7
  6
_SOLID
 10
3.9214844349
 20
4.8713219915
 30
0
 11
3.8680619952
 21
4.8713219915
 31
0
  0
LINE
  5
363
100
AcDbEntity
  8
SEMA2D
100
AcDbLine
370
9
 62
7
  6
_SOLID
 10
4.0387310563
 20
4.8717929919
 30
0
 11
4.0319521928
 21
4.8717929918
 31
0
  0
LINE
  5
364
100
AcDbEntity
  8
SEMA2D
100
AcDbLine
370
9
 62
7
  6
_SOLID
 10
3.9593530562
 20
4.8717929919
 30
0
 11
3.9525741928
 21
4.8717929918
 31
0
  0
LINE
  5
365
100
AcDbEntity
  8
SEMA2D
100
AcDbLine
370
9
 62
7
  6
_SOLID
 10
3.9511868685
 20
4.8727349915
 30
0
 11
3.9607403838
 21
4.8727349915
 31
0
  0
LINE
  5
366
100
AcDbEntity
  8
SEMA2D
100
AcDbLine
370
9
 62
7
  6
_SOLID
 10
4.0305648671
 20
4.8727349915
 30
0
 11
4.0401183777
 21
4.8727349915
 31
0
  0
LINE
  5
367
100
AcDbEntity
  8
SEMA2D
100
AcDbLine
370
9
 62
7
  6
_SOLID
 10
3.9853727134
 20
4.8741272789
 30
0
 11
3.9860518122
 21
4.8741272789
 31
0
  0
LINE
  5
368
100
AcDbEntity
  8
SEMA2D
100
AcDbLine
370
9
 62
7
  6
_SOLID
 10
3.935900503
 20
4.8743391547
 30
0
 11
3.9481053914
 21
4.8743391547
 31
0
  0
LINE
  5
369
100
AcDbEntity
  8
SEMA2D
100
AcDbLine
370
9
 62
7
  6
_SOLID
 10
3.9638218587
 20
4.8743391547
 30
0
 11
3.9826164014
 21
4.8743391547
 31
0
  0
LINE
  5
36A
100
AcDbEntity
  8
SEMA2D
100
AcDbLine
370
9
 62
7
  6
_SOLID
 10
4.0008773293
 20
4.8743391547
 30
0
 11
4.0274833914
 21
4.8743391547
 31
0
  0
LINE
  5
36B
100
AcDbEntity
  8
SEMA2D
100
AcDbLine
370
9
 62
7
  6
_SOLID
 10
4.0431998587
 20
4.8743391547
 30
0
 11
4.0461747471
 21
4.8743391547
 31
0
  0
LINE
  5
36C
100
AcDbEntity
  8
SEMA2D
100
AcDbLine
370
9
 62
7
  6
_SOLID
 10
3.8699293252
 20
4.8754816971
 30
0
 11
3.9354077564
 21
4.8754816971
 31
0
  0
LINE
  5
36D
100
AcDbEntity
  8
SEMA2D
100
AcDbLine
370
9
 62
7
  6
_SOLID
 10
3.9485965261
 20
4.8754816971
 30
0
 11
3.9633304253
 21
4.8754816971
 31
0
  0
LINE
  5
36E
100
AcDbEntity
  8
SEMA2D
100
AcDbLine
370
9
 62
7
  6
_SOLID
 10
3.9853447068
 20
4.8754816971
 30
0
 11
4.0003855151
 21
4.8754816971
 31
0
  0
LINE
  5
36F
100
AcDbEntity
  8
SEMA2D
100
AcDbLine
370
9
 62
7
  6
_SOLID
 10
4.0279745261
 20
4.8754816971
 30
0
 11
4.0427080106
 21
4.8754816971
 31
0
  0
LINE
  5
370
100
AcDbEntity
  8
SEMA2D
100
AcDbLine
370
9
 62
7
  6
_SOLID
 10
4.0466674891
 20
4.8754816971
 30
0
 11
4.0598286496
 21
4.8754816971
 31
0
  0
LINE
  5
371
100
AcDbEntity
  8
SEMA2D
100
AcDbLine
370
9
 62
7
  6
_SOLID
 10
3.935900503
 20
4.8755609915
 30
0
 11
3.9481053914
 21
4.8755609915
 31
0
  0
LINE
  5
372
100
AcDbEntity
  8
SEMA2D
100
AcDbLine
370
9
 62
7
  6
_SOLID
 10
3.935900503
 20
4.8755609915
 30
0
 11
3.9481053914
 21
4.8755609915
 31
0
  0
LINE
  5
373
100
AcDbEntity
  8
SEMA2D
100
AcDbLine
370
9
 62
7
  6
_SOLID
 10
3.9638218587
 20
4.8755609915
 30
0
 11
3.9848531573
 21
4.8755609915
 31
0
  0
LINE
  5
374
100
AcDbEntity
  8
SEMA2D
100
AcDbLine
370
9
 62
7
  6
_SOLID
 10
4.0008773293
 20
4.8755609915
 30
0
 11
4.0274833914
 21
4.8755609915
 31
0
  0
LINE
  5
375
100
AcDbEntity
  8
SEMA2D
100
AcDbLine
370
9
 62
7
  6
_SOLID
 10
4.0008773293
 20
4.8755609915
 30
0
 11
4.0274833914
 21
4.8755609915
 31
0
  0
LINE
  5
376
100
AcDbEntity
  8
SEMA2D
100
AcDbLine
370
9
 62
7
  6
_SOLID
 10
4.0431998587
 20
4.8755609915
 30
0
 11
4.0461747471
 21
4.8755609915
 31
0
  0
LINE
  5
377
100
AcDbEntity
  8
SEMA2D
100
AcDbLine
370
9
 62
7
  6
_SOLID
 10
4.0431998587
 20
4.8755609915
 30
0
 11
4.0461747471
 21
4.8755609915
 31
0
  0
LINE
  5
378
100
AcDbEntity
  8
SEMA2D
100
AcDbLine
370
9
 62
7
  6
_SOLID
 10
4.0417359451
 20
4.8746091777
 30
0
 11
4.0413766375
 21
4.8738227787
 31
0
  0
LINE
  5
379
100
AcDbEntity
  8
SEMA2D
100
AcDbLine
370
9
 62
7
  6
_SOLID
 10
3.8699293252
 20
4.8769739915
 30
0
 11
4.0605932879
 21
4.8769739915
 31
0
  0
LINE
  5
37A
100
AcDbEntity
  8
SEMA2D
100
AcDbLine
370
9
 62
7
  6
_SOLID
 10
3.8700643423
 20
4.8769739915
 30
0
 11
4.0598286496
 21
4.8769739915
 31
0
  0
LINE
  5
37B
100
AcDbEntity
  8
SEMA2D
100
AcDbLine
370
9
 62
7
  6
_SOLID
 10
4.0274833914
 20
4.8755609915
 30
0
 11
4.0274833914
 21
4.8743391547
 31
0
  0
LINE
  5
37C
100
AcDbEntity
  8
SEMA2D
100
AcDbLine
370
9
 62
7
  6
_SOLID
 10
4.0324489861
 20
4.8205592802
 30
0
 11
4.0324489861
 21
4.8195119915
 31
0
  0
LINE
  5
37D
100
AcDbEntity
  8
SEMA2D
100
AcDbLine
370
9
 62
7
  6
_SOLID
 10
4.0422819395
 20
4.872330192
 30
0
 11
4.0431998587
 21
4.8743391547
 31
0
  0
LINE
  5
37E
100
AcDbEntity
  8
SEMA2D
100
AcDbLine
370
9
 62
7
  6
_SOLID
 10
4.0274833914
 20
4.8743391547
 30
0
 11
4.0284013092
 21
4.8723301899
 31
0
  0
LINE
  5
37F
100
AcDbEntity
  8
SEMA2D
100
AcDbLine
370
9
 62
7
  6
_SOLID
 10
4.0289473051
 20
4.8746091777
 30
0
 11
4.0293066126
 21
4.8738227787
 31
0
  0
LINE
  5
380
100
AcDbEntity
  8
SEMA2D
100
AcDbLine
370
9
 62
7
  6
_SOLID
 10
4.0431998587
 20
4.8755609915
 30
0
 11
4.0431998587
 21
4.8743391547
 31
0
  0
LINE
  5
381
100
AcDbEntity
  8
SEMA2D
100
AcDbLine
370
9
 62
7
  6
_SOLID
 10
4.0324489861
 20
4.8205592802
 30
0
 11
4.0357792152
 21
4.8332437158
 31
0
  0
LINE
  5
382
100
AcDbEntity
  8
SEMA2D
100
AcDbLine
370
9
 62
7
  6
_SOLID
 10
4.0341529996
 20
4.8202580529
 30
0
 11
4.0377704345
 21
4.8340364116
 31
0
  0
LINE
  5
383
100
AcDbEntity
  8
SEMA2D
100
AcDbLine
370
9
 62
7
  6
_SOLID
 10
4.0400683887
 20
4.8420408686
 30
0
 11
4.0386605453
 21
4.8366785689
 31
0
  0
LINE
  5
384
100
AcDbEntity
  8
SEMA2D
100
AcDbLine
370
9
 62
7
  6
_SOLID
 10
4.05048982
 20
4.8717965584
 30
0
 11
4.0461747471
 21
4.8743391547
 31
0
  0
LINE
  5
385
100
AcDbEntity
  8
SEMA2D
100
AcDbLine
370
9
 62
7
  6
_SOLID
 10
4.0527306802
 20
4.8719530297
 30
0
 11
4.0469823721
 21
4.8753401344
 31
0
  0
LINE
  5
386
100
AcDbEntity
  8
SEMA2D
100
AcDbLine
370
9
 62
7
  6
_SOLID
 10
4.0461747471
 20
4.8755609915
 30
0
 11
4.0461747471
 21
4.8743391547
 31
0
  0
LINE
  5
387
100
AcDbEntity
  8
SEMA2D
100
AcDbLine
370
9
 62
7
  6
_SOLID
 10
4.0556278331
 20
4.834830495
 30
0
 11
4.0544110117
 21
4.841873488
 31
0
  0
LINE
  5
388
100
AcDbEntity
  8
SEMA2D
100
AcDbLine
370
9
 62
7
  6
_SOLID
 10
4.0598286496
 20
4.8769739915
 30
0
 11
4.0598286496
 21
4.8754816971
 31
0
  0
LINE
  5
389
100
AcDbEntity
  8
SEMA2D
100
AcDbLine
370
9
 62
7
  6
_SOLID
 10
4.0598286496
 20
4.8754816971
 30
0
 11
4.0639044546
 21
4.8713219915
 31
0
  0
LINE
  5
38A
100
AcDbEntity
  8
SEMA2D
100
AcDbLine
370
9
 62
7
  6
_SOLID
 10
4.0605932879
 20
4.8769739915
 30
0
 11
4.0661312879
 21
4.8713219915
 31
0
  0
LINE
  5
38B
100
AcDbEntity
  8
SEMA2D
100
AcDbLine
370
9
 62
7
  6
_SOLID
 10
4.0676715011
 20
4.8350684252
 30
0
 11
4.0685650105
 21
4.8524685578
 31
0
  0
LINE
  5
38C
100
AcDbEntity
  8
SEMA2D
100
AcDbLine
370
9
 62
7
  6
_SOLID
 10
4.0839578165
 20
4.8528760648
 30
0
 11
4.08447566
 21
4.8509127423
 31
0
  0
LINE
  5
38D
100
AcDbEntity
  8
SEMA2D
100
AcDbLine
370
9
 62
7
  6
_SOLID
 10
4.0929134908
 20
4.8511481144
 30
0
 11
4.0933665784
 21
4.8528738686
 31
0
  0
LINE
  5
38E
100
AcDbEntity
  8
SEMA2D
100
AcDbLine
370
9
 62
7
  6
_SOLID
 10
4.1179042517
 20
4.8590759915
 30
0
 11
4.1179042517
 21
4.8628439915
 31
0
  0
LINE
  5
38F
100
AcDbEntity
  8
SEMA2D
100
AcDbLine
370
9
 62
7
  6
_SOLID
 10
4.1150355793
 20
4.8504857415
 30
0
 11
4.1165197369
 21
4.8590759915
 31
0
  0
LINE
  5
390
100
AcDbEntity
  8
SEMA2D
100
AcDbLine
370
9
 62
7
  6
_SOLID
 10
4.1156598503
 20
4.8704922397
 30
0
 11
4.1169812418
 21
4.8628439915
 31
0
  0
ARC
  5
391
100
AcDbEntity
  8
SEMA2D
100
AcDbCircle
370
9
 62
7
  6
_SOLID
 10
3.9216019327
 20
4.8645825609
 30
0
 40
0.00673943149999978
100
AcDbArc
 50
71.09562628329
 51
90
  0
ARC
  5
392
100
AcDbEntity
  8
SEMA2D
100
AcDbCircle
370
9
 62
7
  6
_SOLID
 10
3.8959820182
 20
4.8529815544
 30
0
 40
0.00472903050000006
100
AcDbArc
 50
99.5846666380571
 51
165.420888420609
  0
ARC
  5
393
100
AcDbEntity
  8
SEMA2D
100
AcDbCircle
370
9
 62
7
  6
_SOLID
 10
3.9270341025
 20
4.8758655343
 30
0
 40
0.00454354369999987
100
AcDbArc
 50
270
 51
300.563301712589
  0
ARC
  5
394
100
AcDbEntity
  8
SEMA2D
100
AcDbCircle
370
9
 62
7
  6
_SOLID
 10
3.938347269
 20
4.877685916
 30
0
 40
0.0254355103999997
100
AcDbArc
 50
334.614525332488
 51
336.004877890503
  0
ARC
  5
395
100
AcDbEntity
  8
SEMA2D
100
AcDbCircle
370
9
 62
7
  6
_SOLID
 10
3.9603247576
 20
4.8745481346
 30
0
 40
0.00181314190000026
100
AcDbArc
 50
270
 51
282.438726225776
  0
ARC
  5
396
100
AcDbEntity
  8
SEMA2D
100
AcDbCircle
370
9
 62
7
  6
_SOLID
 10
3.9516025649
 20
4.8745478412
 30
0
 40
0.00181285000000009
100
AcDbArc
 50
257.557558332152
 51
270
  0
ARC
  5
397
100
AcDbEntity
  8
SEMA2D
100
AcDbCircle
370
9
 62
7
  6
_SOLID
 10
3.9359004883
 20
4.8739728214
 30
0
 40
0.00158792780000017
100
AcDbArc
 50
90
 51
120.568437568441
  0
ARC
  5
398
100
AcDbEntity
  8
SEMA2D
100
AcDbCircle
370
9
 62
7
  6
_SOLID
 10
3.9686923242
 20
4.8243464042
 30
0
 40
0.0216831856999999
100
AcDbArc
 50
32.4455285629804
 51
47.1212584244338
  0
ARC
  5
399
100
AcDbEntity
  8
SEMA2D
100
AcDbCircle
370
9
 62
7
  6
_SOLID
 10
3.968693594
 20
4.8243475742
 30
0
 40
0.0216814758999997
100
AcDbArc
 50
33.1838799381021
 51
62.2340501386129
  0
ARC
  5
39A
100
AcDbEntity
  8
SEMA2D
100
AcDbCircle
370
9
 62
7
  6
_SOLID
 10
3.9694564052
 20
4.8244152956
 30
0
 40
0.0215752013000001
100
AcDbArc
 50
130.021846296186
 51
147.437509257352
  0
ARC
  5
39B
100
AcDbEntity
  8
SEMA2D
100
AcDbCircle
370
9
 62
7
  6
_SOLID
 10
3.9694509431
 20
4.8244208853
 30
0
 40
0.0215674034
100
AcDbArc
 50
130.059235021888
 51
146.415635099817
  0
ARC
  5
39C
100
AcDbEntity
  8
SEMA2D
100
AcDbCircle
370
9
 62
7
  6
_SOLID
 10
3.9693634529
 20
4.8245173403
 30
0
 40
0.0214372724
100
AcDbArc
 50
129.676960738782
 51
130.006986172816
  0
ARC
  5
39D
100
AcDbEntity
  8
SEMA2D
100
AcDbCircle
370
9
 62
7
  6
_SOLID
 10
3.9691955044
 20
4.8247519604
 30
0
 40
0.0211490324000001
100
AcDbArc
 50
117.372940037049
 51
129.46603243518
  0
ARC
  5
39E
100
AcDbEntity
  8
SEMA2D
100
AcDbCircle
370
9
 62
7
  6
_SOLID
 10
3.9698500216
 20
4.8834560542
 30
0
 40
0.0698614729
100
AcDbArc
 50
349.355987830514
 51
350.38972341601
  0
ARC
  5
39F
100
AcDbEntity
  8
SEMA2D
100
AcDbCircle
370
9
 62
7
  6
_SOLID
 10
3.9772090126
 20
5.0526114484
 30
0
 40
0.1892964576
100
AcDbArc
 50
253.645469026216
 51
270
  0
ARC
  5
3A0
100
AcDbEntity
  8
SEMA2D
100
AcDbCircle
370
9
 62
7
  6
_SOLID
 10
3.9771356969
 20
5.0512934073
 30
0
 40
0.1851878479
100
AcDbArc
 50
265.102890612978
 51
270
  0
ARC
  5
3A1
100
AcDbEntity
  8
SEMA2D
100
AcDbCircle
370
9
 62
7
  6
_SOLID
 10
3.977135964
 20
5.0512326097
 30
0
 40
0.1851273716
100
AcDbArc
 50
255.676272526133
 51
261.576463015407
  0
ARC
  5
3A2
100
AcDbEntity
  8
SEMA2D
100
AcDbCircle
370
9
 62
7
  6
_SOLID
 10
3.9777010747
 20
5.0278187098
 30
0
 40
0.1658673941
100
AcDbArc
 50
251.071391594487
 51
269.824365339827
  0
ARC
  5
3A3
100
AcDbEntity
  8
SEMA2D
100
AcDbCircle
370
9
 62
7
  6
_SOLID
 10
3.9998722433
 20
4.8846938537
 30
0
 40
0.0446233906000002
100
AcDbArc
 50
340.560840019772
 51
343.522327065748
  0
ARC
  5
3A4
100
AcDbEntity
  8
SEMA2D
100
AcDbCircle
370
9
 62
7
  6
_SOLID
 10
4.0128751023
 20
4.8247556337
 30
0
 40
0.0211476267999995
100
AcDbArc
 50
62.8125176309603
 51
64.3216216564654
  0
ARC
  5
3A5
100
AcDbEntity
  8
SEMA2D
100
AcDbCircle
370
9
 62
7
  6
_SOLID
 10
4.0129983142
 20
4.8248449651
 30
0
 40
0.0210480058
100
AcDbArc
 50
103.934897957006
 51
118.823859006042
  0
ARC
  5
3A6
100
AcDbEntity
  8
SEMA2D
100
AcDbCircle
370
9
 62
7
  6
_SOLID
 10
4.0129311413
 20
4.8248766146
 30
0
 40
0.02101431
100
AcDbArc
 50
64.3163643104201
 51
80.1898950405133
  0
ARC
  5
3A7
100
AcDbEntity
  8
SEMA2D
100
AcDbCircle
370
9
 62
7
  6
_SOLID
 10
4.0129544796
 20
4.8249615981
 30
0
 40
0.0209265186000001
100
AcDbArc
 50
83.1254126605839
 51
84.1039057700534
  0
ARC
  5
3A8
100
AcDbEntity
  8
SEMA2D
100
AcDbCircle
370
9
 62
7
  6
_SOLID
 10
4.0129547675
 20
4.8249644112
 30
0
 40
0.0209236908000001
100
AcDbArc
 50
84.1038986567093
 51
84.8944910684936
  0
ARC
  5
3A9
100
AcDbEntity
  8
SEMA2D
100
AcDbCircle
370
9
 62
7
  6
_SOLID
 10
4.012955403
 20
4.8249716168
 30
0
 40
0.0209164572000002
100
AcDbArc
 50
84.8944684097533
 51
85.8797075504243
  0
ARC
  5
3AA
100
AcDbEntity
  8
SEMA2D
100
AcDbCircle
370
9
 62
7
  6
_SOLID
 10
4.0129586327
 20
4.8250010968
 30
0
 40
0.0208868837999998
100
AcDbArc
 50
80.2060241033988
 51
103.932390190823
  0
ARC
  5
3AB
100
AcDbEntity
  8
SEMA2D
100
AcDbCircle
370
9
 62
7
  6
_SOLID
 10
3.9959722137
 20
4.8642167839
 30
0
 40
0.00182904929999972
100
AcDbArc
 50
150.151472300265
 51
153.383910075409
  0
ARC
  5
3AC
100
AcDbEntity
  8
SEMA2D
100
AcDbCircle
370
9
 62
7
  6
_SOLID
 10
4.0040809488
 20
4.8417206088
 30
0
 40
0.00181238120000016
100
AcDbArc
 50
77.05406614578
 51
90
  0
ARC
  5
3AD
100
AcDbEntity
  8
SEMA2D
100
AcDbCircle
370
9
 62
7
  6
_SOLID
 10
4.0461737191
 20
4.8739707517
 30
0
 40
0.00159024019999965
100
AcDbArc
 50
59.4371400473036
 51
90
  0
ARC
  5
3AE
100
AcDbEntity
  8
SEMA2D
100
AcDbCircle
370
9
 62
7
  6
_SOLID
 10
4.0048662375
 20
5.0526114483
 30
0
 40
0.1892964575
100
AcDbArc
 50
270
 51
286.354529923901
  0
ARC
  5
3AF
100
AcDbEntity
  8
SEMA2D
100
AcDbCircle
370
9
 62
7
  6
_SOLID
 10
4.0049294133
 20
5.0512741072
 30
0
 40
0.1851700215
100
AcDbArc
 50
281.53332089972
 51
284.243676813503
  0
ARC
  5
3B0
100
AcDbEntity
  8
SEMA2D
100
AcDbCircle
370
9
 62
7
  6
_SOLID
 10
4.0049448066
 20
5.0511862063
 30
0
 40
0.1850806485
100
AcDbArc
 50
270
 51
277.637734671873
  0
ARC
  5
3B1
100
AcDbEntity
  8
SEMA2D
100
AcDbCircle
370
9
 62
7
  6
_SOLID
 10
4.0043741755
 20
5.0278187095
 30
0
 40
0.165867393799999
100
AcDbArc
 50
270.175634648714
 51
288.928606376159
  0
ARC
  5
3B2
100
AcDbEntity
  8
SEMA2D
100
AcDbCircle
370
9
 62
7
  6
_SOLID
 10
4.0792450081
 20
4.8792102688
 30
0
 40
0.0478586878999998
100
AcDbArc
 50
191.978852444511
 51
192.47451730857
  0
ARC
  5
3B3
100
AcDbEntity
  8
SEMA2D
100
AcDbCircle
370
9
 62
7
  6
_SOLID
 10
4.0604736709
 20
4.8645797999
 30
0
 40
0.00674215799999978
100
AcDbArc
 50
90
 51
108.899613851488
  0
ARC
  5
3B4
100
AcDbEntity
  8
SEMA2D
100
AcDbCircle
370
9
 62
7
  6
_SOLID
 10
4.0550411477
 20
4.8758655343
 30
0
 40
0.00454354369999965
100
AcDbArc
 50
239.43669776073
 51
270
  0
ARC
  5
3B5
100
AcDbEntity
  8
SEMA2D
100
AcDbCircle
370
9
 62
7
  6
_SOLID
 10
3.9910376251
 20
6.4873922412
 30
0
 40
1.627547286
100
AcDbArc
 50
269.512598107865
 51
270.487401892135
  0
ARC
  5
3B6
100
AcDbEntity
  8
SEMA2D
100
AcDbCircle
370
9
 62
7
  6
_SOLID
 10
3.9910376251
 20
9.5037558657
 30
0
 40
4.6418244183
100
AcDbArc
 50
269.829105722075
 51
270.170894277925
  0
LINE
  5
3B7
100
AcDbEntity
  8
SEMA2D
100
AcDbLine
370
9
 62
7
  6
_SOLID
 10
4.0048837878
 20
4.8661047408
 30
0
 11
3.9962492399
 21
4.8661079798
 31
0
  0
LINE
  5
3B8
100
AcDbEntity
  8
SEMA2D
100
AcDbLine
370
9
 62
7
  6
_SOLID
 10
3.9821176006
 20
4.866107251
 30
0
 11
3.977191462
 21
4.8661050359
 31
0
  0
ARC
  5
3B9
100
AcDbEntity
  8
SEMA2D
100
AcDbCircle
370
9
 62
7
  6
_SOLID
 10
4.1039154447
 20
4.8483738365
 30
0
 40
0.00599819860000039
100
AcDbArc
 50
17.5277290322896
 51
87.2111318553649
  0
ARC
  5
3BA
100
AcDbEntity
  8
SEMA2D
100
AcDbCircle
370
9
 62
7
  6
_SOLID
 10
3.8780162882
 20
4.8488106265
 30
0
 40
0.0055566885999998
100
AcDbArc
 50
92.2724436541638
 51
158.651490736135
  0
LINE
  5
3BB
100
AcDbEntity
  8
SEMA2D
100
AcDbLine
370
9
 62
7
  6
_SOLID
 10
3.872840881
 20
4.8508334829
 30
0
 11
3.8728306947
 21
4.8508116112
 31
0
  0
LINE
  5
3BC
100
AcDbEntity
  8
SEMA2D
100
AcDbLine
370
9
 62
7
  6
_SOLID
 10
3.8662440466
 20
4.8697651821
 30
0
 11
3.867376656
 21
4.8711870687
 31
0
  0
ARC
  5
3BD
100
AcDbEntity
  8
SEMA2D
100
AcDbCircle
370
9
 62
7
  6
_SOLID
 10
3.8936455894
 20
4.8517713668
 30
0
 40
0.0025911716
100
AcDbArc
 50
90
 51
168.897119032707
  0
ARC
  5
3BE
100
AcDbEntity
  8
SEMA2D
100
AcDbCircle
370
9
 62
7
  6
_SOLID
 10
3.9480850935
 20
4.8364593283
 30
0
 40
0.00321674510000025
100
AcDbArc
 50
270
 51
352.284779380256
  0
ARC
  5
3BF
100
AcDbEntity
  8
SEMA2D
100
AcDbCircle
370
9
 62
7
  6
_SOLID
 10
3.9461961853
 20
4.8358922966
 30
0
 40
0.00265046219999965
100
AcDbArc
 50
189.405140795866
 51
270
  0
ARC
  5
3C0
100
AcDbEntity
  8
SEMA2D
100
AcDbCircle
370
9
 62
7
  6
_SOLID
 10
3.9902065559
 20
4.836379222
 30
0
 40
0.00315109689999993
100
AcDbArc
 50
190.829131572247
 51
263.339718335958
  0
ARC
  5
3C1
100
AcDbEntity
  8
SEMA2D
100
AcDbCircle
370
9
 62
7
  6
_SOLID
 10
3.991734095
 20
4.836616858
 30
0
 40
0.00338730939999987
100
AcDbArc
 50
275.535300909213
 51
348.21396602402
  0
LINE
  5
3C2
100
AcDbEntity
  8
SEMA2D
100
AcDbLine
370
9
 62
7
  6
_SOLID
 10
3.9871115742
 20
4.8357871916
 30
0
 11
3.9867264669
 21
4.8363717361
 31
0
  0
LINE
  5
3C3
100
AcDbEntity
  8
SEMA2D
100
AcDbLine
370
9
 62
7
  6
_SOLID
 10
3.9435813519
 20
4.8354591727
 30
0
 11
3.9418151764
 21
4.8420506296
 31
0
  0
ARC
  5
3C4
100
AcDbEntity
  8
SEMA2D
100
AcDbCircle
370
9
 62
7
  6
_SOLID
 10
4.0131956152
 20
4.8243475742
 30
0
 40
0.0216814758999999
100
AcDbArc
 50
117.765949861388
 51
146.816120061899
  0
ARC
  5
3C5
100
AcDbEntity
  8
SEMA2D
100
AcDbCircle
370
9
 62
7
  6
_SOLID
 10
3.9691029893
 20
4.8248449651
 30
0
 40
0.0210480058
100
AcDbArc
 50
61.1761409939582
 51
76.0651020429952
  0
ARC
  5
3C6
100
AcDbEntity
  8
SEMA2D
100
AcDbCircle
370
9
 62
7
  6
_SOLID
 10
3.9691701622
 20
4.8248766146
 30
0
 40
0.02101431
100
AcDbArc
 50
99.8101049594879
 51
115.68363568958
  0
ARC
  5
3C7
100
AcDbEntity
  8
SEMA2D
100
AcDbCircle
370
9
 62
7
  6
_SOLID
 10
3.9691426708
 20
4.8250010968
 30
0
 40
0.0208868838
100
AcDbArc
 50
76.0676098091772
 51
99.7939758966012
  0
ARC
  5
3C8
100
AcDbEntity
  8
SEMA2D
100
AcDbCircle
370
9
 62
7
  6
_SOLID
 10
4.0126181436
 20
4.8244152956
 30
0
 40
0.0215752013000001
100
AcDbArc
 50
32.5624907426486
 51
49.9781537038129
  0
ARC
  5
3C9
100
AcDbEntity
  8
SEMA2D
100
AcDbCircle
370
9
 62
7
  6
_SOLID
 10
4.0128790444
 20
4.8247519604
 30
0
 40
0.0211490324000003
100
AcDbArc
 50
50.5339675648186
 51
62.6270599629506
  0
ARC
  5
3CA
100
AcDbEntity
  8
SEMA2D
100
AcDbCircle
370
9
 62
7
  6
_SOLID
 10
4.034488516
 20
4.8370359926
 30
0
 40
0.00382213949999999
100
AcDbArc
 50
195.299236490943
 51
267.479495344484
  0
ARC
  5
3CB
100
AcDbEntity
  8
SEMA2D
100
AcDbCircle
370
9
 62
7
  6
_SOLID
 10
4.0355312352
 20
4.8363679414
 30
0
 40
0.00314468939999957
100
AcDbArc
 50
276.795460970023
 51
5.66883208923675
  0
LINE
  5
3CC
100
AcDbEntity
  8
SEMA2D
100
AcDbLine
370
9
 62
7
  6
_SOLID
 10
4.0343204301
 20
4.8332175508
 30
0
 11
4.0357723457
 21
4.8332175508
 31
0
  0
LINE
  5
3CD
100
AcDbEntity
  8
SEMA2D
100
AcDbLine
370
9
 62
7
  6
_DOT
 10
4.1607216251
 20
4.715552
 30
0
 11
4.1170228667
 21
4.715552
 31
0
  0
LINE
  5
3CE
100
AcDbEntity
  8
SEMA2D
100
AcDbLine
370
9
 62
7
  6
_DOT
 10
4.1607216251
 20
4.284552
 30
0
 11
4.1130744758
 21
4.284552
 31
0
  0
MTEXT
  5
3CF
100
AcDbEntity
  8
SEMATEXT
100
AcDbMText
370
9
 62
7
 10
3.7161421742
 20
4.441343813
 30
0
 40
0.010476
  1
{\fHelveticaNeueLT Com 55 Roman;Lattenweite = 300 -}
 50
90
 41
0
  7
STANDARD
 71
0
 73
1
 44
1
  0
LINE
  5
3D4
100
AcDbEntity
  8
SEMA2D
100
AcDbLine
370
9
 62
7
  6
_DOT
 10
3.7328296085
 20
4.714552
 30
0
 11
3.6568296085
 21
4.714552
 31
0
  0
LINE
  5
3D5
100
AcDbEntity
  8
SEMA2D
100
AcDbLine
370
9
 62
7
  6
_DOT
 10
3.69681
 20
4.764552
 30
0
 11
3.69681
 21
4.6972086944
 31
0
  0
LINE
  5
3D6
100
AcDbEntity
  8
SEMA2D
100
AcDbLine
370
9
 62
7
  6
_DOT
 10
4.0356564189
 20
4.7399308003
 30
0
 11
4.0356564189
 21
4.6782638411
 31
0
  0
LINE
  5
3D7
100
AcDbEntity
  8
SEMA2D
100
AcDbLine
370
9
 62
7
  6
_DOT
 10
3.9560136235
 20
4.7399308003
 30
0
 11
3.9560136235
 21
4.6781698406
 31
0
  0
ENDSEC
  0
SECTION
  2
OBJECTS
  0
DICTIONARY
  5
3E8
100
AcDbDictionary
  3
ACAD_GROUP
350
3E9
  3
ACAD_MATERIAL
350
3EA
  3
ACAD_WIPEOUT_VARS
350
3EB
  3
ACAD_MLINESTYLE
350
3EC
  3
ACAD_LAYOUT
350
3ED
  0
DICTIONARY
  5
3E9
330
3E8
100
AcDbDictionary
  0
DICTIONARY
  5
3EA
330
3E8
100
AcDbDictionary
  0
WIPEOUTVARIABLES
  5
3EB
330
3E8
100
AcDbWipeoutVariables
 70
1
  0
DICTIONARY
  5
3EC
330
3E8
100
AcDbDictionary
  3
STANDARD
350
3EE
  0
MLINESTYLE
  5
3EE
100
AcDbMlineStyle
  2
STANDARD
 70
0
  3

 62
256
 51
90
 52
90
 71
2
 49
0.5
 62
256
  6
ByLayer
 49
-0.5
 62
256
  6
ByLayer
  0
DICTIONARY
  5
3ED
100
AcDbDictionary
281
1
  3
Model
350
3D8
  0
LAYOUT
  5
3D8
102
{ACAD_REACTORS
330
3ED
102
}
330
3ED
100
AcDbPlotSettings
  1

  2
none_device
  4

  6

 40
0
 41
0
 42
0
 43
0
 44
0
 45
0
 46
0
 47
0
 48
0
 49
0
 70
1712
 72
1
 73
0
 74
5
 75
16
 76
0
 77
0
 78
100
140
0
141
0
142
1
143
1
147
1
148
0
149
0
100
AcDbLayout
  1
Model
 70
1
 71
1
 10
3.639348
 20
4.2266
 11
4.1691216251
 21
4.93941162332081
 12
0
 22
0
 32
0
 14
3.639348
 24
4.2266
 34
0
 15
4.1691216251
 25
4.93941162332081
 35
0
146
0
 13
0
 23
0
 33
0
 16
1
 26
0
 36
0
 17
0
 27
1
 37
0
 76
0
330
2A
  0
DICTIONARY
  5
3EF
100
AcDbDictionary
280
1
  3
XINFO
360
3F0
  0
XRECORD
  5
3F0
102
{ACAD_REACTORS
330
3EF
102
}
330
3EF
100
AcDbXrecord
280
0
310
0000000002001400
311
CCD8AD429D505CAB
  0
ENDSEC
  0
EOF
