999
Created by Soft Gold Ltd. www.cadsofttools.com
999

  0
SECTION
  2
HEADER
  9
$ACADVER
  1
AC1021
  9
$DWGCODEPAGE
  3
ANSI_1252
  9
$CLAYER
  8
0
  9
$CELTYPE
  6
BYLAYER
  9
$CELTSCALE
 40
1
  9
$CELWEIGHT
370
-1
  9
$DIMALT
 70
0
  9
$DIMALTF
 40
1
  9
$DIMPOST
  1

  9
$DIMAPOST
  1

  9
$DIMSCALE
 40
1
  9
$DIMASZ
 40
0.18
  9
$DIMCLRD
 70
0
  9
$DIMCLRE
 70
0
  9
$DIMCLRT
 70
0
  9
$DIMEXE
 40
0.18
  9
$DIMEXO
 40
0.0625
  9
$DIMGAP
 40
0.0625
  9
$DIMLFAC
 40
1
  9
$DIMDEC
 70
4
  9
$DIMTAD
 70
0
  9
$DIMCEN
 40
0.09
  9
$DIMTIH
 70
1
  9
$DIMTIX
 70
0
  9
$DIMTOH
 70
1
  9
$DIMSE1
 70
0
  9
$DIMSE2
 70
0
  9
$DIMSD1
 70
0
  9
$DIMSD2
 70
0
  9
$DIMLWD
 70
-1
  9
$DIMLWE
 70
-1
  9
$DIMSAH
 70
0
  9
$DIMBLK
  1

  9
$DIMBLK1
  1

  9
$DIMBLK2
  1

  9
$DIMLDRBLK
  1

  9
$DIMSTYLE
  2
STANDARD
  9
$DIMTP
 40
0
  9
$DIMTM
 40
0
  9
$DIMTXT
 40
0.18
  9
$DIMLUNIT
 70
2
  9
$DIMDSEP
 70
46
  9
$DIMTXSTY
  7
STANDARD
  9
$TEXTSIZE
 40
0.18
  9
$TEXTSTYLE
  7
STANDARD
  9
$HANDSEED
  5
00000000000003AE
  9
$FILLETRAD
 40
0.5
  9
$INSUNITS
 70
4
  9
$LIMMIN
 10
4.2328193879875
 20
4.15391262288091
  9
$LIMMAX
 10
4.8940037101125
 20
5.04478643107178
  9
$FILLMODE
 70
1
  9
$LTSCALE
 40
1
  9
$MEASUREMENT
 70
0
  9
$ATTMODE
 70
1
  9
$PDMODE
 70
0
  9
$PDSIZE
 40
0
  9
$TILEMODE
 70
1
  9
$UCSORG
 10
0
 20
0
 30
0
  9
$UCSXDIR
 10
1
 20
0
 30
0
  9
$UCSYDIR
 10
0
 20
1
 30
0
  9
$INSBASE
 10
0
 20
0
 30
0
  9
$XCLIPFRAME
290
1
  9
$DIMASSOC
280
2
  9
$TDCREATE
 40
2459012.59190726
  9
$TDINDWG
 40
2.08333333333333E-7
  9
$TDUPDATE
 40
2459012.59190747
  0
ENDSEC
  0
SECTION
  2
CLASSES
  0
CLASS
  1
IMAGE
  2
AcDbRasterImage
  3
ISM
 90
2175
 91
1
280
0
281
1
  0
CLASS
  1
IMAGEDEF
  2
AcDbRasterImageDef
  3
ISM
 90
0
 91
1
280
0
281
0
  0
CLASS
  1
WIPEOUT
  2
AcDbWipeout
  3
"WipeOut"
 90
2175
 91
1
280
0
281
1
  0
CLASS
  1
WIPEOUTVARIABLES
  2
AcDbWipeoutVariables
  3
"WipeOut"
 90
0
 91
1
280
0
281
0
  0
CLASS
  1
MPOLYGON
  2
AcDbMPolygon
  3
"AcMPolygonObj15"
 90
3071
 91
1
280
0
281
1
  0
ENDSEC
  0
SECTION
  2
TABLES
  0
TABLE
  2
APPID
  5
396
100
AcDbSymbolTable
  0
APPID
  5
397
100
AcDbSymbolTableRecord
100
AcDbRegAppTableRecord
  2
ACAD
 70
0
  0
APPID
  5
12
100
AcDbSymbolTableRecord
100
AcDbRegAppTableRecord
  2
CSTINVENTORY
 70
0
  0
APPID
  5
398
100
AcDbSymbolTableRecord
100
AcDbRegAppTableRecord
  2
PE_URL
 70
0
  0
ENDTAB
  0
TABLE
  2
BLOCK_RECORD
  5
399
100
AcDbSymbolTable
  0
BLOCK_RECORD
  5
2A
100
AcDbSymbolTableRecord
100
AcDbBlockTableRecord
  2
*MODEL_SPACE
  0
BLOCK_RECORD
  5
39A
100
AcDbSymbolTableRecord
100
AcDbBlockTableRecord
  2
*PAPER_SPACE
  0
BLOCK_RECORD
  5
10
100
AcDbSymbolTableRecord
100
AcDbBlockTableRecord
  2
_CLOSEDFILLED
  0
ENDTAB
  0
TABLE
  2
STYLE
  5
3
100
AcDbSymbolTable
  0
STYLE
  5
A
100
AcDbSymbolTableRecord
100
AcDbTextStyleTableRecord
  2
STANDARD
 70
0
 40
0
 41
1
 50
0
 71
0
 42
2.5
  3
txt
  4

1001
ACAD
1000
txt
1071
0
  0
ENDTAB
  0
TABLE
  2
LTYPE
  5
1
100
AcDbSymbolTable
  0
LTYPE
  5
9
100
AcDbSymbolTableRecord
100
AcDbLinetypeTableRecord
  2
CONTINUOUS
 70
0
  3

 72
65
 73
0
 40
0
  0
LTYPE
  5
7
100
AcDbSymbolTableRecord
100
AcDbLinetypeTableRecord
  2
BYLAYER
 70
0
  3

 72
65
 73
0
 40
0
  0
LTYPE
  5
8
100
AcDbSymbolTableRecord
100
AcDbLinetypeTableRecord
  2
BYBLOCK
 70
0
  3

 72
65
 73
0
 40
0
  0
LTYPE
  5
13
100
AcDbSymbolTableRecord
100
AcDbLinetypeTableRecord
  2
_SOLID
 70
0
  3
_.
 72
65
 73
2
 40
5
 49
5
 74
0
 49
0
 74
0
  0
LTYPE
  5
14
100
AcDbSymbolTableRecord
100
AcDbLinetypeTableRecord
  2
_DASH
 70
0
  3
_ 
 72
65
 73
2
 40
7
 49
5
 74
0
 49
-2
 74
0
  0
LTYPE
  5
15
100
AcDbSymbolTableRecord
100
AcDbLinetypeTableRecord
  2
_DOT
 70
0
  3
_ 
 72
65
 73
2
 40
4
 49
2
 74
0
 49
-2
 74
0
  0
LTYPE
  5
16
100
AcDbSymbolTableRecord
100
AcDbLinetypeTableRecord
  2
_DASHDOT
 70
0
  3
_ _ 
 72
65
 73
4
 40
11
 49
5
 74
0
 49
-2
 74
0
 49
2
 74
0
 49
-2
 74
0
  0
LTYPE
  5
17
100
AcDbSymbolTableRecord
100
AcDbLinetypeTableRecord
  2
_DASHDOTDOT
 70
0
  3
_ _ _ 
 72
65
 73
6
 40
15
 49
5
 74
0
 49
-2
 74
0
 49
2
 74
0
 49
-2
 74
0
 49
2
 74
0
 49
-2
 74
0
  0
LTYPE
  5
18
100
AcDbSymbolTableRecord
100
AcDbLinetypeTableRecord
  2
ISO128-20-02
 70
0
  3
_ 
 72
65
 73
2
 40
5
 49
4
 74
0
 49
-1
 74
0
  0
LTYPE
  5
19
100
AcDbSymbolTableRecord
100
AcDbLinetypeTableRecord
  2
ISO128-20-03
 70
0
  3
_ 
 72
65
 73
2
 40
10
 49
4
 74
0
 49
-6
 74
0
  0
LTYPE
  5
1A
100
AcDbSymbolTableRecord
100
AcDbLinetypeTableRecord
  2
ISO128-20-04
 70
0
  3
_ . 
 72
65
 73
4
 40
10
 49
8
 74
0
 49
-1
 74
0
 49
0
 74
0
 49
-1
 74
0
  0
LTYPE
  5
1B
100
AcDbSymbolTableRecord
100
AcDbLinetypeTableRecord
  2
ISO128-20-05
 70
0
  3
_ . . 
 72
65
 73
6
 40
11
 49
8
 74
0
 49
-1
 74
0
 49
0
 74
0
 49
-1
 74
0
 49
0
 74
0
 49
-1
 74
0
  0
LTYPE
  5
1C
100
AcDbSymbolTableRecord
100
AcDbLinetypeTableRecord
  2
ISO128-20-06
 70
0
  3
_ . . . 
 72
65
 73
8
 40
12
 49
8
 74
0
 49
-1
 74
0
 49
0
 74
0
 49
-1
 74
0
 49
0
 74
0
 49
-1
 74
0
 49
0
 74
0
 49
-1
 74
0
  0
LTYPE
  5
1D
100
AcDbSymbolTableRecord
100
AcDbLinetypeTableRecord
  2
ISO128-20-07
 70
0
  3
. 
 72
65
 73
2
 40
1
 49
0
 74
0
 49
-1
 74
0
  0
LTYPE
  5
1E
100
AcDbSymbolTableRecord
100
AcDbLinetypeTableRecord
  2
ISO128-20-08
 70
0
  3
_ _ 
 72
65
 73
4
 40
12
 49
8
 74
0
 49
-1
 74
0
 49
2
 74
0
 49
-1
 74
0
  0
LTYPE
  5
1F
100
AcDbSymbolTableRecord
100
AcDbLinetypeTableRecord
  2
ISO128-20-09
 70
0
  3
_ _ _ 
 72
65
 73
6
 40
15
 49
8
 74
0
 49
-1
 74
0
 49
2
 74
0
 49
-1
 74
0
 49
2
 74
0
 49
-1
 74
0
  0
LTYPE
  5
20
100
AcDbSymbolTableRecord
100
AcDbLinetypeTableRecord
  2
ISO128-20-10
 70
0
  3
_ . 
 72
65
 73
4
 40
10
 49
8
 74
0
 49
-1
 74
0
 49
0
 74
0
 49
-1
 74
0
  0
LTYPE
  5
21
100
AcDbSymbolTableRecord
100
AcDbLinetypeTableRecord
  2
ISO128-20-11
 70
0
  3
_ _ . 
 72
65
 73
6
 40
11
 49
4
 74
0
 49
-1
 74
0
 49
4
 74
0
 49
-1
 74
0
 49
0
 74
0
 49
-1
 74
0
  0
LTYPE
  5
22
100
AcDbSymbolTableRecord
100
AcDbLinetypeTableRecord
  2
ISO128-20-12
 70
0
  3
_ . . 
 72
65
 73
6
 40
7
 49
4
 74
0
 49
-1
 74
0
 49
0
 74
0
 49
-1
 74
0
 49
0
 74
0
 49
-1
 74
0
  0
LTYPE
  5
23
100
AcDbSymbolTableRecord
100
AcDbLinetypeTableRecord
  2
ISO128-20-13
 70
0
  3
_ _ . . 
 72
65
 73
8
 40
12
 49
4
 74
0
 49
-1
 74
0
 49
4
 74
0
 49
-1
 74
0
 49
0
 74
0
 49
-1
 74
0
 49
0
 74
0
 49
-1
 74
0
  0
LTYPE
  5
24
100
AcDbSymbolTableRecord
100
AcDbLinetypeTableRecord
  2
ISO128-20-14
 70
0
  3
_ . . . 
 72
65
 73
8
 40
8
 49
4
 74
0
 49
-1
 74
0
 49
0
 74
0
 49
-1
 74
0
 49
0
 74
0
 49
-1
 74
0
 49
0
 74
0
 49
-1
 74
0
  0
LTYPE
  5
25
100
AcDbSymbolTableRecord
100
AcDbLinetypeTableRecord
  2
ISO128-20-15
 70
0
  3
_ _ . . . 
 72
65
 73
10
 40
13
 49
4
 74
0
 49
-1
 74
0
 49
4
 74
0
 49
-1
 74
0
 49
0
 74
0
 49
-1
 74
0
 49
0
 74
0
 49
-1
 74
0
 49
0
 74
0
 49
-1
 74
0
  0
LTYPE
  5
26
100
AcDbSymbolTableRecord
100
AcDbLinetypeTableRecord
  2
kurzgestrichelt
 70
0
  3
_ 
 72
65
 73
2
 40
3
 49
2
 74
0
 49
-1
 74
0
  0
ENDTAB
  0
TABLE
  2
LAYER
  5
2
100
AcDbSymbolTable
  0
LAYER
  5
E
100
AcDbSymbolTableRecord
100
AcDbLayerTableRecord
  2
0
 70
0
 62
7
  6
CONTINUOUS
290
1
370
-3
390
0
  0
LAYER
  5
27
100
AcDbSymbolTableRecord
100
AcDbLayerTableRecord
  2
SEMA2D
 70
0
 62
7
290
1
370
-3
390
0
  0
LAYER
  5
2B
100
AcDbSymbolTableRecord
100
AcDbLayerTableRecord
  2
SEMATEXT
 70
0
 62
7
290
1
370
-3
390
0
  0
ENDTAB
  0
TABLE
  2
VPORT
  5
39B
100
AcDbSymbolTable
  0
VPORT
  5
39D
100
AcDbSymbolTableRecord
100
AcDbViewportTableRecord
  2
*ACTIVE
 70
0
 10
0
 20
0
 11
1
 21
1
 12
4.56341154905
 22
4.59934952697635
 32
0
 13
0
 23
0
 14
1
 24
1
 15
1
 25
1
 16
0
 26
0
 36
1
 17
0
 27
0
 37
0
 40
0.712699046552693
 41
0.742175060088132
 42
50
 43
0
 44
0
 50
0
 51
0
 71
0
 72
100
 73
1
 74
1
 75
0
 76
0
 77
0
 78
0
  0
ENDTAB
  0
TABLE
  2
VIEW
  5
39E
100
AcDbSymbolTable
  0
ENDTAB
  0
TABLE
  2
UCS
  5
39F
100
AcDbSymbolTable
  0
ENDTAB
  0
TABLE
  2
DIMSTYLE
  5
4
100
AcDbSymbolTable
 70
1
100
AcDbDimStyleTable
 71
0
  0
DIMSTYLE
105
B
100
AcDbSymbolTableRecord
100
AcDbDimStyleTableRecord
  2
STANDARD
 70
0
  3

 40
1
 41
0.18
 42
0.0625
 44
0.18
 47
0
 48
0
 73
1
 74
1
 75
0
 76
0
 77
0
140
0.18
141
0.09
144
1
147
0.0625
173
0
174
0
176
0
177
0
178
0
277
2
278
46
281
0
282
0
271
4
340
A
371
-1
372
-1
  0
ENDTAB
  0
ENDSEC
  0
SECTION
  2
BLOCKS
  0
BLOCK
  5
3A0
100
AcDbEntity
  8
0
100
AcDbBlockBegin
  2
*MODEL_SPACE
 70
0
 10
0
 20
0
  0
ENDBLK
  5
3A1
100
AcDbEntity
  8
0
100
AcDbBlockEnd
  0
BLOCK
  5
3A2
100
AcDbEntity
  8
0
100
AcDbBlockBegin
  2
*PAPER_SPACE
 70
0
 10
0
 20
0
  0
ENDBLK
  5
3A3
100
AcDbEntity
  8
0
100
AcDbBlockEnd
  0
BLOCK
  5
F
100
AcDbEntity
  8
0
100
AcDbBlockBegin
  2
_CLOSEDFILLED
 70
0
 10
0
 20
0
 30
0
  3
_CLOSEDFILLED
  1

  0
SOLID
  5
C
100
AcDbEntity
  8
0
100
AcDbTrace
370
-2
 62
0
 10
-1
 20
0.166666666666667
 30
0
 11
0
 21
0
 31
0
 12
-1
 22
0.166666666666667
 32
0
 13
-1
 23
-0.166666666666667
 33
0
  0
LINE
  5
D
100
AcDbEntity
  8
0
100
AcDbLine
370
-2
 62
0
 10
-1
 20
0
 30
0
 11
-2
 21
0
 31
0
  0
ENDBLK
  5
3A4
100
AcDbEntity
  8
0
100
AcDbBlockEnd
  0
ENDSEC
  0
SECTION
  2
ENTITIES
  0
LINE
  5
28
100
AcDbEntity
  8
SEMA2D
100
AcDbLine
370
9
 62
7
  6
_SOLID
 10
4.7705854255
 20
4.9396628214
 30
0
 11
4.559619956
 21
4.9396628214
 31
0
  0
MTEXT
  5
2C
100
AcDbEntity
  8
SEMATEXT
100
AcDbMText
370
9
 62
7
 10
4.62136320754024
 20
4.95569905068781
 30
0
 40
0.010476
  1
{\fHelveticaNeueLT Com 55 Roman;211}
 50
0
 41
0
  7
STANDARD
 71
0
 73
1
 44
1
  0
LINE
  5
31
100
AcDbEntity
  8
SEMA2D
100
AcDbLine
370
9
 62
7
  6
_SOLID
 10
4.7705854255
 20
4.9396628214
 30
0
 11
4.7705854255
 21
4.9329428214
 31
0
  0
LINE
  5
32
100
AcDbEntity
  8
SEMA2D
100
AcDbLine
370
9
 62
7
  6
_SOLID
 10
4.7705854255
 20
4.9396628214
 30
0
 11
4.7705854255
 21
4.9463828214
 31
0
  0
LINE
  5
33
100
AcDbEntity
  8
SEMA2D
100
AcDbLine
370
9
 62
7
  6
_SOLID
 10
4.559619956
 20
4.9396628214
 30
0
 11
4.559619956
 21
4.9329428214
 31
0
  0
LINE
  5
34
100
AcDbEntity
  8
SEMA2D
100
AcDbLine
370
9
 62
7
  6
_SOLID
 10
4.559619956
 20
4.9396628214
 30
0
 11
4.559619956
 21
4.9463828214
 31
0
  0
LINE
  5
35
100
AcDbEntity
  8
SEMA2D
100
AcDbLine
370
9
 62
7
  6
_SOLID
 10
4.7704815346
 20
4.777426514
 30
0
 11
4.516576581
 21
4.777426514
 31
0
  0
MTEXT
  5
36
100
AcDbEntity
  8
SEMATEXT
100
AcDbMText
370
9
 62
7
 10
4.63239361834007
 20
4.79346274328781
 30
0
 40
0.010476
  1
{\fHelveticaNeueLT Com 55 Roman;254}
 50
0
 41
0
  7
STANDARD
 71
0
 73
1
 44
1
  0
LINE
  5
3B
100
AcDbEntity
  8
SEMA2D
100
AcDbLine
370
9
 62
7
  6
_SOLID
 10
4.7704815346
 20
4.777426514
 30
0
 11
4.7704815346
 21
4.770706514
 31
0
  0
LINE
  5
3C
100
AcDbEntity
  8
SEMA2D
100
AcDbLine
370
9
 62
7
  6
_SOLID
 10
4.7704815346
 20
4.777426514
 30
0
 11
4.7704815346
 21
4.784146514
 31
0
  0
LINE
  5
3D
100
AcDbEntity
  8
SEMA2D
100
AcDbLine
370
9
 62
7
  6
_SOLID
 10
4.516576581
 20
4.777426514
 30
0
 11
4.516576581
 21
4.770706514
 31
0
  0
LINE
  5
3E
100
AcDbEntity
  8
SEMA2D
100
AcDbLine
370
9
 62
7
  6
_SOLID
 10
4.516576581
 20
4.777426514
 30
0
 11
4.516576581
 21
4.784146514
 31
0
  0
LINE
  5
3F
100
AcDbEntity
  8
SEMA2D
100
AcDbLine
370
9
 62
7
  6
_SOLID
 10
4.3409969959
 20
4.777426514
 30
0
 11
4.3566879968
 21
4.777426514
 31
0
  0
MTEXT
  5
40
100
AcDbEntity
  8
SEMATEXT
100
AcDbMText
370
9
 62
7
 10
4.34164436547021
 20
4.79346274328049
 30
0
 40
0.010476
  1
{\fHelveticaNeueLT Com 55 Roman;16}
 50
0
 41
0
  7
STANDARD
 71
0
 73
1
 44
1
  0
LINE
  5
45
100
AcDbEntity
  8
SEMA2D
100
AcDbLine
370
9
 62
7
  6
_SOLID
 10
4.3409969959
 20
4.777426514
 30
0
 11
4.3409969959
 21
4.784146514
 31
0
  0
LINE
  5
46
100
AcDbEntity
  8
SEMA2D
100
AcDbLine
370
9
 62
7
  6
_SOLID
 10
4.3409969959
 20
4.777426514
 30
0
 11
4.3409969959
 21
4.770706514
 31
0
  0
LINE
  5
47
100
AcDbEntity
  8
SEMA2D
100
AcDbLine
370
9
 62
7
  6
_SOLID
 10
4.3566879968
 20
4.777426514
 30
0
 11
4.3566879968
 21
4.784146514
 31
0
  0
LINE
  5
48
100
AcDbEntity
  8
SEMA2D
100
AcDbLine
370
9
 62
7
  6
_SOLID
 10
4.3566879968
 20
4.777426514
 30
0
 11
4.3566879968
 21
4.770706514
 31
0
  0
LINE
  5
49
100
AcDbEntity
  8
SEMA2D
100
AcDbLine
370
9
 62
7
  6
_SOLID
 10
4.3409969959
 20
4.777426514
 30
0
 11
4.305
 21
4.777426514
 31
0
  0
MTEXT
  5
4A
100
AcDbEntity
  8
SEMATEXT
100
AcDbMText
370
9
 62
7
 10
4.31580036707021
 20
4.79346274328781
 30
0
 40
0.010476
  1
{\fHelveticaNeueLT Com 55 Roman;36}
 50
0
 41
0
  7
STANDARD
 71
0
 73
1
 44
1
  0
LINE
  5
4F
100
AcDbEntity
  8
SEMA2D
100
AcDbLine
370
9
 62
7
  6
_SOLID
 10
4.3409969959
 20
4.777426514
 30
0
 11
4.3409969959
 21
4.770706514
 31
0
  0
LINE
  5
50
100
AcDbEntity
  8
SEMA2D
100
AcDbLine
370
9
 62
7
  6
_SOLID
 10
4.3409969959
 20
4.777426514
 30
0
 11
4.3409969959
 21
4.784146514
 31
0
  0
LINE
  5
51
100
AcDbEntity
  8
SEMA2D
100
AcDbLine
370
9
 62
7
  6
_SOLID
 10
4.305
 20
4.777426514
 30
0
 11
4.305
 21
4.770706514
 31
0
  0
LINE
  5
52
100
AcDbEntity
  8
SEMA2D
100
AcDbLine
370
9
 62
7
  6
_SOLID
 10
4.305
 20
4.777426514
 30
0
 11
4.305
 21
4.784146514
 31
0
  0
LINE
  5
53
100
AcDbEntity
  8
SEMA2D
100
AcDbLine
370
9
 62
7
  6
_SOLID
 10
4.6283980685
 20
4.8614333941
 30
0
 11
4.6287054646
 21
4.8614315463
 31
0
  0
LINE
  5
54
100
AcDbEntity
  8
SEMA2D
100
AcDbLine
370
9
 62
7
  6
_SOLID
 10
4.6287054646
 20
4.8614315463
 30
0
 11
4.6290128606
 21
4.8614301158
 31
0
  0
LINE
  5
55
100
AcDbEntity
  8
SEMA2D
100
AcDbLine
370
9
 62
7
  6
_SOLID
 10
4.6290128606
 20
4.8614301158
 30
0
 11
4.6293202716
 21
4.8614291621
 31
0
  0
LINE
  5
56
100
AcDbEntity
  8
SEMA2D
100
AcDbLine
370
9
 62
7
  6
_SOLID
 10
4.6293202716
 20
4.8614291621
 30
0
 11
4.6296276677
 21
4.8614286257
 31
0
  0
LINE
  5
57
100
AcDbEntity
  8
SEMA2D
100
AcDbLine
370
9
 62
7
  6
_SOLID
 10
4.6574109572
 20
4.8784540964
 30
0
 11
4.6296422559
 21
4.8784681035
 31
0
  0
LINE
  5
58
100
AcDbEntity
  8
SEMA2D
100
AcDbLine
370
9
 62
7
  6
_SOLID
 10
4.7701239067
 20
4.8764708115
 30
0
 11
4.7686690169
 21
4.8833156301
 31
0
  0
LINE
  5
59
100
AcDbEntity
  8
SEMA2D
100
AcDbLine
370
9
 62
7
  6
_SOLID
 10
4.7705854255
 20
4.8764708115
 30
0
 11
4.7705854255
 21
4.8727787806
 31
0
  0
LINE
  5
5A
100
AcDbEntity
  8
SEMA2D
100
AcDbLine
370
9
 62
7
  6
_SOLID
 10
4.7593548375
 20
4.8694123698
 30
0
 11
4.7679996568
 21
4.8843856526
 31
0
  0
LINE
  5
5B
100
AcDbEntity
  8
SEMA2D
100
AcDbLine
370
9
 62
7
  6
_SOLID
 10
4.7541043538
 20
4.869548328
 30
0
 11
4.7628971118
 21
4.8847777916
 31
0
  0
LINE
  5
5C
100
AcDbEntity
  8
SEMA2D
100
AcDbLine
370
9
 62
7
  6
_SOLID
 10
4.7463554519
 20
4.8661277367
 30
0
 11
4.7460310239
 21
4.8649170471
 31
0
  0
LINE
  5
5D
100
AcDbEntity
  8
SEMA2D
100
AcDbLine
370
9
 62
7
  6
_SOLID
 10
4.7627486664
 20
4.8660606814
 30
0
 11
4.7697566229
 21
4.8781988097
 31
0
  0
LINE
  5
5E
100
AcDbEntity
  8
SEMA2D
100
AcDbLine
370
9
 62
7
  6
_SOLID
 10
4.7506760734
 20
4.8681637717
 30
0
 11
4.7506760734
 21
4.8695445729
 31
0
  0
LINE
  5
5F
100
AcDbEntity
  8
SEMA2D
100
AcDbLine
370
9
 62
7
  6
_SOLID
 10
4.742067315
 20
4.8649170471
 30
0
 11
4.7407536286
 21
4.8698197676
 31
0
  0
LINE
  5
60
100
AcDbEntity
  8
SEMA2D
100
AcDbLine
370
9
 62
7
  6
_SOLID
 10
4.7390518564
 20
4.8690868093
 30
0
 11
4.7390518564
 21
4.8681637717
 31
0
  0
LINE
  5
61
100
AcDbEntity
  8
SEMA2D
100
AcDbLine
370
9
 62
7
  6
_SOLID
 10
4.7263641137
 20
4.8713942839
 30
0
 11
4.7263641137
 21
4.8704713059
 31
0
  0
LINE
  5
62
100
AcDbEntity
  8
SEMA2D
100
AcDbLine
370
9
 62
7
  6
_SOLID
 10
4.718080588
 20
4.8853184653
 30
0
 11
4.7136239487
 21
4.8897751046
 31
0
  0
LINE
  5
63
100
AcDbEntity
  8
SEMA2D
100
AcDbLine
370
9
 62
7
  6
_SOLID
 10
4.739501186
 20
4.871944852
 30
0
 11
4.7469102818
 21
4.8847777916
 31
0
  0
LINE
  5
64
100
AcDbEntity
  8
SEMA2D
100
AcDbLine
370
9
 62
7
  6
_SOLID
 10
4.7416569072
 20
4.8664486481
 30
0
 11
4.752239235
 21
4.8847777916
 31
0
  0
LINE
  5
65
100
AcDbEntity
  8
SEMA2D
100
AcDbLine
370
9
 62
7
  6
_SOLID
 10
4.7366551238
 20
4.8713942839
 30
0
 11
4.7366551238
 21
4.8704713059
 31
0
  0
LINE
  5
66
100
AcDbEntity
  8
SEMA2D
100
AcDbLine
370
9
 62
7
  6
_SOLID
 10
4.7483709234
 20
4.8688476754
 30
0
 11
4.7575681883
 21
4.8847777916
 31
0
  0
LINE
  5
67
100
AcDbEntity
  8
SEMA2D
100
AcDbLine
370
9
 62
7
  6
_SOLID
 10
4.7632429379
 20
4.8647027088
 30
0
 11
4.7625844854
 21
4.8665117098
 31
0
  0
LINE
  5
68
100
AcDbEntity
  8
SEMA2D
100
AcDbLine
370
9
 62
7
  6
_SOLID
 10
4.7670943516
 20
4.8649170471
 30
0
 11
4.7692009288
 21
4.8727787806
 31
0
  0
LINE
  5
69
100
AcDbEntity
  8
SEMA2D
100
AcDbLine
370
9
 62
7
  6
_SOLID
 10
4.7581107098
 20
4.869548328
 30
0
 11
4.7581107098
 21
4.8681637717
 31
0
  0
LINE
  5
6A
100
AcDbEntity
  8
SEMA2D
100
AcDbLine
370
9
 62
7
  6
_SOLID
 10
4.5200218785
 20
4.8499954415
 30
0
 11
4.5177764076
 21
4.8561648203
 31
0
  0
LINE
  5
6B
100
AcDbEntity
  8
SEMA2D
100
AcDbLine
370
9
 62
7
  6
_SOLID
 10
4.5185045081
 20
4.8676245881
 30
0
 11
4.5168534148
 21
4.8598567916
 31
0
  0
LINE
  5
6C
100
AcDbEntity
  8
SEMA2D
100
AcDbLine
370
9
 62
7
  6
_SOLID
 10
4.5163919109
 20
4.8561648203
 30
0
 11
4.5163919109
 21
4.8598567916
 31
0
  0
LINE
  5
6D
100
AcDbEntity
  8
SEMA2D
100
AcDbLine
370
9
 62
7
  6
_SOLID
 10
4.5262114781
 20
4.863471098
 30
0
 11
4.5262114781
 21
4.8649333192
 31
0
  0
LINE
  5
6E
100
AcDbEntity
  8
SEMA2D
100
AcDbLine
370
9
 62
7
  6
_SOLID
 10
4.5264158326
 20
4.8622419907
 30
0
 11
4.5264158326
 21
4.8607798291
 31
0
  0
LINE
  5
6F
100
AcDbEntity
  8
SEMA2D
100
AcDbLine
370
9
 62
7
  6
_SOLID
 10
4.5235714543
 20
4.8675441814
 30
0
 11
4.5244415331
 21
4.8623223973
 31
0
  0
LINE
  5
70
100
AcDbEntity
  8
SEMA2D
100
AcDbLine
370
9
 62
7
  6
_SOLID
 10
4.517232843
 20
4.8561648203
 30
0
 11
4.5236232507
 21
4.8672332836
 31
0
  0
LINE
  5
71
100
AcDbEntity
  8
SEMA2D
100
AcDbLine
370
9
 62
7
  6
_SOLID
 10
4.5382274169
 20
4.8622419907
 30
0
 11
4.5396253395
 21
4.8671270085
 31
0
  0
LINE
  5
72
100
AcDbEntity
  8
SEMA2D
100
AcDbLine
370
9
 62
7
  6
_SOLID
 10
4.5434796142
 20
4.8888536168
 30
0
 11
4.5434796142
 21
4.8903157784
 31
0
  0
LINE
  5
73
100
AcDbEntity
  8
SEMA2D
100
AcDbLine
370
9
 62
7
  6
_SOLID
 10
4.5236275721
 20
4.8487808181
 30
0
 11
4.5305552113
 21
4.8607798291
 31
0
  0
LINE
  5
74
100
AcDbEntity
  8
SEMA2D
100
AcDbLine
370
9
 62
7
  6
_SOLID
 10
4.5196267295
 20
4.8510811401
 30
0
 11
4.5253617692
 21
4.8610144926
 31
0
  0
LINE
  5
75
100
AcDbEntity
  8
SEMA2D
100
AcDbLine
370
9
 62
7
  6
_SOLID
 10
4.5398489612
 20
4.8621185494
 30
0
 11
4.5409303087
 21
4.8659020735
 31
0
  0
LINE
  5
76
100
AcDbEntity
  8
SEMA2D
100
AcDbLine
370
9
 62
7
  6
_SOLID
 10
4.5434796142
 20
4.8888536168
 30
0
 11
4.5398109186
 21
4.8680474235
 31
0
  0
LINE
  5
77
100
AcDbEntity
  8
SEMA2D
100
AcDbLine
370
9
 62
7
  6
_SOLID
 10
4.5262114781
 20
4.863471098
 30
0
 11
4.5264158326
 21
4.8622419907
 31
0
  0
LINE
  5
78
100
AcDbEntity
  8
SEMA2D
100
AcDbLine
370
9
 62
7
  6
_SOLID
 10
4.5416616577
 20
4.8887903763
 30
0
 11
4.537992962
 21
4.8679841829
 31
0
  0
LINE
  5
79
100
AcDbEntity
  8
SEMA2D
100
AcDbLine
370
9
 62
7
  6
_SOLID
 10
4.5382274169
 20
4.8622419907
 30
0
 11
4.5382274169
 21
4.8607877565
 31
0
  0
LINE
  5
7A
100
AcDbEntity
  8
SEMA2D
100
AcDbLine
370
9
 62
7
  6
_SOLID
 10
4.5343570489
 20
4.863471098
 30
0
 11
4.5343570489
 21
4.8649333192
 31
0
  0
LINE
  5
7B
100
AcDbEntity
  8
SEMA2D
100
AcDbLine
370
9
 62
7
  6
_SOLID
 10
4.7362958866
 20
4.8732402993
 30
0
 11
4.7266235429
 21
4.8732402993
 31
0
  0
LINE
  5
7C
100
AcDbEntity
  8
SEMA2D
100
AcDbLine
370
9
 62
7
  6
_SOLID
 10
4.7692009288
 20
4.8727787806
 30
0
 11
4.7705854255
 21
4.8727787806
 31
0
  0
LINE
  5
7D
100
AcDbEntity
  8
SEMA2D
100
AcDbLine
370
9
 62
7
  6
_SOLID
 10
4.5438862222
 20
4.8671267701
 30
0
 11
4.5465414601
 21
4.8671265913
 31
0
  0
LINE
  5
7E
100
AcDbEntity
  8
SEMA2D
100
AcDbLine
370
9
 62
7
  6
_SOLID
 10
4.5396253395
 20
4.8671270085
 30
0
 11
4.5420674461
 21
4.8671268297
 31
0
  0
LINE
  5
7F
100
AcDbEntity
  8
SEMA2D
100
AcDbLine
370
9
 62
7
  6
_SOLID
 10
4.5636690485
 20
4.8716628624
 30
0
 11
4.5616199452
 21
4.8716628624
 31
0
  0
LINE
  5
80
100
AcDbEntity
  8
SEMA2D
100
AcDbLine
370
9
 62
7
  6
_SOLID
 10
4.7239660698
 20
4.8690868093
 30
0
 11
4.7390518564
 21
4.8690868093
 31
0
  0
LINE
  5
81
100
AcDbEntity
  8
SEMA2D
100
AcDbLine
370
9
 62
7
  6
_SOLID
 10
4.5217505473
 20
4.8690868093
 30
0
 11
4.5203101712
 21
4.8690868093
 31
0
  0
LINE
  5
82
100
AcDbEntity
  8
SEMA2D
100
AcDbLine
370
9
 62
7
  6
_SOLID
 10
4.7506760734
 20
4.8688560797
 30
0
 11
4.7581107098
 21
4.8688560797
 31
0
  0
LINE
  5
83
100
AcDbEntity
  8
SEMA2D
100
AcDbLine
370
9
 62
7
  6
_SOLID
 10
4.7582478303
 20
4.869548328
 30
0
 11
4.7508131939
 21
4.869548328
 31
0
  0
LINE
  5
84
100
AcDbEntity
  8
SEMA2D
100
AcDbLine
370
9
 62
7
  6
_SOLID
 10
4.7367672104
 20
4.8713942839
 30
0
 11
4.7263641137
 21
4.8713942839
 31
0
  0
LINE
  5
85
100
AcDbEntity
  8
SEMA2D
100
AcDbLine
370
9
 62
7
  6
_SOLID
 10
4.7366551238
 20
4.8704713059
 30
0
 11
4.7263641137
 21
4.8704713059
 31
0
  0
LINE
  5
86
100
AcDbEntity
  8
SEMA2D
100
AcDbLine
370
9
 62
7
  6
_SOLID
 10
4.5627516735
 20
4.870079465
 30
0
 11
4.5616199452
 21
4.870079465
 31
0
  0
LINE
  5
87
100
AcDbEntity
  8
SEMA2D
100
AcDbLine
370
9
 62
7
  6
_SOLID
 10
4.7705854255
 20
4.8764708115
 30
0
 11
4.7701239067
 21
4.8764708115
 31
0
  0
LINE
  5
88
100
AcDbEntity
  8
SEMA2D
100
AcDbLine
370
9
 62
7
  6
_SOLID
 10
4.6769806522
 20
4.8651861025
 30
0
 11
4.6833373684
 21
4.8761962725
 31
0
  0
LINE
  5
89
100
AcDbEntity
  8
SEMA2D
100
AcDbLine
370
9
 62
7
  6
_SOLID
 10
4.6573332328
 20
4.8769322706
 30
0
 11
4.6296432245
 21
4.8769322706
 31
0
  0
LINE
  5
8A
100
AcDbEntity
  8
SEMA2D
100
AcDbLine
370
9
 62
7
  6
_SOLID
 10
4.6713381785
 20
4.8646430446
 30
0
 11
4.6774202067
 21
4.8751774503
 31
0
  0
LINE
  5
8B
100
AcDbEntity
  8
SEMA2D
100
AcDbLine
370
9
 62
7
  6
_SOLID
 10
4.5627516287
 20
4.8686869217
 30
0
 11
4.5616199303
 21
4.8686869217
 31
0
  0
LINE
  5
8C
100
AcDbEntity
  8
SEMA2D
100
AcDbLine
370
9
 62
7
  6
_SOLID
 10
4.7442479211
 20
4.8635488225
 30
0
 11
4.7438503879
 21
4.8635488225
 31
0
  0
LINE
  5
8D
100
AcDbEntity
  8
SEMA2D
100
AcDbLine
370
9
 62
7
  6
_SOLID
 10
4.6655344742
 20
4.8638207389
 30
0
 11
4.6716649312
 21
4.8744390083
 31
0
  0
LINE
  5
8E
100
AcDbEntity
  8
SEMA2D
100
AcDbLine
370
9
 62
7
  6
_SOLID
 10
4.6600613373
 20
4.8635709954
 30
0
 11
4.6660504121
 21
4.8739443494
 31
0
  0
LINE
  5
8F
100
AcDbEntity
  8
SEMA2D
100
AcDbLine
370
9
 62
7
  6
_SOLID
 10
4.7653112489
 20
4.8635488225
 30
0
 11
4.7648908573
 21
4.8635488225
 31
0
  0
LINE
  5
90
100
AcDbEntity
  8
SEMA2D
100
AcDbLine
370
9
 62
7
  6
_SOLID
 10
4.5382274169
 20
4.8622419907
 30
0
 11
4.5264158326
 21
4.8622419907
 31
0
  0
LINE
  5
91
100
AcDbEntity
  8
SEMA2D
100
AcDbLine
370
9
 62
7
  6
_SOLID
 10
4.5461594987
 20
4.8621185494
 30
0
 11
4.5460073727
 21
4.8621185494
 31
0
  0
LINE
  5
92
100
AcDbEntity
  8
SEMA2D
100
AcDbLine
370
9
 62
7
  6
_SOLID
 10
4.5380740243
 20
4.8607798291
 30
0
 11
4.5262624252
 21
4.8607798291
 31
0
  0
LINE
  5
93
100
AcDbEntity
  8
SEMA2D
100
AcDbLine
370
9
 62
7
  6
_SOLID
 10
4.5343570489
 20
4.863471098
 30
0
 11
4.5262114781
 21
4.863471098
 31
0
  0
LINE
  5
94
100
AcDbEntity
  8
SEMA2D
100
AcDbLine
370
9
 62
7
  6
_SOLID
 10
4.5477270114
 20
4.8629731012
 30
0
 11
4.5611552823
 21
4.8629731012
 31
0
  0
LINE
  5
95
100
AcDbEntity
  8
SEMA2D
100
AcDbLine
370
9
 62
7
  6
_SOLID
 10
4.6611270386
 20
4.8769801928
 30
0
 11
4.6573332328
 21
4.876939304
 31
0
  0
LINE
  5
96
100
AcDbEntity
  8
SEMA2D
100
AcDbLine
370
9
 62
7
  6
_SOLID
 10
4.5431510883
 20
4.8672407938
 30
0
 11
4.5427052307
 21
4.8672407938
 31
0
  0
LINE
  5
97
100
AcDbEntity
  8
SEMA2D
100
AcDbLine
370
9
 62
7
  6
_SOLID
 10
4.7477845329
 20
4.8681637717
 30
0
 11
4.7605493146
 21
4.8681637717
 31
0
  0
LINE
  5
98
100
AcDbEntity
  8
SEMA2D
100
AcDbLine
370
9
 62
7
  6
_SOLID
 10
4.7235030311
 20
4.8681637717
 30
0
 11
4.7411696392
 21
4.8681637717
 31
0
  0
LINE
  5
99
100
AcDbEntity
  8
SEMA2D
100
AcDbLine
370
9
 62
7
  6
_SOLID
 10
4.5343570489
 20
4.8649333192
 30
0
 11
4.5241063315
 21
4.8649333192
 31
0
  0
LINE
  5
9A
100
AcDbEntity
  8
SEMA2D
100
AcDbLine
370
9
 62
7
  6
_SOLID
 10
4.7079287547
 20
4.8503698779
 30
0
 11
4.7071933526
 21
4.8556025697
 31
0
  0
LINE
  5
9B
100
AcDbEntity
  8
SEMA2D
100
AcDbLine
370
9
 62
7
  6
_SOLID
 10
4.7082836407
 20
4.8515335394
 30
0
 11
4.704322018
 21
4.8663184119
 31
0
  0
LINE
  5
9C
100
AcDbEntity
  8
SEMA2D
100
AcDbLine
370
9
 62
7
  6
_SOLID
 10
4.7051812786
 20
4.8853961302
 30
0
 11
4.7001290697
 21
4.8883130027
 31
0
  0
LINE
  5
9D
100
AcDbEntity
  8
SEMA2D
100
AcDbLine
370
9
 62
7
  6
_SOLID
 10
4.7069913822
 20
4.8346968962
 30
0
 11
4.7069913822
 21
4.8340128137
 31
0
  0
LINE
  5
9E
100
AcDbEntity
  8
SEMA2D
100
AcDbLine
370
9
 62
7
  6
_SOLID
 10
4.713251062
 20
4.8473963214
 30
0
 11
4.713251062
 21
4.8479552938
 31
0
  0
LINE
  5
9F
100
AcDbEntity
  8
SEMA2D
100
AcDbLine
370
9
 62
7
  6
_SOLID
 10
4.712318607
 20
4.8886627627
 30
0
 11
4.712318607
 21
4.8903157784
 31
0
  0
LINE
  5
A0
100
AcDbEntity
  8
SEMA2D
100
AcDbLine
370
9
 62
7
  6
_SOLID
 10
4.7079287845
 20
4.8503698779
 30
0
 11
4.7079287845
 21
4.8487808181
 31
0
  0
LINE
  5
A1
100
AcDbEntity
  8
SEMA2D
100
AcDbLine
370
9
 62
7
  6
_SOLID
 10
4.7040345448
 20
4.8842471314
 30
0
 11
4.699206062
 21
4.8870349003
 31
0
  0
LINE
  5
A2
100
AcDbEntity
  8
SEMA2D
100
AcDbLine
370
9
 62
7
  6
_SOLID
 10
4.7075198072
 20
4.8719315005
 30
0
 11
4.7149366218
 21
4.8847777916
 31
0
  0
LINE
  5
A3
100
AcDbEntity
  8
SEMA2D
100
AcDbLine
370
9
 62
7
  6
_SOLID
 10
4.7015149373
 20
4.8707607461
 30
0
 11
4.7089518684
 21
4.8836419059
 31
0
  0
LINE
  5
A4
100
AcDbEntity
  8
SEMA2D
100
AcDbLine
370
9
 62
7
  6
_SOLID
 10
4.6896523315
 20
4.850214131
 30
0
 11
4.6913842636
 21
4.8532138539
 31
0
  0
LINE
  5
A5
100
AcDbEntity
  8
SEMA2D
100
AcDbLine
370
9
 62
7
  6
_SOLID
 10
4.6978215653
 20
4.8874058796
 30
0
 11
4.6978215653
 21
4.8889312817
 31
0
  0
LINE
  5
A6
100
AcDbEntity
  8
SEMA2D
100
AcDbLine
370
9
 62
7
  6
_SOLID
 10
4.7119086462
 20
4.8610731436
 30
0
 11
4.7255945283
 21
4.8847777916
 31
0
  0
LINE
  5
A7
100
AcDbEntity
  8
SEMA2D
100
AcDbLine
370
9
 62
7
  6
_SOLID
 10
4.7108520645
 20
4.8684731198
 30
0
 11
4.720265575
 21
4.8847777916
 31
0
  0
LINE
  5
A8
100
AcDbEntity
  8
SEMA2D
100
AcDbLine
370
9
 62
7
  6
_SOLID
 10
4.695592739
 20
4.8503698779
 30
0
 11
4.6997218507
 21
4.8657800628
 31
0
  0
LINE
  5
A9
100
AcDbEntity
  8
SEMA2D
100
AcDbLine
370
9
 62
7
  6
_SOLID
 10
4.7147658843
 20
4.8487808181
 30
0
 11
4.7147658843
 21
4.8478577806
 31
0
  0
LINE
  5
AA
100
AcDbEntity
  8
SEMA2D
100
AcDbLine
370
9
 62
7
  6
_SOLID
 10
4.7134128886
 20
4.8503698779
 30
0
 11
4.7109195667
 21
4.8681107832
 31
0
  0
LINE
  5
AB
100
AcDbEntity
  8
SEMA2D
100
AcDbLine
370
9
 62
7
  6
_SOLID
 10
4.7096151489
 20
4.8481590224
 30
0
 11
4.7095055061
 21
4.8487808181
 31
0
  0
LINE
  5
AC
100
AcDbEntity
  8
SEMA2D
100
AcDbLine
370
9
 62
7
  6
_SOLID
 10
4.7172677594
 20
4.8487808181
 30
0
 11
4.7172677594
 21
4.8473963214
 31
0
  0
LINE
  5
AD
100
AcDbEntity
  8
SEMA2D
100
AcDbLine
370
9
 62
7
  6
_SOLID
 10
4.7349201816
 20
4.8732402993
 30
0
 11
4.7415813583
 21
4.8847777916
 31
0
  0
LINE
  5
AE
100
AcDbEntity
  8
SEMA2D
100
AcDbLine
370
9
 62
7
  6
_SOLID
 10
4.7190913039
 20
4.8481908513
 30
0
 11
4.7220534462
 21
4.8692675901
 31
0
  0
LINE
  5
AF
100
AcDbEntity
  8
SEMA2D
100
AcDbLine
370
9
 62
7
  6
_SOLID
 10
4.7239660698
 20
4.8690868093
 30
0
 11
4.7239660698
 21
4.8681637717
 31
0
  0
LINE
  5
B0
100
AcDbEntity
  8
SEMA2D
100
AcDbLine
370
9
 62
7
  6
_SOLID
 10
4.7147412079
 20
4.8862401916
 30
0
 11
4.712318607
 21
4.8886627627
 31
0
  0
LINE
  5
B1
100
AcDbEntity
  8
SEMA2D
100
AcDbLine
370
9
 62
7
  6
_SOLID
 10
4.7096660215
 20
4.8346968962
 30
0
 11
4.7128532308
 21
4.8465916587
 31
0
  0
LINE
  5
B2
100
AcDbEntity
  8
SEMA2D
100
AcDbLine
370
9
 62
7
  6
_SOLID
 10
4.7069913822
 20
4.8346968962
 30
0
 11
4.7101991552
 21
4.8466684891
 31
0
  0
LINE
  5
B3
100
AcDbEntity
  8
SEMA2D
100
AcDbLine
370
9
 62
7
  6
_SOLID
 10
4.7147412079
 20
4.8862401916
 30
0
 11
4.714349367
 21
4.8847777916
 31
0
  0
LINE
  5
B4
100
AcDbEntity
  8
SEMA2D
100
AcDbLine
370
9
 62
7
  6
_SOLID
 10
4.7129518765
 20
4.8536501003
 30
0
 11
4.7220884937
 21
4.8694751931
 31
0
  0
LINE
  5
B5
100
AcDbEntity
  8
SEMA2D
100
AcDbLine
370
9
 62
7
  6
_SOLID
 10
4.7295912284
 20
4.8732402993
 30
0
 11
4.736252405
 21
4.8847777916
 31
0
  0
LINE
  5
B6
100
AcDbEntity
  8
SEMA2D
100
AcDbLine
370
9
 62
7
  6
_SOLID
 10
4.7154695171
 20
4.8487808181
 30
0
 11
4.7203661877
 21
4.8572620822
 31
0
  0
LINE
  5
B7
100
AcDbEntity
  8
SEMA2D
100
AcDbLine
370
9
 62
7
  6
_SOLID
 10
4.7236203331
 20
4.8721284343
 30
0
 11
4.7309234518
 21
4.8847777916
 31
0
  0
LINE
  5
B8
100
AcDbEntity
  8
SEMA2D
100
AcDbLine
370
9
 62
7
  6
_SOLID
 10
4.5795477259
 20
4.8847777916
 30
0
 11
4.5662077445
 21
4.8847777916
 31
0
  0
LINE
  5
B9
100
AcDbEntity
  8
SEMA2D
100
AcDbLine
370
9
 62
7
  6
_SOLID
 10
4.7128149348
 20
4.8847777916
 30
0
 11
4.7074888724
 21
4.8847777916
 31
0
  0
LINE
  5
BA
100
AcDbEntity
  8
SEMA2D
100
AcDbLine
370
9
 62
7
  6
_SOLID
 10
4.6978215653
 20
4.8874058796
 30
0
 11
4.5892149734
 21
4.8874058796
 31
0
  0
LINE
  5
BB
100
AcDbEntity
  8
SEMA2D
100
AcDbLine
370
9
 62
7
  6
_SOLID
 10
4.5434796142
 20
4.8888536168
 30
0
 11
4.5552272129
 21
4.8888536168
 31
0
  0
LINE
  5
BC
100
AcDbEntity
  8
SEMA2D
100
AcDbLine
370
9
 62
7
  6
_SOLID
 10
4.5563565868
 20
4.8886627627
 30
0
 11
4.5876637477
 21
4.8886627627
 31
0
  0
LINE
  5
BD
100
AcDbEntity
  8
SEMA2D
100
AcDbLine
370
9
 62
7
  6
_SOLID
 10
4.712318607
 20
4.8886627627
 30
0
 11
4.6993727761
 21
4.8886627627
 31
0
  0
LINE
  5
BE
100
AcDbEntity
  8
SEMA2D
100
AcDbLine
370
9
 62
7
  6
_SOLID
 10
4.7668633538
 20
4.8847777916
 30
0
 11
4.7130408066
 21
4.8847777916
 31
0
  0
LINE
  5
BF
100
AcDbEntity
  8
SEMA2D
100
AcDbLine
370
9
 62
7
  6
_SOLID
 10
4.6814231056
 20
4.8889312817
 30
0
 11
4.6814231056
 21
4.8903157784
 31
0
  0
LINE
  5
C0
100
AcDbEntity
  8
SEMA2D
100
AcDbLine
370
9
 62
7
  6
_SOLID
 10
4.6790687221
 20
4.8487808181
 30
0
 11
4.6790687221
 21
4.8503698779
 31
0
  0
LINE
  5
C1
100
AcDbEntity
  8
SEMA2D
100
AcDbLine
370
9
 62
7
  6
_SOLID
 10
4.6758814531
 20
4.8622649385
 30
0
 11
4.6790686923
 21
4.8503698779
 31
0
  0
LINE
  5
C2
100
AcDbEntity
  8
SEMA2D
100
AcDbLine
370
9
 62
7
  6
_SOLID
 10
4.6807394701
 20
4.862466581
 30
0
 11
4.6894243437
 21
4.8775092436
 31
0
  0
LINE
  5
C3
100
AcDbEntity
  8
SEMA2D
100
AcDbLine
370
9
 62
7
  6
_SOLID
 10
4.6844709295
 20
4.8504696561
 30
0
 11
4.7022013444
 21
4.881179638
 31
0
  0
LINE
  5
C4
100
AcDbEntity
  8
SEMA2D
100
AcDbLine
370
9
 62
7
  6
_SOLID
 10
4.6824686307
 20
4.8562315179
 30
0
 11
4.6957033056
 21
4.8791546894
 31
0
  0
LINE
  5
C5
100
AcDbEntity
  8
SEMA2D
100
AcDbLine
370
9
 62
7
  6
_SOLID
 10
4.6978215355
 20
4.8889312817
 30
0
 11
4.5892149734
 21
4.8889312817
 31
0
  0
LINE
  5
C6
100
AcDbEntity
  8
SEMA2D
100
AcDbLine
370
9
 62
7
  6
_SOLID
 10
4.6955927092
 20
4.8503698779
 30
0
 11
4.6955927092
 21
4.8487808181
 31
0
  0
LINE
  5
C7
100
AcDbEntity
  8
SEMA2D
100
AcDbLine
370
9
 62
7
  6
_SOLID
 10
4.6909278411
 20
4.8501490427
 30
0
 11
4.6953757185
 21
4.8667486979
 31
0
  0
LINE
  5
C8
100
AcDbEntity
  8
SEMA2D
100
AcDbLine
370
9
 62
7
  6
_SOLID
 10
4.6898220557
 20
4.8346968962
 30
0
 11
4.6898220557
 21
4.8340128137
 31
0
  0
LINE
  5
C9
100
AcDbEntity
  8
SEMA2D
100
AcDbLine
370
9
 62
7
  6
_SOLID
 10
4.6833736378
 20
4.8487808181
 30
0
 11
4.6871474165
 21
4.8346968962
 31
0
  0
LINE
  5
CA
100
AcDbEntity
  8
SEMA2D
100
AcDbLine
370
9
 62
7
  6
_SOLID
 10
4.680090763
 20
4.8635069204
 30
0
 11
4.6801882166
 21
4.8632750584
 31
0
  0
LINE
  5
CB
100
AcDbEntity
  8
SEMA2D
100
AcDbLine
370
9
 62
7
  6
_SOLID
 10
4.6801882166
 20
4.8632750584
 30
0
 11
4.680272885
 21
4.8630382491
 31
0
  0
LINE
  5
CC
100
AcDbEntity
  8
SEMA2D
100
AcDbLine
370
9
 62
7
  6
_SOLID
 10
4.680272885
 20
4.8630382491
 30
0
 11
4.6803443509
 21
4.8627978636
 31
0
  0
LINE
  5
CD
100
AcDbEntity
  8
SEMA2D
100
AcDbLine
370
9
 62
7
  6
_SOLID
 10
4.5434796142
 20
4.8903157784
 30
0
 11
4.712318607
 21
4.8903157784
 31
0
  0
LINE
  5
CE
100
AcDbEntity
  8
SEMA2D
100
AcDbLine
370
9
 62
7
  6
_SOLID
 10
4.6801808256
 20
4.8634082151
 30
0
 11
4.68373362
 21
4.8501490427
 31
0
  0
LINE
  5
CF
100
AcDbEntity
  8
SEMA2D
100
AcDbLine
370
9
 62
7
  6
_SOLID
 10
4.6860483068
 20
4.8487808181
 30
0
 11
4.6898220557
 21
4.8346968962
 31
0
  0
LINE
  5
D0
100
AcDbEntity
  8
SEMA2D
100
AcDbLine
370
9
 62
7
  6
_SOLID
 10
4.5595303255
 20
4.8607798291
 30
0
 11
4.5477822947
 21
4.8607798291
 31
0
  0
LINE
  5
D1
100
AcDbEntity
  8
SEMA2D
100
AcDbLine
370
9
 62
7
  6
_SOLID
 10
4.5920074361
 20
4.865688212
 30
0
 11
4.5986473489
 21
4.8771888686
 31
0
  0
LINE
  5
D2
100
AcDbEntity
  8
SEMA2D
100
AcDbLine
370
9
 62
7
  6
_SOLID
 10
4.5880052227
 20
4.8679861499
 30
0
 11
4.5939781147
 21
4.8783314897
 31
0
  0
LINE
  5
D3
100
AcDbEntity
  8
SEMA2D
100
AcDbLine
370
9
 62
7
  6
_SOLID
 10
4.5845995325
 20
4.8346968962
 30
0
 11
4.5883732963
 21
4.8487808181
 31
0
  0
LINE
  5
D4
100
AcDbEntity
  8
SEMA2D
100
AcDbLine
370
9
 62
7
  6
_SOLID
 10
4.5869074392
 20
4.8883130027
 30
0
 11
4.5818552452
 21
4.8853961302
 31
0
  0
LINE
  5
D5
100
AcDbEntity
  8
SEMA2D
100
AcDbLine
370
9
 62
7
  6
_SOLID
 10
4.5918113816
 20
4.8659625722
 30
0
 11
4.5960486162
 21
4.8501490427
 31
0
  0
LINE
  5
D6
100
AcDbEntity
  8
SEMA2D
100
AcDbLine
370
9
 62
7
  6
_SOLID
 10
4.5924987423
 20
4.8608666731
 30
0
 11
4.5914066362
 21
4.8649421407
 31
0
  0
LINE
  5
D7
100
AcDbEntity
  8
SEMA2D
100
AcDbLine
370
9
 62
7
  6
_SOLID
 10
4.5819248784
 20
4.8346968962
 30
0
 11
4.5856986421
 21
4.8487808181
 31
0
  0
LINE
  5
D8
100
AcDbEntity
  8
SEMA2D
100
AcDbLine
370
9
 62
7
  6
_SOLID
 10
4.5903238583
 20
4.8903157784
 30
0
 11
4.5903238583
 21
4.8889312817
 31
0
  0
LINE
  5
D9
100
AcDbEntity
  8
SEMA2D
100
AcDbLine
370
9
 62
7
  6
_SOLID
 10
4.5892149734
 20
4.8874058796
 30
0
 11
4.5892149734
 21
4.8889312817
 31
0
  0
LINE
  5
DA
100
AcDbEntity
  8
SEMA2D
100
AcDbLine
370
9
 62
7
  6
_SOLID
 10
4.5819248784
 20
4.8346968962
 30
0
 11
4.5819248784
 21
4.8340128137
 31
0
  0
LINE
  5
DB
100
AcDbEntity
  8
SEMA2D
100
AcDbLine
370
9
 62
7
  6
_SOLID
 10
4.5670584667
 20
4.8501653148
 30
0
 11
4.5763234275
 21
4.8662126733
 31
0
  0
LINE
  5
DC
100
AcDbEntity
  8
SEMA2D
100
AcDbLine
370
9
 62
7
  6
_SOLID
 10
4.5834604877
 20
4.8693444205
 30
0
 11
4.5893833864
 21
4.8796032144
 31
0
  0
LINE
  5
DD
100
AcDbEntity
  8
SEMA2D
100
AcDbLine
370
9
 62
7
  6
_SOLID
 10
4.572387405
 20
4.8501653148
 30
0
 11
4.5756454992
 21
4.8558085037
 31
0
  0
LINE
  5
DE
100
AcDbEntity
  8
SEMA2D
100
AcDbLine
370
9
 62
7
  6
_SOLID
 10
4.5778244364
 20
4.8688125087
 30
0
 11
4.5848724174
 21
4.8810199572
 31
0
  0
LINE
  5
DF
100
AcDbEntity
  8
SEMA2D
100
AcDbLine
370
9
 62
7
  6
_SOLID
 10
4.6128878522
 20
4.864934094
 30
0
 11
4.6182074773
 21
4.8741480185
 31
0
  0
LINE
  5
E0
100
AcDbEntity
  8
SEMA2D
100
AcDbLine
370
9
 62
7
  6
_SOLID
 10
4.599019267
 20
4.8501430226
 30
0
 11
4.6131793785
 21
4.8746690823
 31
0
  0
LINE
  5
E1
100
AcDbEntity
  8
SEMA2D
100
AcDbLine
370
9
 62
7
  6
_SOLID
 10
4.5878304768
 20
4.8870349003
 30
0
 11
4.5829968083
 21
4.8842441512
 31
0
  0
LINE
  5
E2
100
AcDbEntity
  8
SEMA2D
100
AcDbLine
370
9
 62
7
  6
_SOLID
 10
4.6227818358
 20
4.8889312817
 30
0
 11
4.6227818358
 21
4.8903157784
 31
0
  0
LINE
  5
E3
100
AcDbEntity
  8
SEMA2D
100
AcDbLine
370
9
 62
7
  6
_SOLID
 10
4.6293977129
 20
4.8330897761
 30
0
 11
4.6428107399
 21
4.8330897761
 31
0
  0
LINE
  5
E4
100
AcDbEntity
  8
SEMA2D
100
AcDbLine
370
9
 62
7
  6
_SOLID
 10
4.6230555701
 20
4.8640851451
 30
0
 11
4.6285599101
 21
4.873618908
 31
0
  0
LINE
  5
E5
100
AcDbEntity
  8
SEMA2D
100
AcDbLine
370
9
 62
7
  6
_SOLID
 10
4.617925756
 20
4.8644300176
 30
0
 11
4.6233303475
 21
4.8737910462
 31
0
  0
LINE
  5
E6
100
AcDbEntity
  8
SEMA2D
100
AcDbLine
370
9
 62
7
  6
_SOLID
 10
4.5955513346
 20
4.8533663822
 30
0
 11
4.6082477051
 21
4.8753571583
 31
0
  0
LINE
  5
E7
100
AcDbEntity
  8
SEMA2D
100
AcDbLine
370
9
 62
7
  6
_SOLID
 10
4.6032428372
 20
4.8501490427
 30
0
 11
4.6065016317
 21
4.8623110128
 31
0
  0
LINE
  5
E8
100
AcDbEntity
  8
SEMA2D
100
AcDbLine
370
9
 62
7
  6
_SOLID
 10
4.5938621241
 20
4.8596705867
 30
0
 11
4.6034054089
 21
4.8762000276
 31
0
  0
LINE
  5
E9
100
AcDbEntity
  8
SEMA2D
100
AcDbLine
370
9
 62
7
  6
_SOLID
 10
4.5617295283
 20
4.8501653148
 30
0
 11
4.5804364908
 21
4.8825666977
 31
0
  0
LINE
  5
EA
100
AcDbEntity
  8
SEMA2D
100
AcDbLine
370
9
 62
7
  6
_SOLID
 10
4.5342854637
 20
4.8487808181
 30
0
 11
4.544563182
 21
4.8665823413
 31
0
  0
LINE
  5
EB
100
AcDbEntity
  8
SEMA2D
100
AcDbLine
370
9
 62
7
  6
_SOLID
 10
4.5289565253
 20
4.8487808181
 30
0
 11
4.5358841497
 21
4.8607798291
 31
0
  0
LINE
  5
EC
100
AcDbEntity
  8
SEMA2D
100
AcDbLine
370
9
 62
7
  6
_SOLID
 10
4.5616199452
 20
4.8716628624
 30
0
 11
4.5616199303
 21
4.8686869217
 31
0
  0
LINE
  5
ED
100
AcDbEntity
  8
SEMA2D
100
AcDbLine
370
9
 62
7
  6
_SOLID
 10
4.539614402
 20
4.8487808181
 30
0
 11
4.5467320013
 21
4.8611088468
 31
0
  0
LINE
  5
EE
100
AcDbEntity
  8
SEMA2D
100
AcDbLine
370
9
 62
7
  6
_SOLID
 10
4.5627516735
 20
4.8686869217
 30
0
 11
4.5627516735
 21
4.870079465
 31
0
  0
LINE
  5
EF
100
AcDbEntity
  8
SEMA2D
100
AcDbLine
370
9
 62
7
  6
_SOLID
 10
4.561568402
 20
4.8465916587
 30
0
 11
4.5647555667
 21
4.8346968962
 31
0
  0
LINE
  5
F0
100
AcDbEntity
  8
SEMA2D
100
AcDbLine
370
9
 62
7
  6
_SOLID
 10
4.558893733
 20
4.8465916587
 30
0
 11
4.5620809126
 21
4.8346968962
 31
0
  0
LINE
  5
F1
100
AcDbEntity
  8
SEMA2D
100
AcDbLine
370
9
 62
7
  6
_SOLID
 10
4.5615683871
 20
4.8465916587
 30
0
 11
4.5615683871
 21
4.8487808181
 31
0
  0
LINE
  5
F2
100
AcDbEntity
  8
SEMA2D
100
AcDbLine
370
9
 62
7
  6
_SOLID
 10
4.5449260253
 20
4.8659020735
 30
0
 11
4.5460073727
 21
4.8621185494
 31
0
  0
LINE
  5
F3
100
AcDbEntity
  8
SEMA2D
100
AcDbLine
370
9
 62
7
  6
_SOLID
 10
4.5452605712
 20
4.8650810791
 30
0
 11
4.5450247306
 21
4.8659033848
 31
0
  0
LINE
  5
F4
100
AcDbEntity
  8
SEMA2D
100
AcDbLine
370
9
 62
7
  6
_SOLID
 10
4.5456769991
 20
4.8636379314
 30
0
 11
4.5452605712
 21
4.8650810791
 31
0
  0
LINE
  5
F5
100
AcDbEntity
  8
SEMA2D
100
AcDbLine
370
9
 62
7
  6
_SOLID
 10
4.5457383919
 20
4.8635982944
 30
0
 11
4.5459520894
 21
4.8628496004
 31
0
  0
LINE
  5
F6
100
AcDbEntity
  8
SEMA2D
100
AcDbLine
370
9
 62
7
  6
_SOLID
 10
4.5563566017
 20
4.8903157784
 30
0
 11
4.5563566017
 21
4.8886627627
 31
0
  0
LINE
  5
F7
100
AcDbEntity
  8
SEMA2D
100
AcDbLine
370
9
 62
7
  6
_SOLID
 10
4.5465414601
 20
4.8671265913
 30
0
 11
4.5477270114
 21
4.8629731012
 31
0
  0
LINE
  5
F8
100
AcDbEntity
  8
SEMA2D
100
AcDbLine
370
9
 62
7
  6
_SOLID
 10
4.5647555667
 20
4.8346968962
 30
0
 11
4.5647555667
 21
4.8340128137
 31
0
  0
LINE
  5
F9
100
AcDbEntity
  8
SEMA2D
100
AcDbLine
370
9
 62
7
  6
_SOLID
 10
4.5735632557
 20
4.8501653148
 30
0
 11
4.5735632557
 21
4.8493786527
 31
0
  0
LINE
  5
FA
100
AcDbEntity
  8
SEMA2D
100
AcDbLine
370
9
 62
7
  6
_SOLID
 10
4.5734784233
 20
4.8493741823
 30
0
 11
4.5734784233
 21
4.8487808181
 31
0
  0
LINE
  5
FB
100
AcDbEntity
  8
SEMA2D
100
AcDbLine
370
9
 62
7
  6
_SOLID
 10
4.5734586495
 20
4.8473963214
 30
0
 11
4.5734586644
 21
4.8487808181
 31
0
  0
LINE
  5
FC
100
AcDbEntity
  8
SEMA2D
100
AcDbLine
370
9
 62
7
  6
_SOLID
 10
4.573612653
 20
4.8465916587
 30
0
 11
4.573612653
 21
4.8473963214
 31
0
  0
LINE
  5
FD
100
AcDbEntity
  8
SEMA2D
100
AcDbLine
370
9
 62
7
  6
_SOLID
 10
4.555601232
 20
4.8487808181
 30
0
 11
4.5760697651
 21
4.8842333628
 31
0
  0
LINE
  5
FE
100
AcDbEntity
  8
SEMA2D
100
AcDbLine
370
9
 62
7
  6
_SOLID
 10
4.5762450772
 20
4.8656113816
 30
0
 11
4.5753218758
 21
4.850517161
 31
0
  0
LINE
  5
FF
100
AcDbEntity
  8
SEMA2D
100
AcDbLine
370
9
 62
7
  6
_SOLID
 10
4.5808645862
 20
4.8487808181
 30
0
 11
4.5808645862
 21
4.8503698779
 31
0
  0
LINE
  5
100
100
AcDbEntity
  8
SEMA2D
100
AcDbLine
370
9
 62
7
  6
_SOLID
 10
4.5607284087
 20
4.8723469449
 30
0
 11
4.5563565868
 21
4.8886627627
 31
0
  0
LINE
  5
101
100
AcDbEntity
  8
SEMA2D
100
AcDbLine
370
9
 62
7
  6
_SOLID
 10
4.5632154423
 20
4.8642464353
 30
0
 11
4.5643651861
 21
4.8830444885
 31
0
  0
LINE
  5
102
100
AcDbEntity
  8
SEMA2D
100
AcDbLine
370
9
 62
7
  6
_SOLID
 10
4.5654217827
 20
4.8487808181
 30
0
 11
4.5654217976
 21
4.8473963214
 31
0
  0
LINE
  5
103
100
AcDbEntity
  8
SEMA2D
100
AcDbLine
370
9
 62
7
  6
_SOLID
 10
4.56503322
 20
4.8501653148
 30
0
 11
4.56503322
 21
4.8487808181
 31
0
  0
LINE
  5
104
100
AcDbEntity
  8
SEMA2D
100
AcDbLine
370
9
 62
7
  6
_SOLID
 10
4.5449433553
 20
4.8487808181
 30
0
 11
4.5518709797
 21
4.8607798291
 31
0
  0
LINE
  5
105
100
AcDbEntity
  8
SEMA2D
100
AcDbLine
370
9
 62
7
  6
_SOLID
 10
4.5636910576
 20
4.8720228148
 30
0
 11
4.5710551667
 21
4.8847777916
 31
0
  0
LINE
  5
106
100
AcDbEntity
  8
SEMA2D
100
AcDbLine
370
9
 62
7
  6
_SOLID
 10
4.5502722937
 20
4.8487808181
 30
0
 11
4.557199918
 21
4.8607798291
 31
0
  0
LINE
  5
107
100
AcDbEntity
  8
SEMA2D
100
AcDbLine
370
9
 62
7
  6
_SOLID
 10
4.5643224794
 20
4.8823464585
 30
0
 11
4.5656814653
 21
4.884700246
 31
0
  0
LINE
  5
108
100
AcDbEntity
  8
SEMA2D
100
AcDbLine
370
9
 62
7
  6
_SOLID
 10
4.6307350326
 20
4.8337739182
 30
0
 11
4.6414734203
 21
4.8337739182
 31
0
  0
LINE
  5
109
100
AcDbEntity
  8
SEMA2D
100
AcDbLine
370
9
 62
7
  6
_SOLID
 10
4.695592739
 20
4.8503698779
 30
0
 11
4.7079287547
 21
4.8503698779
 31
0
  0
LINE
  5
10A
100
AcDbEntity
  8
SEMA2D
100
AcDbLine
370
9
 62
7
  6
_SOLID
 10
4.6573489088
 20
4.8614287449
 30
0
 11
4.6573463458
 21
4.8638925029
 31
0
  0
LINE
  5
10B
100
AcDbEntity
  8
SEMA2D
100
AcDbLine
370
9
 62
7
  6
_SOLID
 10
4.6524864513
 20
4.8487808181
 30
0
 11
4.6524864513
 21
4.8503698779
 31
0
  0
LINE
  5
10C
100
AcDbEntity
  8
SEMA2D
100
AcDbLine
370
9
 62
7
  6
_SOLID
 10
4.649426617
 20
4.8889312817
 30
0
 11
4.649426617
 21
4.8903157784
 31
0
  0
LINE
  5
10D
100
AcDbEntity
  8
SEMA2D
100
AcDbLine
370
9
 62
7
  6
_SOLID
 10
4.6544359702
 20
4.8614262415
 30
0
 11
4.6544340032
 21
4.863870628
 31
0
  0
LINE
  5
10E
100
AcDbEntity
  8
SEMA2D
100
AcDbLine
370
9
 62
7
  6
_SOLID
 10
4.5959894288
 20
4.8503698779
 30
0
 11
4.5808646309
 21
4.8503698779
 31
0
  0
LINE
  5
10F
100
AcDbEntity
  8
SEMA2D
100
AcDbLine
370
9
 62
7
  6
_SOLID
 10
4.5576615858
 20
4.8493741823
 30
0
 11
4.5734784233
 21
4.8493741823
 31
0
  0
LINE
  5
110
100
AcDbEntity
  8
SEMA2D
100
AcDbLine
370
9
 62
7
  6
_SOLID
 10
4.573563807
 20
4.8501653148
 30
0
 11
4.5591765124
 21
4.8501653148
 31
0
  0
LINE
  5
111
100
AcDbEntity
  8
SEMA2D
100
AcDbLine
370
9
 62
7
  6
_SOLID
 10
4.6344899464
 20
4.8503698779
 30
0
 11
4.6033020246
 21
4.8503698779
 31
0
  0
LINE
  5
112
100
AcDbEntity
  8
SEMA2D
100
AcDbLine
370
9
 62
7
  6
_SOLID
 10
4.6790686923
 20
4.8503698779
 30
0
 11
4.6524865109
 21
4.8503698779
 31
0
  0
LINE
  5
113
100
AcDbEntity
  8
SEMA2D
100
AcDbLine
370
9
 62
7
  6
_SOLID
 10
4.7100667435
 20
4.8501653148
 30
0
 11
4.7134543139
 21
4.8501653148
 31
0
  0
LINE
  5
114
100
AcDbEntity
  8
SEMA2D
100
AcDbLine
370
9
 62
7
  6
_SOLID
 10
4.6573332029
 20
4.8735979868
 30
0
 11
4.6573332328
 21
4.8769322706
 31
0
  0
LINE
  5
115
100
AcDbEntity
  8
SEMA2D
100
AcDbLine
370
9
 62
7
  6
_SOLID
 10
4.6549072641
 20
4.8638738466
 30
0
 11
4.6605592447
 21
4.8736633731
 31
0
  0
LINE
  5
116
100
AcDbEntity
  8
SEMA2D
100
AcDbLine
370
9
 62
7
  6
_SOLID
 10
4.5168534148
 20
4.8598567916
 30
0
 11
4.5163919109
 21
4.8598567916
 31
0
  0
LINE
  5
117
100
AcDbEntity
  8
SEMA2D
100
AcDbLine
370
9
 62
7
  6
_SOLID
 10
4.5177764076
 20
4.8561648203
 30
0
 11
4.5163919109
 21
4.8561648203
 31
0
  0
LINE
  5
118
100
AcDbEntity
  8
SEMA2D
100
AcDbLine
370
9
 62
7
  6
_SOLID
 10
4.6465554315
 20
4.8494080974
 30
0
 11
4.6469180363
 21
4.8500361515
 31
0
  0
LINE
  5
119
100
AcDbEntity
  8
SEMA2D
100
AcDbLine
370
9
 62
7
  6
_SOLID
 10
4.6469877142
 20
4.8503062202
 30
0
 11
4.6487045365
 21
4.8600428177
 31
0
  0
LINE
  5
11A
100
AcDbEntity
  8
SEMA2D
100
AcDbLine
370
9
 62
7
  6
_SOLID
 10
4.6573342162
 20
4.8784540964
 30
0
 11
4.6573332328
 21
4.876939304
 31
0
  0
LINE
  5
11B
100
AcDbEntity
  8
SEMA2D
100
AcDbLine
370
9
 62
7
  6
_SOLID
 10
4.6524865109
 20
4.8503698779
 30
0
 11
4.6544360298
 21
4.8614262415
 31
0
  0
LINE
  5
11C
100
AcDbEntity
  8
SEMA2D
100
AcDbLine
370
9
 62
7
  6
_SOLID
 10
4.6409783143
 20
4.8489782287
 30
0
 11
4.655183025
 21
4.8735815359
 31
0
  0
LINE
  5
11D
100
AcDbEntity
  8
SEMA2D
100
AcDbLine
370
9
 62
7
  6
_SOLID
 10
4.6437022763
 20
4.8337739182
 30
0
 11
4.6477233845
 21
4.8487808181
 31
0
  0
LINE
  5
11E
100
AcDbEntity
  8
SEMA2D
100
AcDbLine
370
9
 62
7
  6
_SOLID
 10
4.6414734203
 20
4.8337739182
 30
0
 11
4.6454944986
 21
4.8487808181
 31
0
  0
LINE
  5
11F
100
AcDbEntity
  8
SEMA2D
100
AcDbLine
370
9
 62
7
  6
_SOLID
 10
4.6344899911
 20
4.8487808181
 30
0
 11
4.6344899911
 21
4.8503698779
 31
0
  0
LINE
  5
120
100
AcDbEntity
  8
SEMA2D
100
AcDbLine
370
9
 62
7
  6
_SOLID
 10
4.6307350326
 20
4.8337739182
 30
0
 11
4.6307350326
 21
4.8330897761
 31
0
  0
LINE
  5
121
100
AcDbEntity
  8
SEMA2D
100
AcDbLine
370
9
 62
7
  6
_SOLID
 10
4.6296432394
 20
4.8735971523
 30
0
 11
4.6296432245
 21
4.8769322706
 31
0
  0
LINE
  5
122
100
AcDbEntity
  8
SEMA2D
100
AcDbLine
370
9
 62
7
  6
_SOLID
 10
4.6325404721
 20
4.8614261223
 30
0
 11
4.6325424391
 21
4.8638700319
 31
0
  0
LINE
  5
123
100
AcDbEntity
  8
SEMA2D
100
AcDbLine
370
9
 62
7
  6
_SOLID
 10
4.6335854906
 20
4.8638634754
 30
0
 11
4.6391754824
 21
4.8735456539
 31
0
  0
LINE
  5
124
100
AcDbEntity
  8
SEMA2D
100
AcDbLine
370
9
 62
7
  6
_SOLID
 10
4.6282866675
 20
4.8639156891
 30
0
 11
4.6338592696
 21
4.8735677076
 31
0
  0
LINE
  5
125
100
AcDbEntity
  8
SEMA2D
100
AcDbLine
370
9
 62
7
  6
_SOLID
 10
4.6296276677
 20
4.8614286257
 30
0
 11
4.629630186
 21
4.8638916684
 31
0
  0
LINE
  5
126
100
AcDbEntity
  8
SEMA2D
100
AcDbLine
370
9
 62
7
  6
_SOLID
 10
4.5647555667
 20
4.8346968962
 30
0
 11
4.5819248784
 21
4.8346968962
 31
0
  0
LINE
  5
127
100
AcDbEntity
  8
SEMA2D
100
AcDbLine
370
9
 62
7
  6
_SOLID
 10
4.6880389529
 20
4.8340128137
 30
0
 11
4.708774485
 21
4.8340128137
 31
0
  0
LINE
  5
128
100
AcDbEntity
  8
SEMA2D
100
AcDbLine
370
9
 62
7
  6
_SOLID
 10
4.562972464
 20
4.8340128137
 30
0
 11
4.5837079811
 21
4.8340128137
 31
0
  0
LINE
  5
129
100
AcDbEntity
  8
SEMA2D
100
AcDbLine
370
9
 62
7
  6
_SOLID
 10
4.6898220557
 20
4.8346968962
 30
0
 11
4.7069913822
 21
4.8346968962
 31
0
  0
LINE
  5
12A
100
AcDbEntity
  8
SEMA2D
100
AcDbLine
370
9
 62
7
  6
_SOLID
 10
4.6296422559
 20
4.878454156
 30
0
 11
4.6296431947
 21
4.8769391848
 31
0
  0
LINE
  5
12B
100
AcDbEntity
  8
SEMA2D
100
AcDbLine
370
9
 62
7
  6
_SOLID
 10
4.6267139542
 20
4.8487808181
 30
0
 11
4.6307350326
 21
4.8337739182
 31
0
  0
LINE
  5
12C
100
AcDbEntity
  8
SEMA2D
100
AcDbLine
370
9
 62
7
  6
_SOLID
 10
4.6244850832
 20
4.8487808181
 30
0
 11
4.6285061616
 21
4.8337739182
 31
0
  0
LINE
  5
12D
100
AcDbEntity
  8
SEMA2D
100
AcDbLine
370
9
 62
7
  6
_SOLID
 10
4.6325404423
 20
4.8614261223
 30
0
 11
4.6344899464
 21
4.8503698779
 31
0
  0
LINE
  5
12E
100
AcDbEntity
  8
SEMA2D
100
AcDbLine
370
9
 62
7
  6
_SOLID
 10
4.7172677594
 20
4.8478577806
 30
0
 11
4.7147658843
 21
4.8478577806
 31
0
  0
LINE
  5
12F
100
AcDbEntity
  8
SEMA2D
100
AcDbLine
370
9
 62
7
  6
_SOLID
 10
4.5654217976
 20
4.8478577806
 30
0
 11
4.5734586495
 21
4.8478577806
 31
0
  0
LINE
  5
130
100
AcDbEntity
  8
SEMA2D
100
AcDbLine
370
9
 62
7
  6
_SOLID
 10
4.5217565524
 20
4.8487808181
 30
0
 11
4.7176497656
 21
4.8487808181
 31
0
  0
LINE
  5
131
100
AcDbEntity
  8
SEMA2D
100
AcDbLine
370
9
 62
7
  6
_SOLID
 10
4.5644485432
 20
4.8473963214
 30
0
 11
4.5743908065
 21
4.8473963214
 31
0
  0
LINE
  5
132
100
AcDbEntity
  8
SEMA2D
100
AcDbLine
370
9
 62
7
  6
_SOLID
 10
4.6414734203
 20
4.8337739182
 30
0
 11
4.6414734203
 21
4.8330897761
 31
0
  0
LINE
  5
133
100
AcDbEntity
  8
SEMA2D
100
AcDbLine
370
9
 62
7
  6
_SOLID
 10
4.638272025
 20
4.8600422812
 30
0
 11
4.639988758
 21
4.8503062202
 31
0
  0
LINE
  5
134
100
AcDbEntity
  8
SEMA2D
100
AcDbLine
370
9
 62
7
  6
_SOLID
 10
4.6376497227
 20
4.8616729451
 30
0
 11
4.6445014554
 21
4.8735405279
 31
0
  0
LINE
  5
135
100
AcDbEntity
  8
SEMA2D
100
AcDbLine
370
9
 62
7
  6
_SOLID
 10
4.7181772965
 20
4.8473963214
 30
0
 11
4.7105241197
 21
4.8473963214
 31
0
  0
LINE
  5
136
100
AcDbEntity
  8
SEMA2D
100
AcDbLine
370
9
 62
7
  6
_SOLID
 10
4.561568402
 20
4.8465916587
 30
0
 11
4.573612653
 21
4.8465916587
 31
0
  0
LINE
  5
137
100
AcDbEntity
  8
SEMA2D
100
AcDbLine
370
9
 62
7
  6
_SOLID
 10
4.6391528922
 20
4.8550465179
 30
0
 11
4.649837293
 21
4.8735523892
 31
0
  0
ARC
  5
138
100
AcDbEntity
  8
SEMA2D
100
AcDbCircle
370
9
 62
7
  6
_SOLID
 10
4.708774485
 20
4.8349357916
 30
0
 40
0.000923
100
AcDbArc
 50
270
 51
345.000000000311
  0
ARC
  5
139
100
AcDbEntity
  8
SEMA2D
100
AcDbCircle
370
9
 62
7
  6
_SOLID
 10
4.6880389529
 20
4.8349357916
 30
0
 40
0.000923
100
AcDbArc
 50
194.999999999689
 51
270
  0
ARC
  5
13A
100
AcDbEntity
  8
SEMA2D
100
AcDbCircle
370
9
 62
7
  6
_SOLID
 10
4.6428107399
 20
4.8340128137
 30
0
 40
0.000923
100
AcDbArc
 50
270
 51
345.000000000311
  0
ARC
  5
13B
100
AcDbEntity
  8
SEMA2D
100
AcDbCircle
370
9
 62
7
  6
_SOLID
 10
4.5560407716
 20
4.8458272291
 30
0
 40
0.0029535987
100
AcDbArc
 50
15.000011442133
 51
90
  0
ARC
  5
13C
100
AcDbEntity
  8
SEMA2D
100
AcDbCircle
370
9
 62
7
  6
_SOLID
 10
4.6293977129
 20
4.8340128137
 30
0
 40
0.000923
100
AcDbArc
 50
194.999999999689
 51
270
  0
ARC
  5
13D
100
AcDbEntity
  8
SEMA2D
100
AcDbCircle
370
9
 62
7
  6
_SOLID
 10
4.6418066996
 20
4.8506267739
 30
0
 40
0.001846
100
AcDbArc
 50
190.000000001989
 51
270
  0
ARC
  5
13E
100
AcDbEntity
  8
SEMA2D
100
AcDbCircle
370
9
 62
7
  6
_SOLID
 10
4.5735295641
 20
4.8506267739
 30
0
 40
0.001846
100
AcDbArc
 50
270
 51
-3.49999999808983
  0
ARC
  5
13F
100
AcDbEntity
  8
SEMA2D
100
AcDbCircle
370
9
 62
7
  6
_SOLID
 10
4.6891447383
 20
4.8506267739
 30
0
 40
0.001846
100
AcDbArc
 50
270
 51
345.000000000311
  0
ARC
  5
140
100
AcDbEntity
  8
SEMA2D
100
AcDbCircle
370
9
 62
7
  6
_SOLID
 10
4.6451697427
 20
4.8506267739
 30
0
 40
0.001846
100
AcDbArc
 50
270
 51
349.999999998011
  0
ARC
  5
141
100
AcDbEntity
  8
SEMA2D
100
AcDbCircle
370
9
 62
7
  6
_SOLID
 10
4.6014597344
 20
4.8506267739
 30
0
 40
0.001846
100
AcDbArc
 50
270
 51
345.000000000311
  0
ARC
  5
142
100
AcDbEntity
  8
SEMA2D
100
AcDbCircle
370
9
 62
7
  6
_SOLID
 10
4.597831704
 20
4.8506267739
 30
0
 40
0.001846
100
AcDbArc
 50
194.999999999689
 51
270
  0
ARC
  5
143
100
AcDbEntity
  8
SEMA2D
100
AcDbCircle
370
9
 62
7
  6
_SOLID
 10
4.6855167228
 20
4.8506267739
 30
0
 40
0.001846
100
AcDbArc
 50
194.999999999689
 51
270
  0
ARC
  5
144
100
AcDbEntity
  8
SEMA2D
100
AcDbCircle
370
9
 62
7
  6
_SOLID
 10
4.7152409333
 20
4.8506267739
 30
0
 40
0.001846
100
AcDbArc
 50
188.000000002588
 51
270
  0
ARC
  5
145
100
AcDbEntity
  8
SEMA2D
100
AcDbCircle
370
9
 62
7
  6
_SOLID
 10
4.5432501662
 20
4.8653947783
 30
0
 40
0.001846
100
AcDbArc
 50
15.9499988570976
 51
90
  0
ARC
  5
146
100
AcDbEntity
  8
SEMA2D
100
AcDbCircle
370
9
 62
7
  6
_SOLID
 10
4.5343570489
 20
4.8686252905
 30
0
 40
0.0036919999
100
AcDbArc
 50
270
 51
349.999999998009
  0
ARC
  5
147
100
AcDbEntity
  8
SEMA2D
100
AcDbCircle
370
9
 62
7
  6
_SOLID
 10
4.6978215653
 20
4.8843162728
 30
0
 40
0.004615
100
AcDbArc
 50
60.0000000004489
 51
90
  0
ARC
  5
148
100
AcDbEntity
  8
SEMA2D
100
AcDbCircle
370
9
 62
7
  6
_SOLID
 10
4.5218481648
 20
4.8672407938
 30
0
 40
0.001846
100
AcDbArc
 50
9.45999908478233
 51
90
  0
ARC
  5
149
100
AcDbEntity
  8
SEMA2D
100
AcDbCircle
370
9
 62
7
  6
_SOLID
 10
4.712318607
 20
4.8884698225
 30
0
 40
0.001846
100
AcDbArc
 50
45
 51
90
  0
ARC
  5
14A
100
AcDbEntity
  8
SEMA2D
100
AcDbCircle
370
9
 62
7
  6
_SOLID
 10
4.7193858999
 20
4.8866238071
 30
0
 40
0.001846
100
AcDbArc
 50
225.000274658143
 51
270
  0
ARC
  5
14B
100
AcDbEntity
  8
SEMA2D
100
AcDbCircle
370
9
 62
7
  6
_SOLID
 10
4.5434796142
 20
4.8884698225
 30
0
 40
0.001846
100
AcDbArc
 50
90
 51
169.999999998011
  0
ARC
  5
14C
100
AcDbEntity
  8
SEMA2D
100
AcDbCircle
370
9
 62
7
  6
_SOLID
 10
4.5591765124
 20
4.8483192993
 30
0
 40
0.001846
100
AcDbArc
 50
90
 51
145.150100708819
  0
ARC
  5
14D
100
AcDbEntity
  8
SEMA2D
100
AcDbCircle
370
9
 62
7
  6
_SOLID
 10
4.7362794357
 20
4.8686252905
 30
0
 40
0.004615
100
AcDbArc
 50
15.0000028585497
 51
90
  0
ARC
  5
14E
100
AcDbEntity
  8
SEMA2D
100
AcDbCircle
370
9
 62
7
  6
_SOLID
 10
4.7263641137
 20
4.866779275
 30
0
 40
0.004615
100
AcDbArc
 50
90
 51
171.999999997402
  0
ARC
  5
14F
100
AcDbEntity
  8
SEMA2D
100
AcDbCircle
370
9
 62
7
  6
_SOLID
 10
4.7266235429
 20
4.8686252905
 30
0
 40
0.004615
100
AcDbArc
 50
90
 51
171.999999997402
  0
ARC
  5
150
100
AcDbEntity
  8
SEMA2D
100
AcDbCircle
370
9
 62
7
  6
_SOLID
 10
4.7367672104
 20
4.866779275
 30
0
 40
0.004615
100
AcDbArc
 50
15.1387519817309
 51
90
  0
ARC
  5
151
100
AcDbEntity
  8
SEMA2D
100
AcDbCircle
370
9
 62
7
  6
_SOLID
 10
4.5837079811
 20
4.8349357916
 30
0
 40
0.000923
100
AcDbArc
 50
270
 51
345.000000000311
  0
ARC
  5
152
100
AcDbEntity
  8
SEMA2D
100
AcDbCircle
370
9
 62
7
  6
_SOLID
 10
4.562972464
 20
4.8349357916
 30
0
 40
0.000923
100
AcDbArc
 50
194.999999999689
 51
270
  0
ARC
  5
153
100
AcDbEntity
  8
SEMA2D
100
AcDbCircle
370
9
 62
7
  6
_SOLID
 10
4.7235030311
 20
4.8663178159
 30
0
 40
0.001846
100
AcDbArc
 50
90
 51
171.999999997412
  0
ARC
  5
154
100
AcDbEntity
  8
SEMA2D
100
AcDbCircle
370
9
 62
7
  6
_SOLID
 10
4.7157061773
 20
4.8458272291
 30
0
 40
0.0029535987
100
AcDbArc
 50
147.891159058039
 51
164.99998474422
  0
ARC
  5
155
100
AcDbEntity
  8
SEMA2D
100
AcDbCircle
370
9
 62
7
  6
_SOLID
 10
4.5644485432
 20
4.8483192993
 30
0
 40
0.000923
100
AcDbArc
 50
209.999938967625
 51
270
  0
ARC
  5
156
100
AcDbEntity
  8
SEMA2D
100
AcDbCircle
370
9
 62
7
  6
_SOLID
 10
4.573549934
 20
4.8506267739
 30
0
 40
0.001846
100
AcDbArc
 50
270
 51
281.795440675135
  0
ARC
  5
157
100
AcDbEntity
  8
SEMA2D
100
AcDbCircle
370
9
 62
7
  6
_SOLID
 10
4.5565254021
 20
4.8501653148
 30
0
 40
0.0013844999
100
AcDbArc
 50
270
 51
325.150085447194
  0
ARC
  5
158
100
AcDbEntity
  8
SEMA2D
100
AcDbCircle
370
9
 62
7
  6
_SOLID
 10
4.5620505142
 20
4.8469348026
 30
0
 40
0.001846
100
AcDbArc
 50
29.9999999995661
 51
90
  0
ARC
  5
159
100
AcDbEntity
  8
SEMA2D
100
AcDbCircle
370
9
 62
7
  6
_SOLID
 10
4.7105241197
 20
4.8483192993
 30
0
 40
0.000923
100
AcDbArc
 50
190.000000001962
 51
270
  0
ARC
  5
15A
100
AcDbEntity
  8
SEMA2D
100
AcDbCircle
370
9
 62
7
  6
_SOLID
 10
4.7181772965
 20
4.8483192993
 30
0
 40
0.000923
100
AcDbArc
 50
270
 51
-7.99998283587216
  0
ARC
  5
15B
100
AcDbEntity
  8
SEMA2D
100
AcDbCircle
370
9
 62
7
  6
_SOLID
 10
4.7176497656
 20
4.8505345059
 30
0
 40
0.0017537
100
AcDbArc
 50
270
 51
351.999999997416
  0
ARC
  5
15C
100
AcDbEntity
  8
SEMA2D
100
AcDbCircle
370
9
 62
7
  6
_SOLID
 10
4.5892149734
 20
4.8843162728
 30
0
 40
0.004615
100
AcDbArc
 50
90
 51
120.000396725353
  0
ARC
  5
15D
100
AcDbEntity
  8
SEMA2D
100
AcDbCircle
370
9
 62
7
  6
_SOLID
 10
4.7074888128
 20
4.8893928004
 30
0
 40
0.004615
100
AcDbArc
 50
239.999710083232
 51
270
  0
ARC
  5
15E
100
AcDbEntity
  8
SEMA2D
100
AcDbCircle
370
9
 62
7
  6
_SOLID
 10
4.5795477259
 20
4.8893928004
 30
0
 40
0.004615
100
AcDbArc
 50
270
 51
300.000274661456
  0
ARC
  5
15F
100
AcDbEntity
  8
SEMA2D
100
AcDbCircle
370
9
 62
7
  6
_SOLID
 10
4.7100667435
 20
4.8520112706
 30
0
 40
0.001846
100
AcDbArc
 50
194.999999999689
 51
270
  0
ARC
  5
160
100
AcDbEntity
  8
SEMA2D
100
AcDbCircle
370
9
 62
7
  6
_SOLID
 10
4.6307374614
 20
4.8547524286
 30
0
 40
0.0092060762
100
AcDbArc
 50
35.0717735277597
 51
96.908058168387
  0
ARC
  5
161
100
AcDbEntity
  8
SEMA2D
100
AcDbCircle
370
9
 62
7
  6
_SOLID
 10
4.629739933
 20
5.0704974009
 30
0
 40
0.2090687454
100
AcDbArc
 50
263.653259275114
 51
270
  0
ARC
  5
162
100
AcDbEntity
  8
SEMA2D
100
AcDbCircle
370
9
 62
7
  6
_SOLID
 10
4.6308499056
 20
5.019526012
 30
0
 40
0.1556391269
100
AcDbArc
 50
262.685028074712
 51
269.550994873793
  0
ARC
  5
163
100
AcDbEntity
  8
SEMA2D
100
AcDbCircle
370
9
 62
7
  6
_SOLID
 10
4.6101990122
 20
4.8614502026
 30
0
 40
0.0037962601
100
AcDbArc
 50
77.3038177465338
 51
166.894302365742
  0
ARC
  5
164
100
AcDbEntity
  8
SEMA2D
100
AcDbCircle
370
9
 62
7
  6
_SOLID
 10
4.5841801989
 20
4.8601820541
 30
0
 40
0.0095733535
100
AcDbArc
 50
37.1432380686208
 51
145.471267699422
  0
ARC
  5
165
100
AcDbEntity
  8
SEMA2D
100
AcDbCircle
370
9
 62
7
  6
_SOLID
 10
4.6298860091
 20
5.0737024618
 30
0
 40
0.2122770399
100
AcDbArc
 50
256.928222653558
 51
259.556274415369
  0
LINE
  5
166
100
AcDbEntity
  8
SEMA2D
100
AcDbLine
370
9
 62
7
  6
_SOLID
 10
4.5808646309
 20
4.8503698779
 30
0
 11
4.5818749744
 21
4.8669260813
 31
0
  0
ARC
  5
167
100
AcDbEntity
  8
SEMA2D
100
AcDbCircle
370
9
 62
7
  6
_SOLID
 10
4.5203131366
 20
4.8672365619
 30
0
 40
0.0018502158
100
AcDbArc
 50
90
 51
169.255249020933
  0
ARC
  5
168
100
AcDbEntity
  8
SEMA2D
100
AcDbCircle
370
9
 62
7
  6
_SOLID
 10
4.5262758213
 20
4.8626353217
 30
0
 40
0.0018607808
100
AcDbArc
 50
189.680969237396
 51
270
  0
ARC
  5
169
100
AcDbEntity
  8
SEMA2D
100
AcDbCircle
370
9
 62
7
  6
_SOLID
 10
4.5386055636
 20
4.8619210793
 30
0
 40
0.0012589742
100
AcDbArc
 50
245.026412966577
 51
9.02359485883363
  0
ARC
  5
16A
100
AcDbEntity
  8
SEMA2D
100
AcDbCircle
370
9
 62
7
  6
_SOLID
 10
4.5431810993
 20
4.8647638632
 30
0
 40
0.0025222129
100
AcDbArc
 50
100.875068664941
 51
153.174926760567
  0
ARC
  5
16B
100
AcDbEntity
  8
SEMA2D
100
AcDbCircle
370
9
 62
7
  6
_SOLID
 10
4.5477850962
 20
4.8626295401
 30
0
 40
0.0018497169
100
AcDbArc
 50
196.036788941387
 51
270
  0
ARC
  5
16C
100
AcDbEntity
  8
SEMA2D
100
AcDbCircle
370
9
 62
7
  6
_SOLID
 10
4.5600806254
 20
4.8638868404
 30
0
 40
0.0031553735
100
AcDbArc
 50
259.956268311343
 51
6.54373836597393
  0
ARC
  5
16D
100
AcDbEntity
  8
SEMA2D
100
AcDbCircle
370
9
 62
7
  6
_SOLID
 10
4.521517359
 20
4.8502851797
 30
0
 40
0.0015232892
100
AcDbArc
 50
190.965667724177
 51
279.034332276402
  0
ARC
  5
16E
100
AcDbEntity
  8
SEMA2D
100
AcDbCircle
370
9
 62
7
  6
_SOLID
 10
4.7035686153
 20
4.8626256062
 30
0
 40
0.0091718771
100
AcDbArc
 50
36.7296028158586
 51
153.286209103566
  0
ARC
  5
16F
100
AcDbEntity
  8
SEMA2D
100
AcDbCircle
370
9
 62
7
  6
_SOLID
 10
4.6997099596
 20
4.864673741
 30
0
 40
0.004896556
100
AcDbArc
 50
19.6267776477401
 51
130.027084352539
  0
ARC
  5
170
100
AcDbEntity
  8
SEMA2D
100
AcDbCircle
370
9
 62
7
  6
_SOLID
 10
4.7668612677
 20
4.8829292131
 30
0
 40
0.0018485871
100
AcDbArc
 50
12.0649032600833
 51
90
  0
ARC
  5
171
100
AcDbEntity
  8
SEMA2D
100
AcDbCircle
370
9
 62
7
  6
_SOLID
 10
4.760998823
 20
4.8666379524
 30
0
 40
0.0015906909
100
AcDbArc
 50
-4.55113124810805
 51
106.414581298346
  0
ARC
  5
172
100
AcDbEntity
  8
SEMA2D
100
AcDbCircle
370
9
 62
7
  6
_SOLID
 10
4.7485177296
 20
4.866129644
 30
0
 40
0.0021622747
100
AcDbArc
 50
109.821258544175
 51
180.049804689188
  0
ARC
  5
173
100
AcDbEntity
  8
SEMA2D
100
AcDbCircle
370
9
 62
7
  6
_SOLID
 10
4.7438456792
 20
4.8653886391
 30
0
 40
0.0018398606
100
AcDbArc
 50
194.853149415827
 51
270
  0
ARC
  5
174
100
AcDbEntity
  8
SEMA2D
100
AcDbCircle
370
9
 62
7
  6
_SOLID
 10
4.7442526597
 20
4.8653886391
 30
0
 40
0.0018398606
100
AcDbArc
 50
270
 51
345.146850584173
  0
ARC
  5
175
100
AcDbEntity
  8
SEMA2D
100
AcDbCircle
370
9
 62
7
  6
_SOLID
 10
4.7648861486
 20
4.8653886391
 30
0
 40
0.0018398606
100
AcDbArc
 50
194.853149415827
 51
270
  0
ARC
  5
176
100
AcDbEntity
  8
SEMA2D
100
AcDbCircle
370
9
 62
7
  6
_SOLID
 10
4.7652931291
 20
4.8653886391
 30
0
 40
0.0018398606
100
AcDbArc
 50
270
 51
345.146850584173
  0
ARC
  5
177
100
AcDbEntity
  8
SEMA2D
100
AcDbCircle
370
9
 62
7
  6
_SOLID
 10
4.6556623059
 20
5.0219701601
 30
0
 40
0.1581043303
100
AcDbArc
 50
269.55487060435
 51
277.295806885313
  0
ARC
  5
178
100
AcDbEntity
  8
SEMA2D
100
AcDbCircle
370
9
 62
7
  6
_SOLID
 10
4.6770638305
 20
4.8619855119
 30
0
 40
0.0034263262
100
AcDbArc
 50
24.5336017599226
 51
112.72401428035
  0
ARC
  5
179
100
AcDbEntity
  8
SEMA2D
100
AcDbCircle
370
9
 62
7
  6
_SOLID
 10
4.6533016342
 20
4.8593636824
 30
0
 40
0.004646997
100
AcDbArc
 50
75.8961334201625
 51
171.596542361131
  0
ARC
  5
17A
100
AcDbEntity
  8
SEMA2D
100
AcDbCircle
370
9
 62
7
  6
_SOLID
 10
4.6571423787
 20
5.0717957092
 30
0
 40
0.2103670388
100
AcDbArc
 50
270.056243895329
 51
275.110565184962
  0
ARC
  5
17B
100
AcDbEntity
  8
SEMA2D
100
AcDbCircle
370
9
 62
7
  6
_SOLID
 10
4.6296647119
 20
5.0721980406
 30
0
 40
0.1952657253
100
AcDbArc
 50
253.696487425558
 51
270
  0
ARC
  5
17C
100
AcDbEntity
  8
SEMA2D
100
AcDbCircle
370
9
 62
7
  6
_SOLID
 10
4.6300336647
 20
5.0461014582
 30
0
 40
0.1704952121
100
AcDbArc
 50
251.114685058047
 51
269.868804931882
  0
ARC
  5
17D
100
AcDbEntity
  8
SEMA2D
100
AcDbCircle
370
9
 62
7
  6
_SOLID
 10
4.6307414699
 20
5.0187618805
 30
0
 40
0.1451688558
100
AcDbArc
 50
247.355056765154
 51
269.566528317677
  0
ARC
  5
17E
100
AcDbEntity
  8
SEMA2D
100
AcDbCircle
370
9
 62
7
  6
_SOLID
 10
4.6295227784
 20
5.0682793928
 30
0
 40
0.1898252964
100
AcDbArc
 50
255.812316893987
 51
270
  0
ARC
  5
17F
100
AcDbEntity
  8
SEMA2D
100
AcDbCircle
370
9
 62
7
  6
_SOLID
 10
4.657449432
 20
5.0686582399
 30
0
 40
0.1902041137
100
AcDbArc
 50
270
 51
284.177215573478
  0
ARC
  5
180
100
AcDbEntity
  8
SEMA2D
100
AcDbCircle
370
9
 62
7
  6
_SOLID
 10
4.6572793502
 20
5.0706018282
 30
0
 40
0.1936695874
100
AcDbArc
 50
270
 51
286.364196778259
  0
ARC
  5
181
100
AcDbEntity
  8
SEMA2D
100
AcDbCircle
370
9
 62
7
  6
_SOLID
 10
4.6567825752
 20
5.0454713179
 30
0
 40
0.1698651612
100
AcDbArc
 50
270.185729980373
 51
288.914031979595
  0
ARC
  5
182
100
AcDbEntity
  8
SEMA2D
100
AcDbCircle
370
9
 62
7
  6
_SOLID
 10
4.6560135561
 20
5.0185159517
 30
0
 40
0.1449239254
100
AcDbArc
 50
270.521728517842
 51
292.65869140647
  0
ARC
  5
183
100
AcDbEntity
  8
SEMA2D
100
AcDbCircle
370
9
 62
7
  6
_SOLID
 10
4.5660322237
 20
4.8831183983
 30
0
 40
0.0016686849
100
AcDbArc
 50
83.9626083392528
 51
182.537384033738
  0
LINE
  5
184
100
AcDbEntity
  8
SEMA2D
100
AcDbLine
370
9
 62
7
  6
_SOLID
 10
4.6296432394
 20
4.8735971523
 30
0
 11
4.6573332029
 21
4.8735979868
 31
0
  0
LINE
  5
185
100
AcDbEntity
  8
SEMA2D
100
AcDbLine
370
9
 62
7
  6
_SOLID
 10
4.3350682262
 20
4.7271413534
 30
0
 11
4.3336129974
 21
4.7274265021
 31
0
  0
LINE
  5
186
100
AcDbEntity
  8
SEMA2D
100
AcDbLine
370
9
 62
7
  6
_SOLID
 10
4.33940791
 20
4.7266120642
 30
0
 11
4.3336129974
 21
4.7274265021
 31
0
  0
LINE
  5
187
100
AcDbEntity
  8
SEMA2D
100
AcDbLine
370
9
 62
7
  6
_SOLID
 10
4.3400739993
 20
4.7247840493
 30
0
 11
4.3377665061
 21
4.7251083582
 31
0
  0
LINE
  5
188
100
AcDbEntity
  8
SEMA2D
100
AcDbLine
370
9
 62
7
  6
_SOLID
 10
4.3085366043
 20
4.717190656
 30
0
 11
4.3009241897
 21
4.7188086837
 31
0
  0
LINE
  5
189
100
AcDbEntity
  8
SEMA2D
100
AcDbLine
370
9
 62
7
  6
_SOLID
 10
4.3085998598
 20
4.7189963191
 30
0
 11
4.3065254393
 21
4.7194372147
 31
0
  0
LINE
  5
18A
100
AcDbEntity
  8
SEMA2D
100
AcDbLine
370
9
 62
7
  6
_SOLID
 10
4.3044593263
 20
4.7196670502
 30
0
 11
4.3040584329
 21
4.7197522848
 31
0
  0
LINE
  5
18B
100
AcDbEntity
  8
SEMA2D
100
AcDbLine
370
9
 62
7
  6
_SOLID
 10
4.3352544124
 20
4.7248608797
 30
0
 11
4.3169989961
 21
4.7274265021
 31
0
  0
LINE
  5
18C
100
AcDbEntity
  8
SEMA2D
100
AcDbLine
370
9
 62
7
  6
_SOLID
 10
4.3035376373
 20
4.7186911434
 30
0
 11
4.3011150363
 21
4.7189457744
 31
0
  0
LINE
  5
18D
100
AcDbEntity
  8
SEMA2D
100
AcDbLine
370
9
 62
7
  6
_SOLID
 10
4.3336129974
 20
4.7288109988
 30
0
 11
4.313306995
 21
4.7288109988
 31
0
  0
LINE
  5
18E
100
AcDbEntity
  8
SEMA2D
100
AcDbLine
370
9
 62
7
  6
_SOLID
 10
4.3336129974
 20
4.7274265021
 30
0
 11
4.3169989961
 21
4.7274265021
 31
0
  0
LINE
  5
18F
100
AcDbEntity
  8
SEMA2D
100
AcDbLine
370
9
 62
7
  6
_SOLID
 10
4.3024252805
 20
4.720527026
 30
0
 11
4.3000026795
 21
4.7207816571
 31
0
  0
LINE
  5
190
100
AcDbEntity
  8
SEMA2D
100
AcDbLine
370
9
 62
7
  6
_SOLID
 10
4.3352544124
 20
4.7230328649
 30
0
 11
4.3232030871
 21
4.7247265309
 31
0
  0
LINE
  5
191
100
AcDbEntity
  8
SEMA2D
100
AcDbLine
370
9
 62
7
  6
_SOLID
 10
4.3169989961
 20
4.7274265021
 30
0
 11
4.3350421119
 21
4.7251480549
 31
0
  0
LINE
  5
192
100
AcDbEntity
  8
SEMA2D
100
AcDbLine
370
9
 62
7
  6
_SOLID
 10
4.3431861478
 20
4.7136193841
 30
0
 11
4.355080888
 21
4.7104322046
 31
0
  0
LINE
  5
193
100
AcDbEntity
  8
SEMA2D
100
AcDbLine
370
9
 62
7
  6
_SOLID
 10
4.3560038882
 20
4.7128595441
 30
0
 11
4.3382117192
 21
4.717626962
 31
0
  0
LINE
  5
194
100
AcDbEntity
  8
SEMA2D
100
AcDbLine
370
9
 62
7
  6
_SOLID
 10
4.3394873667
 20
4.7155349582
 30
0
 11
4.3352544124
 21
4.716669175
 31
0
  0
LINE
  5
195
100
AcDbEntity
  8
SEMA2D
100
AcDbLine
370
9
 62
7
  6
_SOLID
 10
4.3557649966
 20
4.7106947034
 30
0
 11
4.3560038882
 21
4.710630688
 31
0
  0
LINE
  5
196
100
AcDbEntity
  8
SEMA2D
100
AcDbLine
370
9
 62
7
  6
_SOLID
 10
4.3400739993
 20
4.718791756
 30
0
 11
4.3377664986
 21
4.719410035
 31
0
  0
LINE
  5
197
100
AcDbEntity
  8
SEMA2D
100
AcDbLine
370
9
 62
7
  6
_SOLID
 10
4.3216139975
 20
4.7249838441
 30
0
 11
4.3201043683
 21
4.7249838441
 31
0
  0
LINE
  5
198
100
AcDbEntity
  8
SEMA2D
100
AcDbLine
370
9
 62
7
  6
_SOLID
 10
4.3394873667
 20
4.69645271
 30
0
 11
4.3415869552
 21
4.6958901614
 31
0
  0
LINE
  5
199
100
AcDbEntity
  8
SEMA2D
100
AcDbLine
370
9
 62
7
  6
_SOLID
 10
4.313306995
 20
4.7080434888
 30
0
 11
4.3129864412
 21
4.7079869836
 31
0
  0
LINE
  5
19A
100
AcDbEntity
  8
SEMA2D
100
AcDbLine
370
9
 62
7
  6
_SOLID
 10
4.3431861478
 20
4.7048437327
 30
0
 11
4.3409969959
 21
4.7048437327
 31
0
  0
LINE
  5
19B
100
AcDbEntity
  8
SEMA2D
100
AcDbLine
370
9
 62
7
  6
_SOLID
 10
4.3010510805
 20
4.726627025
 30
0
 11
4.313306995
 21
4.72834948
 31
0
  0
LINE
  5
19C
100
AcDbEntity
  8
SEMA2D
100
AcDbLine
370
9
 62
7
  6
_SOLID
 10
4.3000026795
 20
4.7247990101
 30
0
 11
4.3044593263
 21
4.7254253357
 31
0
  0
LINE
  5
19D
100
AcDbEntity
  8
SEMA2D
100
AcDbLine
370
9
 62
7
  6
_SOLID
 10
4.3560038882
 20
4.7097435921
 30
0
 11
4.3557649966
 21
4.7096795767
 31
0
  0
LINE
  5
19E
100
AcDbEntity
  8
SEMA2D
100
AcDbLine
370
9
 62
7
  6
_SOLID
 10
4.355080888
 20
4.7080309122
 30
0
 11
4.3431861478
 21
4.7048437327
 31
0
  0
LINE
  5
19F
100
AcDbEntity
  8
SEMA2D
100
AcDbLine
370
9
 62
7
  6
_SOLID
 10
4.3560038882
 20
4.7075146764
 30
0
 11
4.3557649966
 21
4.7074507206
 31
0
  0
LINE
  5
1A0
100
AcDbEntity
  8
SEMA2D
100
AcDbLine
370
9
 62
7
  6
_SOLID
 10
4.3043817061
 20
4.6948044031
 30
0
 11
4.3014647889
 21
4.6942900747
 31
0
  0
LINE
  5
1A1
100
AcDbEntity
  8
SEMA2D
100
AcDbLine
370
9
 62
7
  6
_SOLID
 10
4.3250371817
 20
4.7059908241
 30
0
 11
4.3169989961
 21
4.7071205109
 31
0
  0
LINE
  5
1A2
100
AcDbEntity
  8
SEMA2D
100
AcDbLine
370
9
 62
7
  6
_SOLID
 10
4.3423814963
 20
4.6958901614
 30
0
 11
4.3415869552
 21
4.6958901614
 31
0
  0
LINE
  5
1A3
100
AcDbEntity
  8
SEMA2D
100
AcDbLine
370
9
 62
7
  6
_SOLID
 10
4.3023719418
 20
4.69604263
 30
0
 11
4.3084101084
 21
4.6971072882
 31
0
  0
LINE
  5
1A4
100
AcDbEntity
  8
SEMA2D
100
AcDbLine
370
9
 62
7
  6
_SOLID
 10
4.355080888
 20
4.7080309122
 30
0
 11
4.3557649966
 21
4.7080309122
 31
0
  0
LINE
  5
1A5
100
AcDbEntity
  8
SEMA2D
100
AcDbLine
370
9
 62
7
  6
_SOLID
 10
4.3000026795
 20
4.7207816571
 30
0
 11
4.2994619983
 21
4.7207816571
 31
0
  0
LINE
  5
1A6
100
AcDbEntity
  8
SEMA2D
100
AcDbLine
370
9
 62
7
  6
_SOLID
 10
4.3368434983
 20
4.719410035
 30
0
 11
4.3377664986
 21
4.719410035
 31
0
  0
LINE
  5
1A7
100
AcDbEntity
  8
SEMA2D
100
AcDbLine
370
9
 62
7
  6
_SOLID
 10
4.3409969959
 20
4.718791756
 30
0
 11
4.3400739993
 21
4.718791756
 31
0
  0
LINE
  5
1A8
100
AcDbEntity
  8
SEMA2D
100
AcDbLine
370
9
 62
7
  6
_SOLID
 10
4.3368434983
 20
4.7230328649
 30
0
 11
4.3352544124
 21
4.7230328649
 31
0
  0
LINE
  5
1A9
100
AcDbEntity
  8
SEMA2D
100
AcDbLine
370
9
 62
7
  6
_SOLID
 10
4.2994619983
 20
4.7247990101
 30
0
 11
4.3000026795
 21
4.7247990101
 31
0
  0
LINE
  5
1AA
100
AcDbEntity
  8
SEMA2D
100
AcDbLine
370
9
 62
7
  6
_SOLID
 10
4.3409969959
 20
4.7247840493
 30
0
 11
4.3400739993
 21
4.7247840493
 31
0
  0
LINE
  5
1AB
100
AcDbEntity
  8
SEMA2D
100
AcDbLine
370
9
 62
7
  6
_SOLID
 10
4.3232030871
 20
4.7247265309
 30
0
 11
4.3216139975
 21
4.7247265309
 31
0
  0
LINE
  5
1AC
100
AcDbEntity
  8
SEMA2D
100
AcDbLine
370
9
 62
7
  6
_SOLID
 10
4.3409969959
 20
4.7155349582
 30
0
 11
4.3394873667
 21
4.7155349582
 31
0
  0
LINE
  5
1AD
100
AcDbEntity
  8
SEMA2D
100
AcDbLine
370
9
 62
7
  6
_SOLID
 10
4.355080888
 20
4.7104322046
 30
0
 11
4.3557649966
 21
4.7104322046
 31
0
  0
LINE
  5
1AE
100
AcDbEntity
  8
SEMA2D
100
AcDbLine
370
9
 62
7
  6
_SOLID
 10
4.3560038882
 20
4.7097435921
 30
0
 11
4.3566879968
 21
4.7097435921
 31
0
  0
LINE
  5
1AF
100
AcDbEntity
  8
SEMA2D
100
AcDbLine
370
9
 62
7
  6
_SOLID
 10
4.313306995
 20
4.7085050076
 30
0
 11
4.3169989961
 21
4.7085050076
 31
0
  0
LINE
  5
1B0
100
AcDbEntity
  8
SEMA2D
100
AcDbLine
370
9
 62
7
  6
_SOLID
 10
4.3560038882
 20
4.710630688
 30
0
 11
4.3566879968
 21
4.710630688
 31
0
  0
LINE
  5
1B1
100
AcDbEntity
  8
SEMA2D
100
AcDbLine
370
9
 62
7
  6
_SOLID
 10
4.3431861478
 20
4.7136194437
 30
0
 11
4.3409969959
 21
4.7136194437
 31
0
  0
LINE
  5
1B2
100
AcDbEntity
  8
SEMA2D
100
AcDbLine
370
9
 62
7
  6
_SOLID
 10
4.3114609945
 20
4.7135793298
 30
0
 11
4.3129864412
 21
4.7135793298
 31
0
  0
LINE
  5
1B3
100
AcDbEntity
  8
SEMA2D
100
AcDbLine
370
9
 62
7
  6
_SOLID
 10
4.3114609945
 20
4.7117355197
 30
0
 11
4.3216139975
 21
4.7117355197
 31
0
  0
LINE
  5
1B4
100
AcDbEntity
  8
SEMA2D
100
AcDbLine
370
9
 62
7
  6
_SOLID
 10
4.355080888
 20
4.705356273
 30
0
 11
4.3431093174
 21
4.7021484702
 31
0
  0
LINE
  5
1B5
100
AcDbEntity
  8
SEMA2D
100
AcDbLine
370
9
 62
7
  6
_SOLID
 10
4.3373049985
 20
4.3004615038
 30
0
 11
4.3365134339
 21
4.3011938959
 31
0
  0
LINE
  5
1B6
100
AcDbEntity
  8
SEMA2D
100
AcDbLine
370
9
 62
7
  6
_SOLID
 10
4.3396124992
 20
4.3966249257
 30
0
 11
4.3381028663
 21
4.3966249257
 31
0
  0
LINE
  5
1B7
100
AcDbEntity
  8
SEMA2D
100
AcDbLine
370
9
 62
7
  6
_SOLID
 10
4.3409969959
 20
4.3937428623
 30
0
 11
4.3394873667
 21
4.3937428623
 31
0
  0
LINE
  5
1B8
100
AcDbEntity
  8
SEMA2D
100
AcDbLine
370
9
 62
7
  6
_SOLID
 10
4.3427771519
 20
4.3024831891
 30
0
 11
4.3269170973
 21
4.3126143843
 31
0
  0
LINE
  5
1B9
100
AcDbEntity
  8
SEMA2D
100
AcDbLine
370
9
 62
7
  6
_SOLID
 10
4.3411896828
 20
4.3336415916
 30
0
 11
4.3394873667
 21
4.3340977162
 31
0
  0
LINE
  5
1BA
100
AcDbEntity
  8
SEMA2D
100
AcDbLine
370
9
 62
7
  6
_SOLID
 10
4.3043816912
 20
4.692664954
 30
0
 11
4.3043817061
 21
4.6948044031
 31
0
  0
LINE
  5
1BB
100
AcDbEntity
  8
SEMA2D
100
AcDbLine
370
9
 62
7
  6
_SOLID
 10
4.3014647889
 20
4.6931839317
 30
0
 11
4.3014647889
 21
4.6942900747
 31
0
  0
LINE
  5
1BC
100
AcDbEntity
  8
SEMA2D
100
AcDbLine
370
9
 62
7
  6
_SOLID
 10
4.300846495
 20
4.6932493776
 30
0
 11
4.300846495
 21
4.6942246288
 31
0
  0
LINE
  5
1BD
100
AcDbEntity
  8
SEMA2D
100
AcDbLine
370
9
 62
7
  6
_SOLID
 10
4.3044593263
 20
4.7196670502
 30
0
 11
4.3044593263
 21
4.7254253357
 31
0
  0
LINE
  5
1BE
100
AcDbEntity
  8
SEMA2D
100
AcDbLine
370
9
 62
7
  6
_SOLID
 10
4.3064621913
 20
4.3262944549
 30
0
 11
4.3064621913
 21
4.6949602097
 31
0
  0
LINE
  5
1BF
100
AcDbEntity
  8
SEMA2D
100
AcDbLine
370
9
 62
7
  6
_SOLID
 10
4.305
 20
4.7194372147
 30
0
 11
4.305
 21
4.7255773276
 31
0
  0
LINE
  5
1C0
100
AcDbEntity
  8
SEMA2D
100
AcDbLine
370
9
 62
7
  6
_SOLID
 10
4.305
 20
4.3262944549
 30
0
 11
4.305
 21
4.6949570506
 31
0
  0
LINE
  5
1C1
100
AcDbEntity
  8
SEMA2D
100
AcDbLine
370
9
 62
7
  6
_SOLID
 10
4.3000026795
 20
4.7207816571
 30
0
 11
4.3000026795
 21
4.7247990101
 31
0
  0
LINE
  5
1C2
100
AcDbEntity
  8
SEMA2D
100
AcDbLine
370
9
 62
7
  6
_SOLID
 10
4.3552598137
 20
4.3100015997
 30
0
 11
4.3541591468
 21
4.3113133043
 31
0
  0
LINE
  5
1C3
100
AcDbEntity
  8
SEMA2D
100
AcDbLine
370
9
 62
7
  6
_SOLID
 10
4.3409969959
 20
4.4113181263
 30
0
 11
4.3394873667
 21
4.4113181263
 31
0
  0
LINE
  5
1C4
100
AcDbEntity
  8
SEMA2D
100
AcDbLine
370
9
 62
7
  6
_SOLID
 10
4.3396124992
 20
4.4084360629
 30
0
 11
4.3381028663
 21
4.4084360629
 31
0
  0
LINE
  5
1C5
100
AcDbEntity
  8
SEMA2D
100
AcDbLine
370
9
 62
7
  6
_SOLID
 10
4.3555786762
 20
4.3100020468
 30
0
 11
4.3544769327
 21
4.3113150626
 31
0
  0
LINE
  5
1C6
100
AcDbEntity
  8
SEMA2D
100
AcDbLine
370
9
 62
7
  6
_SOLID
 10
4.2994619983
 20
4.7206142872
 30
0
 11
4.2994619983
 21
4.7247990101
 31
0
  0
LINE
  5
1C7
100
AcDbEntity
  8
SEMA2D
100
AcDbLine
370
9
 62
7
  6
_SOLID
 10
4.3466458025
 20
4.3119815617
 30
0
 11
4.3464953567
 21
4.3120370835
 31
0
  0
LINE
  5
1C8
100
AcDbEntity
  8
SEMA2D
100
AcDbLine
370
9
 62
7
  6
_SOLID
 10
4.3464953567
 20
4.3120370835
 30
0
 11
4.3463286723
 21
4.3120874196
 31
0
  0
LINE
  5
1C9
100
AcDbEntity
  8
SEMA2D
100
AcDbLine
370
9
 62
7
  6
_SOLID
 10
4.3299209963
 20
4.3
 30
0
 11
4.3409969959
 21
4.3
 31
0
  0
LINE
  5
1CA
100
AcDbEntity
  8
SEMA2D
100
AcDbLine
370
9
 62
7
  6
_SOLID
 10
4.3552598137
 20
4.3100015997
 30
0
 11
4.3555786762
 21
4.3100020468
 31
0
  0
LINE
  5
1CB
100
AcDbEntity
  8
SEMA2D
100
AcDbLine
370
9
 62
7
  6
_SOLID
 10
4.3541591468
 20
4.3113133043
 30
0
 11
4.3544769327
 21
4.3113150626
 31
0
  0
LINE
  5
1CC
100
AcDbEntity
  8
SEMA2D
100
AcDbLine
370
9
 62
7
  6
_SOLID
 10
4.3299209963
 20
4.3004615038
 30
0
 11
4.3373049985
 21
4.3004615038
 31
0
  0
LINE
  5
1CD
100
AcDbEntity
  8
SEMA2D
100
AcDbLine
370
9
 62
7
  6
_SOLID
 10
4.3368608656
 20
4.301489982
 30
0
 11
4.3251557651
 21
4.303553912
 31
0
  0
LINE
  5
1CE
100
AcDbEntity
  8
SEMA2D
100
AcDbLine
370
9
 62
7
  6
_SOLID
 10
4.3373049985
 20
4.3004615038
 30
0
 11
4.3248307857
 21
4.3026610344
 31
0
  0
LINE
  5
1CF
100
AcDbEntity
  8
SEMA2D
100
AcDbLine
370
9
 62
7
  6
_SOLID
 10
4.3559050339
 20
4.308223474
 30
0
 11
4.3562264967
 21
4.3082221627
 31
0
  0
LINE
  5
1D0
100
AcDbEntity
  8
SEMA2D
100
AcDbLine
370
9
 62
7
  6
_SOLID
 10
4.3409969959
 20
4.3013844966
 30
0
 11
4.3547010536
 21
4.3038008987
 31
0
  0
LINE
  5
1D1
100
AcDbEntity
  8
SEMA2D
100
AcDbLine
370
9
 62
7
  6
_SOLID
 10
4.3169989961
 20
4.3110420733
 30
0
 11
4.3409969959
 21
4.3023075044
 31
0
  0
LINE
  5
1D2
100
AcDbEntity
  8
SEMA2D
100
AcDbLine
370
9
 62
7
  6
_SOLID
 10
4.3169989961
 20
4.3104779452
 30
0
 11
4.3409969959
 21
4.3017433911
 31
0
  0
LINE
  5
1D3
100
AcDbEntity
  8
SEMA2D
100
AcDbLine
370
9
 62
7
  6
_SOLID
 10
4.3373049985
 20
4.3014987737
 30
0
 11
4.313306995
 21
4.3102333277
 31
0
  0
LINE
  5
1D4
100
AcDbEntity
  8
SEMA2D
100
AcDbLine
370
9
 62
7
  6
_SOLID
 10
4.3463337797
 20
4.3120861083
 30
0
 11
4.3296495865
 21
4.3165565759
 31
0
  0
LINE
  5
1D5
100
AcDbEntity
  8
SEMA2D
100
AcDbLine
370
9
 62
7
  6
_SOLID
 10
4.3411896828
 20
4.3336415916
 30
0
 11
4.3423814963
 21
4.3336415916
 31
0
  0
LINE
  5
1D6
100
AcDbEntity
  8
SEMA2D
100
AcDbLine
370
9
 62
7
  6
_SOLID
 10
4.3248607743
 20
4.3281514972
 30
0
 11
4.3169989961
 21
4.3281514972
 31
0
  0
LINE
  5
1D7
100
AcDbEntity
  8
SEMA2D
100
AcDbLine
370
9
 62
7
  6
_SOLID
 10
4.3169989961
 20
4.3123618096
 30
0
 11
4.313306995
 21
4.3123618096
 31
0
  0
LINE
  5
1D8
100
AcDbEntity
  8
SEMA2D
100
AcDbLine
370
9
 62
7
  6
_SOLID
 10
4.3064621913
 20
4.3262944549
 30
0
 11
4.313306995
 21
4.3262944549
 31
0
  0
LINE
  5
1D9
100
AcDbEntity
  8
SEMA2D
100
AcDbLine
370
9
 62
7
  6
_SOLID
 10
4.3526042554
 20
4.3125080794
 30
0
 11
4.3423814963
 21
4.3152472704
 31
0
  0
LINE
  5
1DA
100
AcDbEntity
  8
SEMA2D
100
AcDbLine
370
9
 62
7
  6
_SOLID
 10
4.3411896828
 20
4.3153066963
 30
0
 11
4.3265942375
 21
4.3192175358
 31
0
  0
LINE
  5
1DB
100
AcDbEntity
  8
SEMA2D
100
AcDbLine
370
9
 62
7
  6
_SOLID
 10
4.3065254393
 20
4.7194372147
 30
0
 11
4.3065254393
 21
4.7255773276
 31
0
  0
LINE
  5
1DC
100
AcDbEntity
  8
SEMA2D
100
AcDbLine
370
9
 62
7
  6
_SOLID
 10
4.3423814963
 20
4.6968112915
 30
0
 11
4.3423814963
 21
4.6835260123
 31
0
  0
LINE
  5
1DD
100
AcDbEntity
  8
SEMA2D
100
AcDbLine
370
9
 62
7
  6
_SOLID
 10
4.3415869552
 20
4.6958901614
 30
0
 11
4.3415869552
 21
4.6844405859
 31
0
  0
LINE
  5
1DE
100
AcDbEntity
  8
SEMA2D
100
AcDbLine
370
9
 62
7
  6
_SOLID
 10
4.3411896828
 20
4.3153066963
 30
0
 11
4.3411896828
 21
4.3336415916
 31
0
  0
LINE
  5
1DF
100
AcDbEntity
  8
SEMA2D
100
AcDbLine
370
9
 62
7
  6
_SOLID
 10
4.3423814963
 20
4.3145615488
 30
0
 11
4.3423814963
 21
4.334521386
 31
0
  0
LINE
  5
1E0
100
AcDbEntity
  8
SEMA2D
100
AcDbLine
370
9
 62
7
  6
_SOLID
 10
4.3483809981
 20
4.3094127655
 30
0
 11
4.3483809981
 21
4.3042354762
 31
0
  0
LINE
  5
1E1
100
AcDbEntity
  8
SEMA2D
100
AcDbLine
370
9
 62
7
  6
_SOLID
 10
4.3431861478
 20
4.7048437327
 30
0
 11
4.3431861478
 21
4.7136193841
 31
0
  0
LINE
  5
1E2
100
AcDbEntity
  8
SEMA2D
100
AcDbLine
370
9
 62
7
  6
_SOLID
 10
4.3409969959
 20
4.3366376489
 30
0
 11
4.3409969959
 21
4.6811500519
 31
0
  0
LINE
  5
1E3
100
AcDbEntity
  8
SEMA2D
100
AcDbLine
370
9
 62
7
  6
_SOLID
 10
4.3409969959
 20
4.3023075044
 30
0
 11
4.3409969959
 21
4.3
 31
0
  0
LINE
  5
1E4
100
AcDbEntity
  8
SEMA2D
100
AcDbLine
370
9
 62
7
  6
_SOLID
 10
4.3409969959
 20
4.7155349582
 30
0
 11
4.3409969959
 21
4.6991883844
 31
0
  0
LINE
  5
1E5
100
AcDbEntity
  8
SEMA2D
100
AcDbLine
370
9
 62
7
  6
_SOLID
 10
4.355080888
 20
4.7080309122
 30
0
 11
4.355080888
 21
4.7104322046
 31
0
  0
LINE
  5
1E6
100
AcDbEntity
  8
SEMA2D
100
AcDbLine
370
9
 62
7
  6
_SOLID
 10
4.3423814963
 20
4.6844405859
 30
0
 11
4.3415869552
 21
4.6844405859
 31
0
  0
LINE
  5
1E7
100
AcDbEntity
  8
SEMA2D
100
AcDbLine
370
9
 62
7
  6
_SOLID
 10
4.3415869552
 20
4.6844405859
 30
0
 11
4.3394873667
 21
4.6840703815
 31
0
  0
LINE
  5
1E8
100
AcDbEntity
  8
SEMA2D
100
AcDbLine
370
9
 62
7
  6
_SOLID
 10
4.3409969959
 20
4.6051481098
 30
0
 11
4.3394873667
 21
4.6051481098
 31
0
  0
LINE
  5
1E9
100
AcDbEntity
  8
SEMA2D
100
AcDbLine
370
9
 62
7
  6
_SOLID
 10
4.305
 20
4.6909680098
 30
0
 11
4.3023719418
 21
4.6914313763
 31
0
  0
LINE
  5
1EA
100
AcDbEntity
  8
SEMA2D
100
AcDbLine
370
9
 62
7
  6
_SOLID
 10
4.3169989961
 20
4.7274265021
 30
0
 11
4.3201043683
 21
4.7249837845
 31
0
  0
LINE
  5
1EB
100
AcDbEntity
  8
SEMA2D
100
AcDbLine
370
9
 62
7
  6
_SOLID
 10
4.3042525205
 20
4.6926923722
 30
0
 11
4.3014647889
 21
4.6931839317
 31
0
  0
LINE
  5
1EC
100
AcDbEntity
  8
SEMA2D
100
AcDbLine
370
9
 62
7
  6
_SOLID
 10
4.3396124992
 20
4.6022660464
 30
0
 11
4.3381028663
 21
4.6022660464
 31
0
  0
LINE
  5
1ED
100
AcDbEntity
  8
SEMA2D
100
AcDbLine
370
9
 62
7
  6
_SOLID
 10
4.3562264967
 20
4.3082221627
 30
0
 11
4.3562264967
 21
4.3056188553
 31
0
  0
LINE
  5
1EE
100
AcDbEntity
  8
SEMA2D
100
AcDbLine
370
9
 62
7
  6
_SOLID
 10
4.3560038882
 20
4.7097435921
 30
0
 11
4.3560038882
 21
4.710630688
 31
0
  0
LINE
  5
1EF
100
AcDbEntity
  8
SEMA2D
100
AcDbLine
370
9
 62
7
  6
_SOLID
 10
4.3557649966
 20
4.7062478393
 30
0
 11
4.3557649966
 21
4.7122153371
 31
0
  0
LINE
  5
1F0
100
AcDbEntity
  8
SEMA2D
100
AcDbLine
370
9
 62
7
  6
_SOLID
 10
4.3566879968
 20
4.7084062427
 30
0
 11
4.3566879968
 21
4.7119680374
 31
0
  0
LINE
  5
1F1
100
AcDbEntity
  8
SEMA2D
100
AcDbLine
370
9
 62
7
  6
_SOLID
 10
4.3396124992
 20
4.5904549092
 30
0
 11
4.3381028663
 21
4.5904549092
 31
0
  0
LINE
  5
1F2
100
AcDbEntity
  8
SEMA2D
100
AcDbLine
370
9
 62
7
  6
_SOLID
 10
4.3409969959
 20
4.5875728458
 30
0
 11
4.3394873667
 21
4.5875728458
 31
0
  0
LINE
  5
1F3
100
AcDbEntity
  8
SEMA2D
100
AcDbLine
370
9
 62
7
  6
_SOLID
 10
4.3251557651
 20
4.303553912
 30
0
 11
4.325916447
 21
4.3056438595
 31
0
  0
LINE
  5
1F4
100
AcDbEntity
  8
SEMA2D
100
AcDbLine
370
9
 62
7
  6
_SOLID
 10
4.3409969959
 20
4.7247840493
 30
0
 11
4.3409969959
 21
4.7168806523
 31
0
  0
LINE
  5
1F5
100
AcDbEntity
  8
SEMA2D
100
AcDbLine
370
9
 62
7
  6
_SOLID
 10
4.3248607743
 20
4.704221937
 30
0
 11
4.3248607743
 21
4.3281514972
 31
0
  0
LINE
  5
1F6
100
AcDbEntity
  8
SEMA2D
100
AcDbLine
370
9
 62
7
  6
_SOLID
 10
4.3232030871
 20
4.7247265309
 30
0
 11
4.3232030871
 21
4.7062485545
 31
0
  0
LINE
  5
1F7
100
AcDbEntity
  8
SEMA2D
100
AcDbLine
370
9
 62
7
  6
_SOLID
 10
4.3216139975
 20
4.7252534359
 30
0
 11
4.3216139975
 21
4.7074497073
 31
0
  0
LINE
  5
1F8
100
AcDbEntity
  8
SEMA2D
100
AcDbLine
370
9
 62
7
  6
_SOLID
 10
4.3262289989
 20
4.704619798
 30
0
 11
4.3262289989
 21
4.3210143774
 31
0
  0
LINE
  5
1F9
100
AcDbEntity
  8
SEMA2D
100
AcDbLine
370
9
 62
7
  6
_SOLID
 10
4.3336129974
 20
4.7288109988
 30
0
 11
4.3336129974
 21
4.7274265021
 31
0
  0
LINE
  5
1FA
100
AcDbEntity
  8
SEMA2D
100
AcDbLine
370
9
 62
7
  6
_SOLID
 10
4.3299209963
 20
4.3004615038
 30
0
 11
4.3299209963
 21
4.3
 31
0
  0
LINE
  5
1FB
100
AcDbEntity
  8
SEMA2D
100
AcDbLine
370
9
 62
7
  6
_SOLID
 10
4.3201043683
 20
4.7066840857
 30
0
 11
4.3201043683
 21
4.7249837845
 31
0
  0
LINE
  5
1FC
100
AcDbEntity
  8
SEMA2D
100
AcDbLine
370
9
 62
7
  6
_SOLID
 10
4.3129864412
 20
4.7079869836
 30
0
 11
4.3129864412
 21
4.7135793298
 31
0
  0
LINE
  5
1FD
100
AcDbEntity
  8
SEMA2D
100
AcDbLine
370
9
 62
7
  6
_SOLID
 10
4.3129231933
 20
4.7007465094
 30
0
 11
4.3129231933
 21
4.7078088849
 31
0
  0
LINE
  5
1FE
100
AcDbEntity
  8
SEMA2D
100
AcDbLine
370
9
 62
7
  6
_SOLID
 10
4.3114609945
 20
4.7007432311
 30
0
 11
4.3114609945
 21
4.7135793298
 31
0
  0
LINE
  5
1FF
100
AcDbEntity
  8
SEMA2D
100
AcDbLine
370
9
 62
7
  6
_SOLID
 10
4.313306995
 20
4.3102333277
 30
0
 11
4.313306995
 21
4.7288109988
 31
0
  0
LINE
  5
200
100
AcDbEntity
  8
SEMA2D
100
AcDbLine
370
9
 62
7
  6
_SOLID
 10
4.3169989961
 20
4.3104779452
 30
0
 11
4.3169989961
 21
4.7288109988
 31
0
  0
LINE
  5
201
100
AcDbEntity
  8
SEMA2D
100
AcDbLine
370
9
 62
7
  6
_SOLID
 10
4.3262669298
 20
4.316967073
 30
0
 11
4.326274697
 21
4.3146759003
 31
0
  0
LINE
  5
202
100
AcDbEntity
  8
SEMA2D
100
AcDbLine
370
9
 62
7
  6
_SOLID
 10
4.3262788805
 20
4.3135136991
 30
0
 11
4.3262760642
 21
4.3142875164
 31
0
  0
LINE
  5
203
100
AcDbEntity
  8
SEMA2D
100
AcDbLine
370
9
 62
7
  6
_SOLID
 10
4.3350421119
 20
4.7270813316
 30
0
 11
4.3350421119
 21
4.7251480549
 31
0
  0
LINE
  5
204
100
AcDbEntity
  8
SEMA2D
100
AcDbLine
370
9
 62
7
  6
_SOLID
 10
4.3396124992
 20
4.6022660464
 30
0
 11
4.3396124992
 21
4.5904549092
 31
0
  0
LINE
  5
205
100
AcDbEntity
  8
SEMA2D
100
AcDbLine
370
9
 62
7
  6
_SOLID
 10
4.3394873667
 20
4.69645271
 30
0
 11
4.3394873667
 21
4.7155349582
 31
0
  0
LINE
  5
206
100
AcDbEntity
  8
SEMA2D
100
AcDbLine
370
9
 62
7
  6
_SOLID
 10
4.3394873667
 20
4.6051481098
 30
0
 11
4.3394873667
 21
4.6840703815
 31
0
  0
LINE
  5
207
100
AcDbEntity
  8
SEMA2D
100
AcDbLine
370
9
 62
7
  6
_SOLID
 10
4.3396124992
 20
4.4084360629
 30
0
 11
4.3396124992
 21
4.3966249257
 31
0
  0
LINE
  5
208
100
AcDbEntity
  8
SEMA2D
100
AcDbLine
370
9
 62
7
  6
_SOLID
 10
4.3400739993
 20
4.7247840493
 30
0
 11
4.3400739993
 21
4.718791756
 31
0
  0
LINE
  5
209
100
AcDbEntity
  8
SEMA2D
100
AcDbLine
370
9
 62
7
  6
_SOLID
 10
4.3396287787
 20
4.5902120202
 30
0
 11
4.3396287787
 21
4.6025089949
 31
0
  0
LINE
  5
20A
100
AcDbEntity
  8
SEMA2D
100
AcDbLine
370
9
 62
7
  6
_SOLID
 10
4.3396287787
 20
4.4086789816
 30
0
 11
4.3396287787
 21
4.396382007
 31
0
  0
LINE
  5
20B
100
AcDbEntity
  8
SEMA2D
100
AcDbLine
370
9
 62
7
  6
_SOLID
 10
4.3394873667
 20
4.3937428623
 30
0
 11
4.3394873667
 21
4.3340977162
 31
0
  0
LINE
  5
20C
100
AcDbEntity
  8
SEMA2D
100
AcDbLine
370
9
 62
7
  6
_SOLID
 10
4.3373049985
 20
4.3
 30
0
 11
4.3373049985
 21
4.3014987737
 31
0
  0
LINE
  5
20D
100
AcDbEntity
  8
SEMA2D
100
AcDbLine
370
9
 62
7
  6
_SOLID
 10
4.3368434983
 20
4.7193977564
 30
0
 11
4.3368434983
 21
4.7252533167
 31
0
  0
LINE
  5
20E
100
AcDbEntity
  8
SEMA2D
100
AcDbLine
370
9
 62
7
  6
_SOLID
 10
4.3352544124
 20
4.716669175
 30
0
 11
4.3352544124
 21
4.7230328649
 31
0
  0
LINE
  5
20F
100
AcDbEntity
  8
SEMA2D
100
AcDbLine
370
9
 62
7
  6
_SOLID
 10
4.3377665061
 20
4.7251083582
 30
0
 11
4.3377664986
 21
4.719410035
 31
0
  0
LINE
  5
210
100
AcDbEntity
  8
SEMA2D
100
AcDbLine
370
9
 62
7
  6
_SOLID
 10
4.3394873667
 20
4.5875728458
 30
0
 11
4.3394873667
 21
4.4113181263
 31
0
  0
LINE
  5
211
100
AcDbEntity
  8
SEMA2D
100
AcDbLine
370
9
 62
7
  6
_SOLID
 10
4.3381028663
 20
4.4084360629
 30
0
 11
4.3381028663
 21
4.3966249257
 31
0
  0
LINE
  5
212
100
AcDbEntity
  8
SEMA2D
100
AcDbLine
370
9
 62
7
  6
_SOLID
 10
4.3381028663
 20
4.6022660464
 30
0
 11
4.3381028663
 21
4.5904549092
 31
0
  0
ARC
  5
213
100
AcDbEntity
  8
SEMA2D
100
AcDbCircle
370
9
 62
7
  6
_SOLID
 10
4.3026924956
 20
4.6932493776
 30
0
 40
0.001846
100
AcDbArc
 50
180
 51
259.999999998011
  0
ARC
  5
214
100
AcDbEntity
  8
SEMA2D
100
AcDbCircle
370
9
 62
7
  6
_SOLID
 10
4.328997996
 20
4.3262944549
 30
0
 40
0.0239979997
100
AcDbArc
 50
180
 51
259.999999998013
  0
ARC
  5
215
100
AcDbEntity
  8
SEMA2D
100
AcDbCircle
370
9
 62
7
  6
_SOLID
 10
4.3077690008
 20
4.7135793298
 30
0
 40
0.0036919999
100
AcDbArc
 50
1.70684075326685E-5
 51
78.0000076274663
  0
ARC
  5
216
100
AcDbEntity
  8
SEMA2D
100
AcDbCircle
370
9
 62
7
  6
_SOLID
 10
4.3308439965
 20
4.3210143178
 30
0
 40
0.004615
100
AcDbArc
 50
179.999435424575
 51
255.000488278542
  0
ARC
  5
217
100
AcDbEntity
  8
SEMA2D
100
AcDbCircle
370
9
 62
7
  6
_SOLID
 10
4.3534574959
 20
4.3082221627
 30
0
 40
0.0027689999
100
AcDbArc
 50
0
 51
40.0000000012998
  0
ARC
  5
218
100
AcDbEntity
  8
SEMA2D
100
AcDbCircle
370
9
 62
7
  6
_SOLID
 10
4.3516486961
 20
4.3089418739
 30
0
 40
0.0036919999
100
AcDbArc
 50
40.000000001298
 51
75.0000000003003
  0
ARC
  5
219
100
AcDbEntity
  8
SEMA2D
100
AcDbCircle
370
9
 62
7
  6
_SOLID
 10
4.3543804961
 20
4.3056188553
 30
0
 40
0.001846
100
AcDbArc
 50
280.000000001989
 51
0
  0
ARC
  5
21A
100
AcDbEntity
  8
SEMA2D
100
AcDbCircle
370
9
 62
7
  6
_SOLID
 10
4.3442274968
 20
4.3145615488
 30
0
 40
0.001846
100
AcDbArc
 50
179.999893189214
 51
255.000000000311
  0
ARC
  5
21B
100
AcDbEntity
  8
SEMA2D
100
AcDbCircle
370
9
 62
7
  6
_SOLID
 10
4.3013079989
 20
4.7207816571
 30
0
 40
0.0018459999
100
AcDbArc
 50
179.999984742131
 51
263.999999998339
  0
ARC
  5
21C
100
AcDbEntity
  8
SEMA2D
100
AcDbCircle
370
9
 62
7
  6
_SOLID
 10
4.3465349975
 20
4.3042354762
 30
0
 40
0.001846
100
AcDbArc
 50
279.999633790015
 51
0.000170707034101194
  0
ARC
  5
21D
100
AcDbEntity
  8
SEMA2D
100
AcDbCircle
370
9
 62
7
  6
_SOLID
 10
4.313306995
 20
4.7061690419
 30
0
 40
0.001846
100
AcDbArc
 50
100.000000001989
 51
180
  0
ARC
  5
21E
100
AcDbEntity
  8
SEMA2D
100
AcDbCircle
370
9
 62
7
  6
_SOLID
 10
4.3068460005
 20
4.6949570506
 30
0
 40
0.001846
100
AcDbArc
 50
100.000000001989
 51
180
  0
ARC
  5
21F
100
AcDbEntity
  8
SEMA2D
100
AcDbCircle
370
9
 62
7
  6
_SOLID
 10
4.3026924956
 20
4.6942246288
 30
0
 40
0.001846
100
AcDbArc
 50
100.000000001989
 51
180
  0
ARC
  5
220
100
AcDbEntity
  8
SEMA2D
100
AcDbCircle
370
9
 62
7
  6
_SOLID
 10
4.3077690008
 20
4.7007432311
 30
0
 40
0.0036919999
100
AcDbArc
 50
280.000000001991
 51
-1.70684075326685E-5
  0
ARC
  5
221
100
AcDbEntity
  8
SEMA2D
100
AcDbCircle
370
9
 62
7
  6
_SOLID
 10
4.3013079989
 20
4.7247990101
 30
0
 40
0.001846
100
AcDbArc
 50
98.000000002588
 51
180
  0
ARC
  5
222
100
AcDbEntity
  8
SEMA2D
100
AcDbCircle
370
9
 62
7
  6
_SOLID
 10
4.3068460005
 20
4.7194372147
 30
0
 40
0.001846
100
AcDbArc
 50
180
 51
258.000000000586
  0
ARC
  5
223
100
AcDbEntity
  8
SEMA2D
100
AcDbCircle
370
9
 62
7
  6
_SOLID
 10
4.3068460005
 20
4.7255773276
 30
0
 40
0.001846
100
AcDbArc
 50
98.000000002588
 51
180
  0
ARC
  5
224
100
AcDbEntity
  8
SEMA2D
100
AcDbCircle
370
9
 62
7
  6
_SOLID
 10
4.3013079989
 20
4.7206143468
 30
0
 40
0.001846
100
AcDbArc
 50
180.000823976343
 51
258.000000000586
  0
ARC
  5
225
100
AcDbEntity
  8
SEMA2D
100
AcDbCircle
370
9
 62
7
  6
_SOLID
 10
4.339150999
 20
4.6051481098
 30
0
 40
0.001846
100
AcDbArc
 50
308.682281495314
 51
0
  0
ARC
  5
226
100
AcDbEntity
  8
SEMA2D
100
AcDbCircle
370
9
 62
7
  6
_SOLID
 10
4.341458496
 20
4.3966249257
 30
0
 40
0.001846
100
AcDbArc
 50
179.999694825482
 51
231.3179168724
  0
ARC
  5
227
100
AcDbEntity
  8
SEMA2D
100
AcDbCircle
370
9
 62
7
  6
_SOLID
 10
4.3409969959
 20
4.3341021567
 30
0
 40
0.0013844999
100
AcDbArc
 50
3.31054852074152E-5
 51
56.9442710874961
  0
ARC
  5
228
100
AcDbEntity
  8
SEMA2D
100
AcDbCircle
370
9
 62
7
  6
_SOLID
 10
4.339150999
 20
4.5875728458
 30
0
 40
0.001846
100
AcDbArc
 50
0
 51
51.3178138753275
  0
ARC
  5
229
100
AcDbEntity
  8
SEMA2D
100
AcDbCircle
370
9
 62
7
  6
_SOLID
 10
4.3426583971
 20
4.3368103236
 30
0
 40
0.0016613982
100
AcDbArc
 50
183.895874024845
 51
242.335952760301
  0
ARC
  5
22A
100
AcDbEntity
  8
SEMA2D
100
AcDbCircle
370
9
 62
7
  6
_SOLID
 10
4.341458496
 20
4.334521386
 30
0
 40
0.000923
100
AcDbArc
 50
-5.5869092867795E-5
 51
62.3359336853284
  0
ARC
  5
22B
100
AcDbEntity
  8
SEMA2D
100
AcDbCircle
370
9
 62
7
  6
_SOLID
 10
4.341458496
 20
4.6022660464
 30
0
 40
0.001846
100
AcDbArc
 50
128.6820831276
 51
180.000305174518
  0
ARC
  5
22C
100
AcDbEntity
  8
SEMA2D
100
AcDbCircle
370
9
 62
7
  6
_SOLID
 10
4.341458496
 20
4.4084360629
 30
0
 40
0.001846
100
AcDbArc
 50
128.6820831276
 51
180.000305174518
  0
ARC
  5
22D
100
AcDbEntity
  8
SEMA2D
100
AcDbCircle
370
9
 62
7
  6
_SOLID
 10
4.3198602948
 20
4.7252534359
 30
0
 40
0.0017537
100
AcDbArc
 50
9.47443077831119E-5
 51
81.9999999974163
  0
ARC
  5
22E
100
AcDbEntity
  8
SEMA2D
100
AcDbCircle
370
9
 62
7
  6
_SOLID
 10
4.3198602948
 20
4.7049474448
 30
0
 40
0.0017537
100
AcDbArc
 50
90
 51
270
  0
ARC
  5
22F
100
AcDbEntity
  8
SEMA2D
100
AcDbCircle
370
9
 62
7
  6
_SOLID
 10
4.3198602948
 20
4.7049474448
 30
0
 40
0.0017537
100
AcDbArc
 50
270
 51
90
  0
ARC
  5
230
100
AcDbEntity
  8
SEMA2D
100
AcDbCircle
370
9
 62
7
  6
_SOLID
 10
4.3243829983
 20
4.7042185992
 30
0
 40
0.001846
100
AcDbArc
 50
0
 51
81.999999997412
  0
ARC
  5
231
100
AcDbEntity
  8
SEMA2D
100
AcDbCircle
370
9
 62
7
  6
_SOLID
 10
4.3248444948
 20
4.704619798
 30
0
 40
0.0013844999
100
AcDbArc
 50
-4.13675675590767E-6
 51
81.9999618515076
  0
ARC
  5
232
100
AcDbEntity
  8
SEMA2D
100
AcDbCircle
370
9
 62
7
  6
_SOLID
 10
4.3426583971
 20
4.3366550535
 30
0
 40
0.0016614
100
AcDbArc
 50
180.599563599045
 51
236.944229126376
  0
ARC
  5
233
100
AcDbEntity
  8
SEMA2D
100
AcDbCircle
370
9
 62
7
  6
_SOLID
 10
4.339150999
 20
4.3937428623
 30
0
 40
0.001846
100
AcDbArc
 50
0
 51
51.3178138753275
  0
ARC
  5
234
100
AcDbEntity
  8
SEMA2D
100
AcDbCircle
370
9
 62
7
  6
_SOLID
 10
4.339150999
 20
4.4113181263
 30
0
 40
0.001846
100
AcDbArc
 50
308.682281495314
 51
0
  0
ARC
  5
235
100
AcDbEntity
  8
SEMA2D
100
AcDbCircle
370
9
 62
7
  6
_SOLID
 10
4.341458496
 20
4.5904549092
 30
0
 40
0.001846
100
AcDbArc
 50
179.999694825482
 51
231.3179168724
  0
ARC
  5
236
100
AcDbEntity
  8
SEMA2D
100
AcDbCircle
370
9
 62
7
  6
_SOLID
 10
4.341458496
 20
4.6835260123
 30
0
 40
0.000923
100
AcDbArc
 50
300.000030517982
 51
-0.000124148510240991
  0
ARC
  5
237
100
AcDbEntity
  8
SEMA2D
100
AcDbCircle
370
9
 62
7
  6
_SOLID
 10
4.341458496
 20
4.6968112915
 30
0
 40
0.000923
100
AcDbArc
 50
0.000105527372226304
 51
60.0000343309622
  0
ARC
  5
238
100
AcDbEntity
  8
SEMA2D
100
AcDbCircle
370
9
 62
7
  6
_SOLID
 10
4.3392432968
 20
4.7155349582
 30
0
 40
0.0017537
100
AcDbArc
 50
0
 51
75.0000000003011
  0
ARC
  5
239
100
AcDbEntity
  8
SEMA2D
100
AcDbCircle
370
9
 62
7
  6
_SOLID
 10
4.3428429964
 20
4.6811279982
 30
0
 40
0.001846
100
AcDbArc
 50
119.999992370461
 51
179.316314697901
  0
ARC
  5
23A
100
AcDbEntity
  8
SEMA2D
100
AcDbCircle
370
9
 62
7
  6
_SOLID
 10
4.3428429964
 20
4.6992093056
 30
0
 40
0.001846
100
AcDbArc
 50
180.648376465987
 51
240.000015255763
  0
ARC
  5
23B
100
AcDbEntity
  8
SEMA2D
100
AcDbCircle
370
9
 62
7
  6
_SOLID
 10
4.3386894989
 20
4.719410035
 30
0
 40
0.001846
100
AcDbArc
 50
180.38218688873
 51
255.000000000311
  0
ARC
  5
23C
100
AcDbEntity
  8
SEMA2D
100
AcDbCircle
370
9
 62
7
  6
_SOLID
 10
4.3557649966
 20
4.7119680374
 30
0
 40
0.000923
100
AcDbArc
 50
0
 51
75.0000000003112
  0
ARC
  5
23D
100
AcDbEntity
  8
SEMA2D
100
AcDbCircle
370
9
 62
7
  6
_SOLID
 10
4.3349974978
 20
4.7230328649
 30
0
 40
0.001846
100
AcDbArc
 50
0
 51
81.999999997412
  0
ARC
  5
23E
100
AcDbEntity
  8
SEMA2D
100
AcDbCircle
370
9
 62
7
  6
_SOLID
 10
4.339150999
 20
4.7247840493
 30
0
 40
0.001846
100
AcDbArc
 50
0
 51
81.999999997412
  0
ARC
  5
23F
100
AcDbEntity
  8
SEMA2D
100
AcDbCircle
370
9
 62
7
  6
_SOLID
 10
4.3557649966
 20
4.7084062427
 30
0
 40
0.000923
100
AcDbArc
 50
284.999969482026
 51
-0.000117943375555343
  0
ARC
  5
240
100
AcDbEntity
  8
SEMA2D
100
AcDbCircle
370
9
 62
7
  6
_SOLID
 10
4.3548419963
 20
4.7062478393
 30
0
 40
0.000923
100
AcDbArc
 50
284.999969482026
 51
-9.93222375406483E-5
  0
ARC
  5
241
100
AcDbEntity
  8
SEMA2D
100
AcDbCircle
370
9
 62
7
  6
_SOLID
 10
4.3548419963
 20
4.7122153371
 30
0
 40
0.000923
100
AcDbArc
 50
0
 51
75.0000000003112
  0
ARC
  5
242
100
AcDbEntity
  8
SEMA2D
100
AcDbCircle
370
9
 62
7
  6
_SOLID
 10
4.336737972
 20
4.3372472852
 30
0
 40
0.0374121033
100
AcDbArc
 50
235.810592648934
 51
259.501312254655
  0
LINE
  5
243
100
AcDbEntity
  8
SEMA2D
100
AcDbLine
370
9
 62
7
  6
_SOLID
 10
4.3235531825
 20
4.3028057694
 30
0
 11
4.3299209963
 21
4.3004615038
 31
0
  0
ARC
  5
244
100
AcDbEntity
  8
SEMA2D
100
AcDbCircle
370
9
 62
7
  6
_SOLID
 10
4.3438652719
 20
4.6993823975
 30
0
 40
0.0028675392
100
AcDbArc
 50
105.285270690963
 51
180.004592892719
  0
LINE
  5
245
100
AcDbEntity
  8
SEMA2D
100
AcDbLine
370
9
 62
7
  6
_SOLID
 10
4.5878304768
 20
4.69136599
 30
0
 11
4.5829968083
 21
4.6908738941
 31
0
  0
LINE
  5
246
100
AcDbEntity
  8
SEMA2D
100
AcDbLine
370
9
 62
7
  6
_SOLID
 10
4.7042583007
 20
4.6966223448
 30
0
 11
4.699206062
 21
4.6961080163
 31
0
  0
LINE
  5
247
100
AcDbEntity
  8
SEMA2D
100
AcDbLine
370
9
 62
7
  6
_SOLID
 10
4.7051813084
 20
4.6948044031
 30
0
 11
4.7001290697
 21
4.6942900747
 31
0
  0
LINE
  5
248
100
AcDbEntity
  8
SEMA2D
100
AcDbLine
370
9
 62
7
  6
_SOLID
 10
4.5869074392
 20
4.6931839317
 30
0
 11
4.5820738006
 21
4.6926918357
 31
0
  0
LINE
  5
249
100
AcDbEntity
  8
SEMA2D
100
AcDbLine
370
9
 62
7
  6
_SOLID
 10
4.6978215355
 20
4.6932493776
 30
0
 11
4.5892149734
 21
4.6932493776
 31
0
  0
LINE
  5
24A
100
AcDbEntity
  8
SEMA2D
100
AcDbLine
370
9
 62
7
  6
_SOLID
 10
4.6978215653
 20
4.6914313763
 30
0
 11
4.5892149734
 21
4.6914313763
 31
0
  0
LINE
  5
24B
100
AcDbEntity
  8
SEMA2D
100
AcDbLine
370
9
 62
7
  6
_SOLID
 10
4.7680656093
 20
4.7007432311
 30
0
 11
4.7698712724
 21
4.7007465094
 31
0
  0
LINE
  5
24C
100
AcDbEntity
  8
SEMA2D
100
AcDbLine
370
9
 62
7
  6
_SOLID
 10
4.7193992215
 20
4.7135793298
 30
0
 11
4.7167474109
 21
4.7131308049
 31
0
  0
LINE
  5
24D
100
AcDbEntity
  8
SEMA2D
100
AcDbLine
370
9
 62
7
  6
_SOLID
 10
4.5439152199
 20
4.6801061958
 30
0
 11
4.5456901568
 21
4.6801036924
 31
0
  0
LINE
  5
24E
100
AcDbEntity
  8
SEMA2D
100
AcDbLine
370
9
 62
7
  6
_SOLID
 10
4.5421504009
 20
4.6801061958
 30
0
 11
4.5403754789
 21
4.6801086992
 31
0
  0
LINE
  5
24F
100
AcDbEntity
  8
SEMA2D
100
AcDbLine
370
9
 62
7
  6
_SOLID
 10
4.5243681747
 20
4.6801036328
 30
0
 11
4.5225472826
 21
4.6801061958
 31
0
  0
LINE
  5
250
100
AcDbEntity
  8
SEMA2D
100
AcDbLine
370
9
 62
7
  6
_SOLID
 10
4.586907469
 20
4.6942900747
 30
0
 11
4.5818552303
 21
4.6948044031
 31
0
  0
LINE
  5
251
100
AcDbEntity
  8
SEMA2D
100
AcDbLine
370
9
 62
7
  6
_SOLID
 10
4.7648852843
 20
4.3
 30
0
 11
4.7704005319
 21
4.3123618096
 31
0
  0
LINE
  5
252
100
AcDbEntity
  8
SEMA2D
100
AcDbLine
370
9
 62
7
  6
_SOLID
 10
4.7645858306
 20
4.3004615038
 30
0
 11
4.770402618
 21
4.3134991258
 31
0
  0
LINE
  5
253
100
AcDbEntity
  8
SEMA2D
100
AcDbLine
370
9
 62
7
  6
_SOLID
 10
4.5878304768
 20
4.6961080163
 30
0
 11
4.5827782231
 21
4.6966223448
 31
0
  0
LINE
  5
254
100
AcDbEntity
  8
SEMA2D
100
AcDbLine
370
9
 62
7
  6
_SOLID
 10
4.6978215653
 20
4.6942246288
 30
0
 11
4.5892149734
 21
4.6942246288
 31
0
  0
LINE
  5
255
100
AcDbEntity
  8
SEMA2D
100
AcDbLine
370
9
 62
7
  6
_SOLID
 10
4.7139873582
 20
4.7024658054
 30
0
 11
4.7157930213
 21
4.7024658054
 31
0
  0
LINE
  5
256
100
AcDbEntity
  8
SEMA2D
100
AcDbLine
370
9
 62
7
  6
_SOLID
 10
4.7194902378
 20
4.7016455859
 30
0
 11
4.7167817432
 21
4.7016455859
 31
0
  0
LINE
  5
257
100
AcDbEntity
  8
SEMA2D
100
AcDbLine
370
9
 62
7
  6
_SOLID
 10
4.7680656093
 20
4.7007432311
 30
0
 11
4.7194270569
 21
4.7007432311
 31
0
  0
LINE
  5
258
100
AcDbEntity
  8
SEMA2D
100
AcDbLine
370
9
 62
7
  6
_SOLID
 10
4.5663301277
 20
4.692179355
 30
0
 11
4.5644875842
 21
4.6921821564
 31
0
  0
LINE
  5
259
100
AcDbEntity
  8
SEMA2D
100
AcDbLine
370
9
 62
7
  6
_SOLID
 10
4.6271536428
 20
4.7172308892
 30
0
 11
4.6227818358
 21
4.7189457744
 31
0
  0
LINE
  5
25A
100
AcDbEntity
  8
SEMA2D
100
AcDbLine
370
9
 62
7
  6
_SOLID
 10
4.7049575525
 20
4.6926923722
 30
0
 11
4.7001290697
 21
4.6931839317
 31
0
  0
LINE
  5
25B
100
AcDbEntity
  8
SEMA2D
100
AcDbLine
370
9
 62
7
  6
_SOLID
 10
4.7040345448
 20
4.6908744305
 30
0
 11
4.699206062
 21
4.69136599
 31
0
  0
LINE
  5
25C
100
AcDbEntity
  8
SEMA2D
100
AcDbLine
370
9
 62
7
  6
_SOLID
 10
4.7121682542
 20
4.7006589502
 30
0
 11
4.5683614987
 21
4.7006589502
 31
0
  0
LINE
  5
25D
100
AcDbEntity
  8
SEMA2D
100
AcDbLine
370
9
 62
7
  6
_SOLID
 10
4.6978215653
 20
4.69604263
 30
0
 11
4.5892149734
 21
4.69604263
 31
0
  0
LINE
  5
25E
100
AcDbEntity
  8
SEMA2D
100
AcDbLine
370
9
 62
7
  6
_SOLID
 10
4.5795477259
 20
4.6949570506
 30
0
 11
4.5690749812
 21
4.6949570506
 31
0
  0
LINE
  5
25F
100
AcDbEntity
  8
SEMA2D
100
AcDbLine
370
9
 62
7
  6
_SOLID
 10
4.7667026895
 20
4.6949570506
 30
0
 11
4.7074888128
 21
4.6949570506
 31
0
  0
LINE
  5
260
100
AcDbEntity
  8
SEMA2D
100
AcDbLine
370
9
 62
7
  6
_SOLID
 10
4.7667026895
 20
4.6967749923
 30
0
 11
4.7074888128
 21
4.6967749923
 31
0
  0
LINE
  5
261
100
AcDbEntity
  8
SEMA2D
100
AcDbLine
370
9
 62
7
  6
_SOLID
 10
4.7121682244
 20
4.6988410085
 30
0
 11
4.5683614987
 21
4.6988410085
 31
0
  0
LINE
  5
262
100
AcDbEntity
  8
SEMA2D
100
AcDbLine
370
9
 62
7
  6
_SOLID
 10
4.7671027261
 20
4.6971072882
 30
0
 11
4.7142582017
 21
4.6971072882
 31
0
  0
LINE
  5
263
100
AcDbEntity
  8
SEMA2D
100
AcDbLine
370
9
 62
7
  6
_SOLID
 10
4.5795477259
 20
4.6967749923
 30
0
 11
4.5690749812
 21
4.6967749923
 31
0
  0
LINE
  5
264
100
AcDbEntity
  8
SEMA2D
100
AcDbLine
370
9
 62
7
  6
_SOLID
 10
4.5177263099
 20
4.6801087588
 30
0
 11
4.519531973
 21
4.6801061958
 31
0
  0
LINE
  5
265
100
AcDbEntity
  8
SEMA2D
100
AcDbLine
370
9
 62
7
  6
_SOLID
 10
4.743633725
 20
4.7288109988
 30
0
 11
4.743633725
 21
4.7117355197
 31
0
  0
LINE
  5
266
100
AcDbEntity
  8
SEMA2D
100
AcDbLine
370
9
 62
7
  6
_SOLID
 10
4.7431722361
 20
4.72834948
 30
0
 11
4.7431722361
 21
4.7117355197
 31
0
  0
LINE
  5
267
100
AcDbEntity
  8
SEMA2D
100
AcDbLine
370
9
 62
7
  6
_SOLID
 10
4.7431157011
 20
4.7117355197
 30
0
 11
4.7431157011
 21
4.7135793298
 31
0
  0
LINE
  5
268
100
AcDbEntity
  8
SEMA2D
100
AcDbLine
370
9
 62
7
  6
_SOLID
 10
4.6808231252
 20
4.7188759774
 30
0
 11
4.6802937168
 21
4.7206143468
 31
0
  0
LINE
  5
269
100
AcDbEntity
  8
SEMA2D
100
AcDbLine
370
9
 62
7
  6
_SOLID
 10
4.7468642372
 20
4.7061690419
 30
0
 11
4.7468642372
 21
4.7080434888
 31
0
  0
LINE
  5
26A
100
AcDbEntity
  8
SEMA2D
100
AcDbLine
370
9
 62
7
  6
_SOLID
 10
4.7419764477
 20
4.7194372147
 30
0
 11
4.7419764477
 21
4.7255773276
 31
0
  0
LINE
  5
26B
100
AcDbEntity
  8
SEMA2D
100
AcDbLine
370
9
 62
7
  6
_SOLID
 10
4.7193858999
 20
4.7176315516
 30
0
 11
4.7193858999
 21
4.7274053424
 31
0
  0
LINE
  5
26C
100
AcDbEntity
  8
SEMA2D
100
AcDbLine
370
9
 62
7
  6
_SOLID
 10
4.718080588
 20
4.7196670502
 30
0
 11
4.718080588
 21
4.7254253357
 31
0
  0
LINE
  5
26D
100
AcDbEntity
  8
SEMA2D
100
AcDbLine
370
9
 62
7
  6
_SOLID
 10
4.7167817432
 20
4.7124914854
 30
0
 11
4.7167817432
 21
4.7016455859
 31
0
  0
LINE
  5
26E
100
AcDbEntity
  8
SEMA2D
100
AcDbLine
370
9
 62
7
  6
_SOLID
 10
4.7194902378
 20
4.7124914854
 30
0
 11
4.7194902378
 21
4.7016455859
 31
0
  0
LINE
  5
26F
100
AcDbEntity
  8
SEMA2D
100
AcDbLine
370
9
 62
7
  6
_SOLID
 10
4.7412977594
 20
4.7117355197
 30
0
 11
4.7412977594
 21
4.7135793298
 31
0
  0
LINE
  5
270
100
AcDbEntity
  8
SEMA2D
100
AcDbLine
370
9
 62
7
  6
_SOLID
 10
4.740158506
 20
4.7176315516
 30
0
 11
4.740158506
 21
4.7274053424
 31
0
  0
LINE
  5
271
100
AcDbEntity
  8
SEMA2D
100
AcDbLine
370
9
 62
7
  6
_SOLID
 10
4.5411664176
 20
4.3263055116
 30
0
 11
4.5428827631
 21
4.3279174298
 31
0
  0
LINE
  5
272
100
AcDbEntity
  8
SEMA2D
100
AcDbLine
370
9
 62
7
  6
_SOLID
 10
4.5465414601
 20
4.7141904562
 30
0
 11
4.5477270114
 21
4.7133076518
 31
0
  0
LINE
  5
273
100
AcDbEntity
  8
SEMA2D
100
AcDbLine
370
9
 62
7
  6
_SOLID
 10
4.5439152199
 20
4.6801061958
 30
0
 11
4.5421504009
 21
4.6801061958
 31
0
  0
LINE
  5
274
100
AcDbEntity
  8
SEMA2D
100
AcDbLine
370
9
 62
7
  6
_SOLID
 10
4.5428043234
 20
4.6777081817
 30
0
 11
4.5432501662
 21
4.6777081817
 31
0
  0
LINE
  5
275
100
AcDbEntity
  8
SEMA2D
100
AcDbLine
370
9
 62
7
  6
_SOLID
 10
4.5221572149
 20
4.6777081817
 30
0
 11
4.5200168717
 21
4.6777081817
 31
0
  0
LINE
  5
276
100
AcDbEntity
  8
SEMA2D
100
AcDbLine
370
9
 62
7
  6
_SOLID
 10
4.5225472826
 20
4.6801061958
 30
0
 11
4.519531973
 21
4.6801061958
 31
0
  0
LINE
  5
277
100
AcDbEntity
  8
SEMA2D
100
AcDbLine
370
9
 62
7
  6
_SOLID
 10
4.5410293865
 20
4.6761119097
 30
0
 11
4.5450251031
 21
4.6761070221
 31
0
  0
LINE
  5
278
100
AcDbEntity
  8
SEMA2D
100
AcDbLine
370
9
 62
7
  6
_SOLID
 10
4.5236690569
 20
4.6750412315
 30
0
 11
4.5218481648
 21
4.6750436753
 31
0
  0
LINE
  5
279
100
AcDbEntity
  8
SEMA2D
100
AcDbLine
370
9
 62
7
  6
_SOLID
 10
4.5204077887
 20
4.6750436753
 30
0
 11
4.5186021405
 21
4.6750461787
 31
0
  0
LINE
  5
27A
100
AcDbEntity
  8
SEMA2D
100
AcDbLine
370
9
 62
7
  6
_SOLID
 10
4.5218481648
 20
4.676642391
 30
0
 11
4.5204077887
 21
4.676642391
 31
0
  0
LINE
  5
27B
100
AcDbEntity
  8
SEMA2D
100
AcDbLine
370
9
 62
7
  6
_SOLID
 10
4.5607284087
 20
4.7172308892
 30
0
 11
4.5563565868
 21
4.7189457744
 31
0
  0
LINE
  5
27C
100
AcDbEntity
  8
SEMA2D
100
AcDbLine
370
9
 62
7
  6
_SOLID
 10
4.5401093143
 20
4.3280125886
 30
0
 11
4.5384837615
 21
4.3274027139
 31
0
  0
LINE
  5
27D
100
AcDbEntity
  8
SEMA2D
100
AcDbLine
370
9
 62
7
  6
_SOLID
 10
4.7667026895
 20
4.6949570506
 30
0
 11
4.7667026895
 21
4.6967749923
 31
0
  0
LINE
  5
27E
100
AcDbEntity
  8
SEMA2D
100
AcDbLine
370
9
 62
7
  6
_SOLID
 10
4.7634401697
 20
4.3007194578
 30
0
 11
4.7640492397
 21
4.3026476681
 31
0
  0
LINE
  5
27F
100
AcDbEntity
  8
SEMA2D
100
AcDbLine
370
9
 62
7
  6
_SOLID
 10
4.5218481648
 20
4.6750436753
 30
0
 11
4.5204077887
 21
4.6750436753
 31
0
  0
LINE
  5
280
100
AcDbEntity
  8
SEMA2D
100
AcDbLine
370
9
 62
7
  6
_SOLID
 10
4.7142582017
 20
4.6971072882
 30
0
 11
4.7121682244
 21
4.6988410085
 31
0
  0
LINE
  5
281
100
AcDbEntity
  8
SEMA2D
100
AcDbLine
370
9
 62
7
  6
_SOLID
 10
4.6802934486
 20
4.7206142872
 30
0
 11
4.6505562442
 21
4.7206142872
 31
0
  0
LINE
  5
282
100
AcDbEntity
  8
SEMA2D
100
AcDbLine
370
9
 62
7
  6
_SOLID
 10
4.6216521937
 20
4.7206142872
 30
0
 11
4.5914533365
 21
4.7206143468
 31
0
  0
LINE
  5
283
100
AcDbEntity
  8
SEMA2D
100
AcDbLine
370
9
 62
7
  6
_SOLID
 10
4.740158506
 20
4.7194372147
 30
0
 11
4.7193858999
 21
4.7194372147
 31
0
  0
LINE
  5
284
100
AcDbEntity
  8
SEMA2D
100
AcDbLine
370
9
 62
7
  6
_SOLID
 10
4.5416616577
 20
4.7206143468
 30
0
 11
4.5552271086
 21
4.7206143468
 31
0
  0
LINE
  5
285
100
AcDbEntity
  8
SEMA2D
100
AcDbLine
370
9
 62
7
  6
_SOLID
 10
4.5563566017
 20
4.7207816571
 30
0
 11
4.5903238583
 21
4.7207816571
 31
0
  0
LINE
  5
286
100
AcDbEntity
  8
SEMA2D
100
AcDbLine
370
9
 62
7
  6
_SOLID
 10
4.649426617
 20
4.7207816571
 30
0
 11
4.6227818358
 21
4.7207816571
 31
0
  0
LINE
  5
287
100
AcDbEntity
  8
SEMA2D
100
AcDbLine
370
9
 62
7
  6
_SOLID
 10
4.7136239487
 20
4.7207816571
 30
0
 11
4.6814231056
 21
4.7207816571
 31
0
  0
LINE
  5
288
100
AcDbEntity
  8
SEMA2D
100
AcDbLine
370
9
 62
7
  6
_SOLID
 10
4.5563565868
 20
4.7189457744
 30
0
 11
4.5903238583
 21
4.7189457744
 31
0
  0
LINE
  5
289
100
AcDbEntity
  8
SEMA2D
100
AcDbLine
370
9
 62
7
  6
_SOLID
 10
4.5434796142
 20
4.7188086837
 30
0
 11
4.5552272129
 21
4.7188086837
 31
0
  0
LINE
  5
28A
100
AcDbEntity
  8
SEMA2D
100
AcDbLine
370
9
 62
7
  6
_SOLID
 10
4.740158506
 20
4.7176315516
 30
0
 11
4.7193858999
 21
4.7176315516
 31
0
  0
LINE
  5
28B
100
AcDbEntity
  8
SEMA2D
100
AcDbLine
370
9
 62
7
  6
_SOLID
 10
4.7159156281
 20
4.717190656
 30
0
 11
4.7405242699
 21
4.717190656
 31
0
  0
LINE
  5
28C
100
AcDbEntity
  8
SEMA2D
100
AcDbLine
370
9
 62
7
  6
_SOLID
 10
4.5914532322
 20
4.7188086837
 30
0
 11
4.6216524619
 21
4.7188086837
 31
0
  0
LINE
  5
28D
100
AcDbEntity
  8
SEMA2D
100
AcDbLine
370
9
 62
7
  6
_SOLID
 10
4.649426617
 20
4.7189457744
 30
0
 11
4.6227818358
 21
4.7189457744
 31
0
  0
LINE
  5
28E
100
AcDbEntity
  8
SEMA2D
100
AcDbLine
370
9
 62
7
  6
_SOLID
 10
4.712318607
 20
4.7189457744
 30
0
 11
4.6814231056
 21
4.7189457744
 31
0
  0
LINE
  5
28F
100
AcDbEntity
  8
SEMA2D
100
AcDbLine
370
9
 62
7
  6
_SOLID
 10
4.6505560058
 20
4.7188086837
 30
0
 11
4.6802937168
 21
4.7188086837
 31
0
  0
LINE
  5
290
100
AcDbEntity
  8
SEMA2D
100
AcDbLine
370
9
 62
7
  6
_SOLID
 10
4.5461594987
 20
4.7106021374
 30
0
 11
4.5479344207
 21
4.7105991572
 31
0
  0
LINE
  5
291
100
AcDbEntity
  8
SEMA2D
100
AcDbLine
370
9
 62
7
  6
_SOLID
 10
4.7193858999
 20
4.7255773276
 30
0
 11
4.740158506
 21
4.7255773276
 31
0
  0
LINE
  5
292
100
AcDbEntity
  8
SEMA2D
100
AcDbLine
370
9
 62
7
  6
_SOLID
 10
4.5416616577
 20
4.7247990101
 30
0
 11
4.7136239487
 21
4.7247990101
 31
0
  0
LINE
  5
293
100
AcDbEntity
  8
SEMA2D
100
AcDbLine
370
9
 62
7
  6
_SOLID
 10
4.7423422414
 20
4.7189963191
 30
0
 11
4.7419764477
 21
4.7194372147
 31
0
  0
LINE
  5
294
100
AcDbEntity
  8
SEMA2D
100
AcDbLine
370
9
 62
7
  6
_SOLID
 10
4.5198901969
 20
4.7260313361
 30
0
 11
4.5343570489
 21
4.7260313361
 31
0
  0
LINE
  5
295
100
AcDbEntity
  8
SEMA2D
100
AcDbLine
370
9
 62
7
  6
_SOLID
 10
4.5198901969
 20
4.727859351
 30
0
 11
4.5343570489
 21
4.727859351
 31
0
  0
LINE
  5
296
100
AcDbEntity
  8
SEMA2D
100
AcDbLine
370
9
 62
7
  6
_SOLID
 10
4.7193858999
 20
4.7274053424
 30
0
 11
4.740158506
 21
4.7274053424
 31
0
  0
LINE
  5
297
100
AcDbEntity
  8
SEMA2D
100
AcDbLine
370
9
 62
7
  6
_SOLID
 10
4.5434796142
 20
4.726627025
 30
0
 11
4.712318607
 21
4.726627025
 31
0
  0
LINE
  5
298
100
AcDbEntity
  8
SEMA2D
100
AcDbLine
370
9
 62
7
  6
_SOLID
 10
4.7405242699
 20
4.717190656
 30
0
 11
4.740158506
 21
4.7176315516
 31
0
  0
LINE
  5
299
100
AcDbEntity
  8
SEMA2D
100
AcDbLine
370
9
 62
7
  6
_SOLID
 10
4.542199381
 20
4.7114820212
 30
0
 11
4.540424459
 21
4.7114850014
 31
0
  0
LINE
  5
29A
100
AcDbEntity
  8
SEMA2D
100
AcDbLine
370
9
 62
7
  6
_SOLID
 10
4.5400023538
 20
4.7113435596
 30
0
 11
4.5382274169
 21
4.7113465398
 31
0
  0
LINE
  5
29B
100
AcDbEntity
  8
SEMA2D
100
AcDbLine
370
9
 62
7
  6
_SOLID
 10
4.5245949405
 20
4.7113496989
 30
0
 11
4.5264158326
 21
4.7113465398
 31
0
  0
LINE
  5
29C
100
AcDbEntity
  8
SEMA2D
100
AcDbLine
370
9
 62
7
  6
_SOLID
 10
4.5439642
 20
4.7114820212
 30
0
 11
4.5457391369
 21
4.7114789813
 31
0
  0
LINE
  5
29D
100
AcDbEntity
  8
SEMA2D
100
AcDbLine
370
9
 62
7
  6
_SOLID
 10
4.6857948977
 20
4.7172308892
 30
0
 11
4.6814231056
 21
4.7189457744
 31
0
  0
LINE
  5
29E
100
AcDbEntity
  8
SEMA2D
100
AcDbLine
370
9
 62
7
  6
_SOLID
 10
4.7194270569
 20
4.7007432311
 30
0
 11
4.7167579609
 21
4.7011196941
 31
0
  0
LINE
  5
29F
100
AcDbEntity
  8
SEMA2D
100
AcDbLine
370
9
 62
7
  6
_SOLID
 10
4.5850604999
 20
4.717159006
 30
0
 11
4.5616199452
 21
4.717159006
 31
0
  0
LINE
  5
2A0
100
AcDbEntity
  8
SEMA2D
100
AcDbLine
370
9
 62
7
  6
_SOLID
 10
4.5382274169
 20
4.7113465398
 30
0
 11
4.5264158326
 21
4.7113465398
 31
0
  0
LINE
  5
2A1
100
AcDbEntity
  8
SEMA2D
100
AcDbLine
370
9
 62
7
  6
_SOLID
 10
4.5479344207
 20
4.7105991572
 30
0
 11
4.5596824515
 21
4.7105991572
 31
0
  0
LINE
  5
2A2
100
AcDbEntity
  8
SEMA2D
100
AcDbLine
370
9
 62
7
  6
_SOLID
 10
4.7139873582
 20
4.7115028232
 30
0
 11
4.7157930213
 21
4.7115028232
 31
0
  0
LINE
  5
2A3
100
AcDbEntity
  8
SEMA2D
100
AcDbLine
370
9
 62
7
  6
_SOLID
 10
4.5382274169
 20
4.7131522029
 30
0
 11
4.5264158326
 21
4.7131522029
 31
0
  0
LINE
  5
2A4
100
AcDbEntity
  8
SEMA2D
100
AcDbLine
370
9
 62
7
  6
_SOLID
 10
4.7194902378
 20
4.7124914854
 30
0
 11
4.7167817432
 21
4.7124914854
 31
0
  0
LINE
  5
2A5
100
AcDbEntity
  8
SEMA2D
100
AcDbLine
370
9
 62
7
  6
_SOLID
 10
4.7412977594
 20
4.7117355197
 30
0
 11
4.7431722361
 21
4.7117355197
 31
0
  0
LINE
  5
2A6
100
AcDbEntity
  8
SEMA2D
100
AcDbLine
370
9
 62
7
  6
_SOLID
 10
4.7468642372
 20
4.7085050076
 30
0
 11
4.7703998464
 21
4.7085050076
 31
0
  0
LINE
  5
2A7
100
AcDbEntity
  8
SEMA2D
100
AcDbLine
370
9
 62
7
  6
_SOLID
 10
4.7136239487
 20
4.7247990101
 30
0
 11
4.718080588
 21
4.7254253357
 31
0
  0
LINE
  5
2A8
100
AcDbEntity
  8
SEMA2D
100
AcDbLine
370
9
 62
7
  6
_SOLID
 10
4.7157930213
 20
4.7024658054
 30
0
 11
4.7167817432
 21
4.7016455859
 31
0
  0
LINE
  5
2A9
100
AcDbEntity
  8
SEMA2D
100
AcDbLine
370
9
 62
7
  6
_SOLID
 10
4.712318607
 20
4.726627025
 30
0
 11
4.7167752463
 21
4.7272534102
 31
0
  0
LINE
  5
2AA
100
AcDbEntity
  8
SEMA2D
100
AcDbLine
370
9
 62
7
  6
_SOLID
 10
4.7468642372
 20
4.7080434888
 30
0
 11
4.7699392217
 21
4.7080434888
 31
0
  0
LINE
  5
2AB
100
AcDbEntity
  8
SEMA2D
100
AcDbLine
370
9
 62
7
  6
_SOLID
 10
4.769731589
 20
4.7079869836
 30
0
 11
4.7468642372
 21
4.7079869836
 31
0
  0
LINE
  5
2AC
100
AcDbEntity
  8
SEMA2D
100
AcDbLine
370
9
 62
7
  6
_SOLID
 10
4.7680555361
 20
4.7061690419
 30
0
 11
4.7468642372
 21
4.7061690419
 31
0
  0
LINE
  5
2AD
100
AcDbEntity
  8
SEMA2D
100
AcDbLine
370
9
 62
7
  6
_SOLID
 10
4.5477270114
 20
4.7133076518
 30
0
 11
4.5611552823
 21
4.7133076518
 31
0
  0
LINE
  5
2AE
100
AcDbEntity
  8
SEMA2D
100
AcDbLine
370
9
 62
7
  6
_SOLID
 10
4.6441632587
 20
4.7153231233
 30
0
 11
4.6280451941
 21
4.7153231233
 31
0
  0
LINE
  5
2AF
100
AcDbEntity
  8
SEMA2D
100
AcDbLine
370
9
 62
7
  6
_SOLID
 10
4.7118772942
 20
4.7153231233
 30
0
 11
4.6866864639
 21
4.7153231233
 31
0
  0
LINE
  5
2B0
100
AcDbEntity
  8
SEMA2D
100
AcDbLine
370
9
 62
7
  6
_SOLID
 10
4.5343570489
 20
4.7152191728
 30
0
 11
4.5262114781
 21
4.7152191728
 31
0
  0
LINE
  5
2B1
100
AcDbEntity
  8
SEMA2D
100
AcDbLine
370
9
 62
7
  6
_SOLID
 10
4.5850604999
 20
4.7153231233
 30
0
 11
4.5658235478
 21
4.7153231233
 31
0
  0
LINE
  5
2B2
100
AcDbEntity
  8
SEMA2D
100
AcDbLine
370
9
 62
7
  6
_SOLID
 10
4.6441632587
 20
4.717159006
 30
0
 11
4.6280451941
 21
4.717159006
 31
0
  0
LINE
  5
2B3
100
AcDbEntity
  8
SEMA2D
100
AcDbLine
370
9
 62
7
  6
_SOLID
 10
4.7108352262
 20
4.717159006
 30
0
 11
4.6866864639
 21
4.717159006
 31
0
  0
LINE
  5
2B4
100
AcDbEntity
  8
SEMA2D
100
AcDbLine
370
9
 62
7
  6
_SOLID
 10
4.5627516735
 20
4.7158254712
 30
0
 11
4.5616199452
 21
4.7158254712
 31
0
  0
LINE
  5
2B5
100
AcDbEntity
  8
SEMA2D
100
AcDbLine
370
9
 62
7
  6
_SOLID
 10
4.6480953473
 20
4.7151141494
 30
0
 11
4.6827543753
 21
4.7151141494
 31
0
  0
LINE
  5
2B6
100
AcDbEntity
  8
SEMA2D
100
AcDbLine
370
9
 62
7
  6
_SOLID
 10
4.5343570489
 20
4.7134135097
 30
0
 11
4.5262114781
 21
4.7134135097
 31
0
  0
LINE
  5
2B7
100
AcDbEntity
  8
SEMA2D
100
AcDbLine
370
9
 62
7
  6
_SOLID
 10
4.6280451941
 20
4.7133084863
 30
0
 11
4.5850604999
 21
4.7133084863
 31
0
  0
LINE
  5
2B8
100
AcDbEntity
  8
SEMA2D
100
AcDbLine
370
9
 62
7
  6
_SOLID
 10
4.6866864639
 20
4.7133084863
 30
0
 11
4.6441632587
 21
4.7133084863
 31
0
  0
LINE
  5
2B9
100
AcDbEntity
  8
SEMA2D
100
AcDbLine
370
9
 62
7
  6
_SOLID
 10
4.7193992215
 20
4.7135792702
 30
0
 11
4.7431157011
 21
4.7135793298
 31
0
  0
LINE
  5
2BA
100
AcDbEntity
  8
SEMA2D
100
AcDbLine
370
9
 62
7
  6
_SOLID
 10
4.5889925885
 20
4.7151141494
 30
0
 11
4.6241131055
 21
4.7151141494
 31
0
  0
LINE
  5
2BB
100
AcDbEntity
  8
SEMA2D
100
AcDbLine
370
9
 62
7
  6
_SOLID
 10
4.5627516287
 20
4.7145221561
 30
0
 11
4.5616199303
 21
4.7145221561
 31
0
  0
LINE
  5
2BC
100
AcDbEntity
  8
SEMA2D
100
AcDbLine
370
9
 62
7
  6
_SOLID
 10
4.5396253395
 20
4.7141905754
 30
0
 11
4.5465414601
 21
4.7141904562
 31
0
  0
LINE
  5
2BD
100
AcDbEntity
  8
SEMA2D
100
AcDbLine
370
9
 62
7
  6
_SOLID
 10
4.7157930213
 20
4.7115028232
 30
0
 11
4.7157930213
 21
4.7024658054
 31
0
  0
LINE
  5
2BE
100
AcDbEntity
  8
SEMA2D
100
AcDbLine
370
9
 62
7
  6
_SOLID
 10
4.5428827631
 20
4.3279174298
 30
0
 11
4.5433286059
 21
4.3279174298
 31
0
  0
LINE
  5
2BF
100
AcDbEntity
  8
SEMA2D
100
AcDbLine
370
9
 62
7
  6
_SOLID
 10
4.5477315712
 20
4.3274026841
 30
0
 11
4.5585722256
 21
4.3274027139
 31
0
  0
LINE
  5
2C0
100
AcDbEntity
  8
SEMA2D
100
AcDbLine
370
9
 62
7
  6
_SOLID
 10
4.5261793512
 20
4.3274026841
 30
0
 11
4.5384837764
 21
4.3274026841
 31
0
  0
LINE
  5
2C1
100
AcDbEntity
  8
SEMA2D
100
AcDbLine
370
9
 62
7
  6
_SOLID
 10
4.5219271558
 20
4.3284120589
 30
0
 11
4.5204867947
 21
4.3284120589
 31
0
  0
LINE
  5
2C2
100
AcDbEntity
  8
SEMA2D
100
AcDbLine
370
9
 62
7
  6
_SOLID
 10
4.7645858306
 20
4.3004615038
 30
0
 11
4.7634401697
 21
4.3007194578
 31
0
  0
LINE
  5
2C3
100
AcDbEntity
  8
SEMA2D
100
AcDbLine
370
9
 62
7
  6
_SOLID
 10
4.5219271558
 20
4.3301951617
 30
0
 11
4.5204867947
 21
4.3301951617
 31
0
  0
LINE
  5
2C4
100
AcDbEntity
  8
SEMA2D
100
AcDbLine
370
9
 62
7
  6
_SOLID
 10
4.5411078262
 20
4.3296972543
 30
0
 11
4.5451035428
 21
4.329703781
 31
0
  0
LINE
  5
2C5
100
AcDbEntity
  8
SEMA2D
100
AcDbLine
370
9
 62
7
  6
_SOLID
 10
4.7685096937
 20
4.3262944549
 30
0
 11
4.7699646133
 21
4.3262944549
 31
0
  0
LINE
  5
2C6
100
AcDbEntity
  8
SEMA2D
100
AcDbLine
370
9
 62
7
  6
_SOLID
 10
4.5585722256
 20
4.3258439928
 30
0
 11
4.516576581
 21
4.3258439928
 31
0
  0
LINE
  5
2C7
100
AcDbEntity
  8
SEMA2D
100
AcDbLine
370
9
 62
7
  6
_SOLID
 10
4.5186811316
 20
4.3301918536
 30
0
 11
4.5204867947
 21
4.3301951617
 31
0
  0
LINE
  5
2C8
100
AcDbEntity
  8
SEMA2D
100
AcDbLine
370
9
 62
7
  6
_SOLID
 10
4.7136062461
 20
4.3262944549
 30
0
 11
4.7667040306
 21
4.3262944549
 31
0
  0
LINE
  5
2C9
100
AcDbEntity
  8
SEMA2D
100
AcDbLine
370
9
 62
7
  6
_SOLID
 10
4.5585722256
 20
4.3263055116
 30
0
 11
4.5170372206
 21
4.3263055116
 31
0
  0
LINE
  5
2CA
100
AcDbEntity
  8
SEMA2D
100
AcDbLine
370
9
 62
7
  6
_SOLID
 10
4.7147412079
 20
4.7186911434
 30
0
 11
4.7108352262
 21
4.717159006
 31
0
  0
LINE
  5
2CB
100
AcDbEntity
  8
SEMA2D
100
AcDbLine
370
9
 62
7
  6
_SOLID
 10
4.5382274169
 20
4.7131522029
 30
0
 11
4.5382274169
 21
4.7113465398
 31
0
  0
LINE
  5
2CC
100
AcDbEntity
  8
SEMA2D
100
AcDbLine
370
9
 62
7
  6
_SOLID
 10
4.537992962
 20
4.716191861
 30
0
 11
4.537992962
 21
4.7269513934
 31
0
  0
LINE
  5
2CD
100
AcDbEntity
  8
SEMA2D
100
AcDbLine
370
9
 62
7
  6
_SOLID
 10
4.5379657525
 20
4.72834948
 30
0
 11
4.5379657525
 21
4.7288109988
 31
0
  0
LINE
  5
2CE
100
AcDbEntity
  8
SEMA2D
100
AcDbLine
370
9
 62
7
  6
_SOLID
 10
4.5914532322
 20
4.7206143468
 30
0
 11
4.5909238088
 21
4.7188759774
 31
0
  0
LINE
  5
2CF
100
AcDbEntity
  8
SEMA2D
100
AcDbLine
370
9
 62
7
  6
_SOLID
 10
4.5416616577
 20
4.7206143468
 30
0
 11
4.5416616577
 21
4.7247990101
 31
0
  0
LINE
  5
2D0
100
AcDbEntity
  8
SEMA2D
100
AcDbLine
370
9
 62
7
  6
_SOLID
 10
4.5408952463
 20
4.72834948
 30
0
 11
4.5408952463
 21
4.7288109988
 31
0
  0
LINE
  5
2D1
100
AcDbEntity
  8
SEMA2D
100
AcDbLine
370
9
 62
7
  6
_SOLID
 10
4.5343570489
 20
4.7134135097
 30
0
 11
4.5343570489
 21
4.727859351
 31
0
  0
LINE
  5
2D2
100
AcDbEntity
  8
SEMA2D
100
AcDbLine
370
9
 62
7
  6
_SOLID
 10
4.5219271558
 20
4.3284120589
 30
0
 11
4.5219271558
 21
4.3301951617
 31
0
  0
LINE
  5
2D3
100
AcDbEntity
  8
SEMA2D
100
AcDbLine
370
9
 62
7
  6
_SOLID
 10
4.5204867947
 20
4.3284120589
 30
0
 11
4.5204867947
 21
4.3301951617
 31
0
  0
LINE
  5
2D4
100
AcDbEntity
  8
SEMA2D
100
AcDbLine
370
9
 62
7
  6
_SOLID
 10
4.5198901969
 20
4.727859351
 30
0
 11
4.5198901969
 21
4.7260313361
 31
0
  0
LINE
  5
2D5
100
AcDbEntity
  8
SEMA2D
100
AcDbLine
370
9
 62
7
  6
_SOLID
 10
4.7651324946
 20
4.3016868114
 30
0
 11
4.765553959
 21
4.3014987737
 31
0
  0
LINE
  5
2D6
100
AcDbEntity
  8
SEMA2D
100
AcDbLine
370
9
 62
7
  6
_SOLID
 10
4.5262114781
 20
4.7134135097
 30
0
 11
4.5262114781
 21
4.7152191728
 31
0
  0
LINE
  5
2D7
100
AcDbEntity
  8
SEMA2D
100
AcDbLine
370
9
 62
7
  6
_SOLID
 10
4.7690294462
 20
4.3104213506
 30
0
 11
4.7694509107
 21
4.3102333277
 31
0
  0
LINE
  5
2D8
100
AcDbEntity
  8
SEMA2D
100
AcDbLine
370
9
 62
7
  6
_SOLID
 10
4.5237480479
 20
4.3301984995
 30
0
 11
4.5219271558
 21
4.3301951617
 31
0
  0
LINE
  5
2D9
100
AcDbEntity
  8
SEMA2D
100
AcDbLine
370
9
 62
7
  6
_SOLID
 10
4.5416616577
 20
4.7206143468
 30
0
 11
4.537992962
 21
4.716191861
 31
0
  0
LINE
  5
2DA
100
AcDbEntity
  8
SEMA2D
100
AcDbLine
370
9
 62
7
  6
_SOLID
 10
4.5382274169
 20
4.7131522029
 30
0
 11
4.5396253395
 21
4.7141905754
 31
0
  0
LINE
  5
2DB
100
AcDbEntity
  8
SEMA2D
100
AcDbLine
370
9
 62
7
  6
_SOLID
 10
4.5903238583
 20
4.7189457744
 30
0
 11
4.5859520513
 21
4.7172308892
 31
0
  0
LINE
  5
2DC
100
AcDbEntity
  8
SEMA2D
100
AcDbLine
370
9
 62
7
  6
_SOLID
 10
4.5434796142
 20
4.7188086837
 30
0
 11
4.5398109186
 21
4.7143861979
 31
0
  0
LINE
  5
2DD
100
AcDbEntity
  8
SEMA2D
100
AcDbLine
370
9
 62
7
  6
_SOLID
 10
4.5618027228
 20
4.3
 30
0
 11
4.7648852843
 21
4.3
 31
0
  0
LINE
  5
2DE
100
AcDbEntity
  8
SEMA2D
100
AcDbLine
370
9
 62
7
  6
_SOLID
 10
4.5651098865
 20
4.7141942709
 30
0
 11
4.5658235478
 21
4.7153231233
 31
0
  0
LINE
  5
2DF
100
AcDbEntity
  8
SEMA2D
100
AcDbLine
370
9
 62
7
  6
_SOLID
 10
4.5400283563
 20
4.3286834389
 30
0
 11
4.5382534194
 21
4.3286801606
 31
0
  0
LINE
  5
2E0
100
AcDbEntity
  8
SEMA2D
100
AcDbLine
370
9
 62
7
  6
_SOLID
 10
4.5461867529
 20
4.3286899954
 30
0
 11
4.5479616749
 21
4.3286932736
 31
0
  0
LINE
  5
2E1
100
AcDbEntity
  8
SEMA2D
100
AcDbLine
370
9
 62
7
  6
_SOLID
 10
4.649426617
 20
4.7189457744
 30
0
 11
4.6450547951
 21
4.7172308892
 31
0
  0
LINE
  5
2E2
100
AcDbEntity
  8
SEMA2D
100
AcDbLine
370
9
 62
7
  6
_SOLID
 10
4.7640534419
 20
4.3026610344
 30
0
 11
4.5753196257
 21
4.3026610493
 31
0
  0
LINE
  5
2E3
100
AcDbEntity
  8
SEMA2D
100
AcDbLine
370
9
 62
7
  6
_SOLID
 10
4.5622642267
 20
4.3004615038
 30
0
 11
4.7645858306
 21
4.3004615038
 31
0
  0
LINE
  5
2E4
100
AcDbEntity
  8
SEMA2D
100
AcDbLine
370
9
 62
7
  6
_SOLID
 10
4.5461064207
 20
4.3280122011
 30
0
 11
4.5477315712
 21
4.3274027139
 31
0
  0
LINE
  5
2E5
100
AcDbEntity
  8
SEMA2D
100
AcDbLine
370
9
 62
7
  6
_SOLID
 10
4.5451035428
 20
4.329703781
 30
0
 11
4.5461867529
 21
4.3286899954
 31
0
  0
LINE
  5
2E6
100
AcDbEntity
  8
SEMA2D
100
AcDbLine
370
9
 62
7
  6
_SOLID
 10
4.5433286059
 20
4.3279174298
 30
0
 11
4.545050897
 21
4.3263055116
 31
0
  0
LINE
  5
2E7
100
AcDbEntity
  8
SEMA2D
100
AcDbLine
370
9
 62
7
  6
_SOLID
 10
4.5245147574
 20
4.3280589908
 30
0
 11
4.5261793512
 21
4.3274027139
 31
0
  0
LINE
  5
2E8
100
AcDbEntity
  8
SEMA2D
100
AcDbLine
370
9
 62
7
  6
_SOLID
 10
4.5428043234
 20
4.6777081817
 30
0
 11
4.5428043234
 21
4.6761094659
 31
0
  0
LINE
  5
2E9
100
AcDbEntity
  8
SEMA2D
100
AcDbLine
370
9
 62
7
  6
_SOLID
 10
4.5262114781
 20
4.7134135097
 30
0
 11
4.5264158326
 21
4.7131522029
 31
0
  0
LINE
  5
2EA
100
AcDbEntity
  8
SEMA2D
100
AcDbLine
370
9
 62
7
  6
_SOLID
 10
4.7072301882
 20
4.6905691355
 30
0
 11
4.7074888128
 21
4.6919464796
 31
0
  0
LINE
  5
2EB
100
AcDbEntity
  8
SEMA2D
100
AcDbLine
370
9
 62
7
  6
_SOLID
 10
4.649426617
 20
4.7189457744
 30
0
 11
4.649426617
 21
4.7207816571
 31
0
  0
LINE
  5
2EC
100
AcDbEntity
  8
SEMA2D
100
AcDbLine
370
9
 62
7
  6
_SOLID
 10
4.6441632587
 20
4.7133084863
 30
0
 11
4.6441632587
 21
4.717159006
 31
0
  0
LINE
  5
2ED
100
AcDbEntity
  8
SEMA2D
100
AcDbLine
370
9
 62
7
  6
_SOLID
 10
4.7108352262
 20
4.7126926511
 30
0
 11
4.7108352262
 21
4.717159006
 31
0
  0
LINE
  5
2EE
100
AcDbEntity
  8
SEMA2D
100
AcDbLine
370
9
 62
7
  6
_SOLID
 10
4.5400283563
 20
4.3286834389
 30
0
 11
4.5411078262
 21
4.3296972543
 31
0
  0
LINE
  5
2EF
100
AcDbEntity
  8
SEMA2D
100
AcDbLine
370
9
 62
7
  6
_SOLID
 10
4.7074888128
 20
4.6967749923
 30
0
 11
4.7074888724
 21
4.69194642
 31
0
  0
LINE
  5
2F0
100
AcDbEntity
  8
SEMA2D
100
AcDbLine
370
9
 62
7
  6
_SOLID
 10
4.7121682542
 20
4.7006589502
 30
0
 11
4.7121682542
 21
4.6988410085
 31
0
  0
LINE
  5
2F1
100
AcDbEntity
  8
SEMA2D
100
AcDbLine
370
9
 62
7
  6
_SOLID
 10
4.7139873582
 20
4.7115028232
 30
0
 11
4.7139873582
 21
4.7024658054
 31
0
  0
LINE
  5
2F2
100
AcDbEntity
  8
SEMA2D
100
AcDbLine
370
9
 62
7
  6
_SOLID
 10
4.7136239487
 20
4.7207816571
 30
0
 11
4.7136239487
 21
4.7247990101
 31
0
  0
LINE
  5
2F3
100
AcDbEntity
  8
SEMA2D
100
AcDbLine
370
9
 62
7
  6
_SOLID
 10
4.712318607
 20
4.7189457744
 30
0
 11
4.712318607
 21
4.7247990101
 31
0
  0
LINE
  5
2F4
100
AcDbEntity
  8
SEMA2D
100
AcDbLine
370
9
 62
7
  6
_SOLID
 10
4.7051812786
 20
4.692664954
 30
0
 11
4.7051813084
 21
4.6948044031
 31
0
  0
LINE
  5
2F5
100
AcDbEntity
  8
SEMA2D
100
AcDbLine
370
9
 62
7
  6
_SOLID
 10
4.6221818852
 20
4.7188759774
 30
0
 11
4.6216524619
 21
4.7206143468
 31
0
  0
LINE
  5
2F6
100
AcDbEntity
  8
SEMA2D
100
AcDbLine
370
9
 62
7
  6
_SOLID
 10
4.6866864639
 20
4.7133084863
 30
0
 11
4.6866864639
 21
4.717159006
 31
0
  0
LINE
  5
2F7
100
AcDbEntity
  8
SEMA2D
100
AcDbLine
370
9
 62
7
  6
_SOLID
 10
4.6814231056
 20
4.7189457744
 30
0
 11
4.6814231056
 21
4.7207816571
 31
0
  0
LINE
  5
2F8
100
AcDbEntity
  8
SEMA2D
100
AcDbLine
370
9
 62
7
  6
_SOLID
 10
4.6978215355
 20
4.6932493776
 30
0
 11
4.6978215653
 21
4.6942246288
 31
0
  0
LINE
  5
2F9
100
AcDbEntity
  8
SEMA2D
100
AcDbLine
370
9
 62
7
  6
_SOLID
 10
4.7001290697
 20
4.6931839317
 30
0
 11
4.7001290697
 21
4.6942900747
 31
0
  0
LINE
  5
2FA
100
AcDbEntity
  8
SEMA2D
100
AcDbLine
370
9
 62
7
  6
_SOLID
 10
4.6978215653
 20
4.6942246288
 30
0
 11
4.6978215653
 21
4.69604263
 31
0
  0
LINE
  5
2FB
100
AcDbEntity
  8
SEMA2D
100
AcDbLine
370
9
 62
7
  6
_SOLID
 10
4.6978215653
 20
4.6914313763
 30
0
 11
4.6978215653
 21
4.6932493776
 31
0
  0
LINE
  5
2FC
100
AcDbEntity
  8
SEMA2D
100
AcDbLine
370
9
 62
7
  6
_SOLID
 10
4.5665936398
 20
4.3004615038
 30
0
 11
4.5665936398
 21
4.3
 31
0
  0
LINE
  5
2FD
100
AcDbEntity
  8
SEMA2D
100
AcDbLine
370
9
 62
7
  6
_SOLID
 10
4.5627516735
 20
4.7145221561
 30
0
 11
4.5627516735
 21
4.7158254712
 31
0
  0
LINE
  5
2FE
100
AcDbEntity
  8
SEMA2D
100
AcDbLine
370
9
 62
7
  6
_SOLID
 10
4.5622642267
 20
4.3226135104
 30
0
 11
4.5622642267
 21
4.3004615038
 31
0
  0
LINE
  5
2FF
100
AcDbEntity
  8
SEMA2D
100
AcDbLine
370
9
 62
7
  6
_SOLID
 10
4.5683614987
 20
4.7006589502
 30
0
 11
4.5683614987
 21
4.6988410085
 31
0
  0
LINE
  5
300
100
AcDbEntity
  8
SEMA2D
100
AcDbLine
370
9
 62
7
  6
_SOLID
 10
4.5708568025
 20
4.3004615038
 30
0
 11
4.5708568025
 21
4.3
 31
0
  0
LINE
  5
301
100
AcDbEntity
  8
SEMA2D
100
AcDbLine
370
9
 62
7
  6
_SOLID
 10
4.5690749812
 20
4.6949570506
 30
0
 11
4.5690749812
 21
4.6967749923
 31
0
  0
LINE
  5
302
100
AcDbEntity
  8
SEMA2D
100
AcDbLine
370
9
 62
7
  6
_SOLID
 10
4.5618027228
 20
4.3
 30
0
 11
4.5618027228
 21
4.3226135104
 31
0
  0
LINE
  5
303
100
AcDbEntity
  8
SEMA2D
100
AcDbLine
370
9
 62
7
  6
_SOLID
 10
4.5433286059
 20
4.3297005325
 30
0
 11
4.5433286059
 21
4.3279174298
 31
0
  0
LINE
  5
304
100
AcDbEntity
  8
SEMA2D
100
AcDbLine
370
9
 62
7
  6
_SOLID
 10
4.5432501662
 20
4.6777081817
 30
0
 11
4.5432501662
 21
4.6761094659
 31
0
  0
LINE
  5
305
100
AcDbEntity
  8
SEMA2D
100
AcDbLine
370
9
 62
7
  6
_SOLID
 10
4.5428827631
 20
4.3297005325
 30
0
 11
4.5428827631
 21
4.3279174298
 31
0
  0
LINE
  5
306
100
AcDbEntity
  8
SEMA2D
100
AcDbLine
370
9
 62
7
  6
_SOLID
 10
4.5434796142
 20
4.7188086837
 30
0
 11
4.5434796142
 21
4.726627025
 31
0
  0
LINE
  5
307
100
AcDbEntity
  8
SEMA2D
100
AcDbLine
370
9
 62
7
  6
_SOLID
 10
4.5616199452
 20
4.717159006
 30
0
 11
4.5616199303
 21
4.7145221561
 31
0
  0
LINE
  5
308
100
AcDbEntity
  8
SEMA2D
100
AcDbLine
370
9
 62
7
  6
_SOLID
 10
4.5563566017
 20
4.7207816571
 30
0
 11
4.5563566017
 21
4.7189457744
 31
0
  0
LINE
  5
309
100
AcDbEntity
  8
SEMA2D
100
AcDbLine
370
9
 62
7
  6
_SOLID
 10
4.6227818358
 20
4.7189457744
 30
0
 11
4.6227818358
 21
4.7207816571
 31
0
  0
LINE
  5
30A
100
AcDbEntity
  8
SEMA2D
100
AcDbLine
370
9
 62
7
  6
_SOLID
 10
4.6500265676
 20
4.7188759774
 30
0
 11
4.6505560058
 21
4.7206143468
 31
0
  0
LINE
  5
30B
100
AcDbEntity
  8
SEMA2D
100
AcDbLine
370
9
 62
7
  6
_SOLID
 10
4.6280451941
 20
4.7133084863
 30
0
 11
4.6280451941
 21
4.717159006
 31
0
  0
LINE
  5
30C
100
AcDbEntity
  8
SEMA2D
100
AcDbLine
370
9
 62
7
  6
_SOLID
 10
4.5798060524
 20
4.6905700892
 30
0
 11
4.5795477259
 21
4.691948983
 31
0
  0
LINE
  5
30D
100
AcDbEntity
  8
SEMA2D
100
AcDbLine
370
9
 62
7
  6
_SOLID
 10
4.5552272129
 20
4.7206143468
 30
0
 11
4.5557566363
 21
4.7188759774
 31
0
  0
LINE
  5
30E
100
AcDbEntity
  8
SEMA2D
100
AcDbLine
370
9
 62
7
  6
_SOLID
 10
4.5903238583
 20
4.7207816571
 30
0
 11
4.5903238583
 21
4.7189457744
 31
0
  0
LINE
  5
30F
100
AcDbEntity
  8
SEMA2D
100
AcDbLine
370
9
 62
7
  6
_SOLID
 10
4.5795476663
 20
4.691948983
 30
0
 11
4.5795477259
 21
4.6967749923
 31
0
  0
LINE
  5
310
100
AcDbEntity
  8
SEMA2D
100
AcDbLine
370
9
 62
7
  6
_SOLID
 10
4.7167817432
 20
4.7124914854
 30
0
 11
4.7157930213
 21
4.7115028232
 31
0
  0
LINE
  5
311
100
AcDbEntity
  8
SEMA2D
100
AcDbLine
370
9
 62
7
  6
_SOLID
 10
4.5818552303
 20
4.6948044031
 30
0
 11
4.5818552452
 21
4.6926651924
 31
0
  0
LINE
  5
312
100
AcDbEntity
  8
SEMA2D
100
AcDbLine
370
9
 62
7
  6
_SOLID
 10
4.5892149734
 20
4.6914313763
 30
0
 11
4.5892149734
 21
4.69604263
 31
0
  0
LINE
  5
313
100
AcDbEntity
  8
SEMA2D
100
AcDbLine
370
9
 62
7
  6
_SOLID
 10
4.5869074392
 20
4.6931839317
 30
0
 11
4.586907469
 21
4.6942900747
 31
0
  0
LINE
  5
314
100
AcDbEntity
  8
SEMA2D
100
AcDbLine
370
9
 62
7
  6
_SOLID
 10
4.5850604999
 20
4.7133084863
 30
0
 11
4.5850604999
 21
4.717159006
 31
0
  0
LINE
  5
315
100
AcDbEntity
  8
SEMA2D
100
AcDbLine
370
9
 62
7
  6
_SOLID
 10
4.5178006667
 20
4.7257660359
 30
0
 11
4.5196063298
 21
4.725762698
 31
0
  0
LINE
  5
316
100
AcDbEntity
  8
SEMA2D
100
AcDbLine
370
9
 62
7
  6
_SOLID
 10
4.516576581
 20
4.7288109988
 30
0
 11
4.743633725
 21
4.7288109988
 31
0
  0
LINE
  5
317
100
AcDbEntity
  8
SEMA2D
100
AcDbLine
370
9
 62
7
  6
_SOLID
 10
4.5170372206
 20
4.72834948
 30
0
 11
4.7431722361
 21
4.72834948
 31
0
  0
LINE
  5
318
100
AcDbEntity
  8
SEMA2D
100
AcDbLine
370
9
 62
7
  6
_SOLID
 10
4.7147412079
 20
4.7186911434
 30
0
 11
4.712318607
 21
4.7189457744
 31
0
  0
LINE
  5
319
100
AcDbEntity
  8
SEMA2D
100
AcDbLine
370
9
 62
7
  6
_SOLID
 10
4.718080588
 20
4.7196670502
 30
0
 11
4.7176796871
 21
4.7197522848
 31
0
  0
LINE
  5
31A
100
AcDbEntity
  8
SEMA2D
100
AcDbLine
370
9
 62
7
  6
_SOLID
 10
4.7167752463
 20
4.7178613871
 30
0
 11
4.716374405
 21
4.7179466217
 31
0
  0
LINE
  5
31B
100
AcDbEntity
  8
SEMA2D
100
AcDbLine
370
9
 62
7
  6
_SOLID
 10
4.7160465497
 20
4.720527026
 30
0
 11
4.7136239487
 21
4.7207816571
 31
0
  0
LINE
  5
31C
100
AcDbEntity
  8
SEMA2D
100
AcDbLine
370
9
 62
7
  6
_SOLID
 10
4.5663301277
 20
4.692179355
 30
0
 11
4.5663263577
 21
4.689687106
 31
0
  0
LINE
  5
31D
100
AcDbEntity
  8
SEMA2D
100
AcDbLine
370
9
 62
7
  6
_SOLID
 10
4.5264158326
 20
4.7113465398
 30
0
 11
4.5264070409
 21
4.7061306566
 31
0
  0
LINE
  5
31E
100
AcDbEntity
  8
SEMA2D
100
AcDbLine
370
9
 62
7
  6
_SOLID
 10
4.5264321047
 20
4.334018591
 30
0
 11
4.5264415967
 21
4.3288027077
 31
0
  0
LINE
  5
31F
100
AcDbEntity
  8
SEMA2D
100
AcDbLine
370
9
 62
7
  6
_SOLID
 10
4.5245693701
 20
4.6957017511
 30
0
 11
4.5245461094
 21
4.6800538033
 31
0
  0
LINE
  5
320
100
AcDbEntity
  8
SEMA2D
100
AcDbLine
370
9
 62
7
  6
_SOLID
 10
4.5461109656
 20
4.6793594688
 30
0
 11
4.5460901636
 21
4.6637381643
 31
0
  0
LINE
  5
321
100
AcDbEntity
  8
SEMA2D
100
AcDbLine
370
9
 62
7
  6
_SOLID
 10
4.7704005319
 20
4.3123618096
 30
0
 11
4.7704300958
 21
4.3285760909
 31
0
  0
LINE
  5
322
100
AcDbEntity
  8
SEMA2D
100
AcDbLine
370
9
 62
7
  6
_SOLID
 10
4.5165469575
 20
4.7123123735
 30
0
 11
4.516576581
 21
4.7288109988
 31
0
  0
ARC
  5
323
100
AcDbEntity
  8
SEMA2D
100
AcDbCircle
370
9
 62
7
  6
_SOLID
 10
110.1912182945
 20
4.5308274954
 30
0
 40
105.6735916138
100
AcDbArc
 50
179.894302370498
 51
179.919067381237
  0
ARC
  5
324
100
AcDbEntity
  8
SEMA2D
100
AcDbCircle
370
9
 62
7
  6
_SOLID
 10
110.1912182945
 20
4.5308274954
 30
0
 40
105.6727142334
100
AcDbArc
 50
179.921798708057
 51
180.108779907198
  0
ARC
  5
325
100
AcDbEntity
  8
SEMA2D
100
AcDbCircle
370
9
 62
7
  6
_SOLID
 10
4.7468642372
 20
4.7117355197
 30
0
 40
0.0036919999
100
AcDbArc
 50
180
 51
270
  0
ARC
  5
326
100
AcDbEntity
  8
SEMA2D
100
AcDbCircle
370
9
 62
7
  6
_SOLID
 10
110.1912182945
 20
4.5308274954
 30
0
 40
105.6743621826
100
AcDbArc
 50
179.892898558454
 51
180.110885622632
  0
ARC
  5
327
100
AcDbEntity
  8
SEMA2D
100
AcDbCircle
370
9
 62
7
  6
_SOLID
 10
110.1912182945
 20
4.5308274954
 30
0
 40
105.6717910767
100
AcDbArc
 50
179.894302370498
 51
179.919067381237
  0
ARC
  5
328
100
AcDbEntity
  8
SEMA2D
100
AcDbCircle
370
9
 62
7
  6
_SOLID
 10
4.7468642372
 20
4.7117355197
 30
0
 40
0.0037485224
100
AcDbArc
 50
180
 51
270
  0
ARC
  5
329
100
AcDbEntity
  8
SEMA2D
100
AcDbCircle
370
9
 62
7
  6
_SOLID
 10
4.5585722256
 20
4.3226135104
 30
0
 40
0.0036919999
100
AcDbArc
 50
0
 51
90
  0
ARC
  5
32A
100
AcDbEntity
  8
SEMA2D
100
AcDbCircle
370
9
 62
7
  6
_SOLID
 10
4.7468642372
 20
4.7117355197
 30
0
 40
0.0055664773
100
AcDbArc
 50
180
 51
270
  0
ARC
  5
32B
100
AcDbEntity
  8
SEMA2D
100
AcDbCircle
370
9
 62
7
  6
_SOLID
 10
4.7468642372
 20
4.7117355197
 30
0
 40
0.0032305
100
AcDbArc
 50
180
 51
270
  0
ARC
  5
32C
100
AcDbEntity
  8
SEMA2D
100
AcDbCircle
370
9
 62
7
  6
_SOLID
 10
110.1912182945
 20
4.5308274954
 30
0
 40
105.6709060669
100
AcDbArc
 50
179.921798708057
 51
180.104995726371
  0
ARC
  5
32D
100
AcDbEntity
  8
SEMA2D
100
AcDbCircle
370
9
 62
7
  6
_SOLID
 10
4.5585722256
 20
4.3226135104
 30
0
 40
0.0032305
100
AcDbArc
 50
0
 51
90
  0
LINE
  5
32E
100
AcDbEntity
  8
SEMA2D
100
AcDbLine
370
9
 62
7
  6
_SOLID
 10
4.5763848501
 20
4.3262944549
 30
0
 11
4.5763848501
 21
4.6893453329
 31
0
  0
LINE
  5
32F
100
AcDbEntity
  8
SEMA2D
100
AcDbLine
370
9
 62
7
  6
_SOLID
 10
4.5739234912
 20
4.6894190043
 30
0
 11
4.5732391405
 21
4.3262975543
 31
0
  0
LINE
  5
330
100
AcDbEntity
  8
SEMA2D
100
AcDbLine
370
9
 62
7
  6
_SOLID
 10
4.573252328
 20
4.3262944549
 30
0
 11
4.5645490217
 21
4.3262910276
 31
0
  0
LINE
  5
331
100
AcDbEntity
  8
SEMA2D
100
AcDbLine
370
9
 62
7
  6
_SOLID
 10
4.5634008723
 20
4.3254423469
 30
0
 11
4.5634008723
 21
4.7120158404
 31
0
  0
LINE
  5
332
100
AcDbEntity
  8
SEMA2D
100
AcDbLine
370
9
 62
7
  6
_SOLID
 10
4.5644875842
 20
4.6921821564
 30
0
 11
4.5663301277
 21
4.692179355
 31
0
  0
LINE
  5
333
100
AcDbEntity
  8
SEMA2D
100
AcDbLine
370
9
 62
7
  6
_SOLID
 10
4.5663301277
 20
4.692179355
 30
0
 11
4.5663301277
 21
4.3262975543
 31
0
  0
LINE
  5
334
100
AcDbEntity
  8
SEMA2D
100
AcDbLine
370
9
 62
7
  6
_SOLID
 10
4.5645490217
 20
4.3262940973
 30
0
 11
4.5645490217
 21
4.6921820372
 31
0
  0
LINE
  5
335
100
AcDbEntity
  8
SEMA2D
100
AcDbLine
370
9
 62
7
  6
_SOLID
 10
4.5596824515
 20
4.7105991572
 30
0
 11
4.5596824515
 21
4.3272680968
 31
0
  0
LINE
  5
336
100
AcDbEntity
  8
SEMA2D
100
AcDbLine
370
9
 62
7
  6
_SOLID
 10
4.5585722256
 20
4.3274027139
 30
0
 11
4.5597123432
 21
4.3272650271
 31
0
  0
LINE
  5
337
100
AcDbEntity
  8
SEMA2D
100
AcDbLine
370
9
 62
7
  6
_SOLID
 10
4.5597123432
 20
4.3272650271
 30
0
 11
4.5594511408
 21
4.3261993557
 31
0
  0
LINE
  5
338
100
AcDbEntity
  8
SEMA2D
100
AcDbLine
370
9
 62
7
  6
_SOLID
 10
4.5585722256
 20
4.3263055116
 30
0
 11
4.5585722256
 21
4.3274027139
 31
0
  0
LINE
  5
339
100
AcDbEntity
  8
SEMA2D
100
AcDbLine
370
9
 62
7
  6
_SOLID
 10
4.7136161405
 20
4.3262944847
 30
0
 11
4.7131035703
 21
4.6894190043
 31
0
  0
LINE
  5
33A
100
AcDbEntity
  8
SEMA2D
100
AcDbLine
370
9
 62
7
  6
_SOLID
 10
4.7105587798
 20
4.6893427699
 30
0
 11
4.7105587798
 21
4.3262781232
 31
0
  0
ARC
  5
33B
100
AcDbEntity
  8
SEMA2D
100
AcDbCircle
370
9
 62
7
  6
_SOLID
 10
4.6435041207
 20
6.4077153533
 30
0
 40
1.7196803093
100
AcDbArc
 50
267.76318359385
 51
272.234680174172
  0
ARC
  5
33C
100
AcDbEntity
  8
SEMA2D
100
AcDbCircle
370
9
 62
7
  6
_SOLID
 10
4.6435079354
 20
6.4717207282
 30
0
 40
1.7818744183
100
AcDbArc
 50
268.053894043651
 51
271.946594237779
  0
LINE
  5
33D
100
AcDbEntity
  8
SEMA2D
100
AcDbLine
370
9
 62
7
  6
_SOLID
 10
4.5680660832
 20
4.7133087843
 30
0
 11
4.5680660832
 21
4.6988362997
 31
0
  0
LINE
  5
33E
100
AcDbEntity
  8
SEMA2D
100
AcDbLine
370
9
 62
7
  6
_SOLID
 10
4.5382274169
 20
4.7131522029
 30
0
 11
4.5382274169
 21
4.32868326
 31
0
  0
LINE
  5
33F
100
AcDbEntity
  8
SEMA2D
100
AcDbLine
370
9
 62
7
  6
_SOLID
 10
4.5400283563
 20
4.3286865383
 30
0
 11
4.5400283563
 21
4.7113435596
 31
0
  0
LINE
  5
340
100
AcDbEntity
  8
SEMA2D
100
AcDbLine
370
9
 62
7
  6
_SOLID
 10
4.540424459
 20
4.7114850014
 30
0
 11
4.540424459
 21
4.6801086396
 31
0
  0
LINE
  5
341
100
AcDbEntity
  8
SEMA2D
100
AcDbLine
370
9
 62
7
  6
_SOLID
 10
4.5421504009
 20
4.6801061958
 30
0
 11
4.5421504009
 21
4.7114820212
 31
0
  0
LINE
  5
342
100
AcDbEntity
  8
SEMA2D
100
AcDbLine
370
9
 62
7
  6
_SOLID
 10
4.5439642
 20
4.7114820212
 30
0
 11
4.5439642
 21
4.6801061362
 31
0
  0
LINE
  5
343
100
AcDbEntity
  8
SEMA2D
100
AcDbLine
370
9
 62
7
  6
_SOLID
 10
4.5456901568
 20
4.6801036924
 30
0
 11
4.5456901568
 21
4.7114790409
 31
0
  0
LINE
  5
344
100
AcDbEntity
  8
SEMA2D
100
AcDbLine
370
9
 62
7
  6
_SOLID
 10
4.5461594987
 20
4.7106021374
 30
0
 11
4.5461594987
 21
4.3286930948
 31
0
  0
LINE
  5
345
100
AcDbEntity
  8
SEMA2D
100
AcDbLine
370
9
 62
7
  6
_SOLID
 10
4.5479616749
 20
4.3286963731
 30
0
 11
4.5479616749
 21
4.7105991572
 31
0
  0
LINE
  5
346
100
AcDbEntity
  8
SEMA2D
100
AcDbLine
370
9
 62
7
  6
_SOLID
 10
4.540424459
 20
4.6801086396
 30
0
 11
4.5456901568
 21
4.6801036924
 31
0
  0
LINE
  5
347
100
AcDbEntity
  8
SEMA2D
100
AcDbLine
370
9
 62
7
  6
_SOLID
 10
4.5264158326
 20
4.7113465398
 30
0
 11
4.5400023538
 21
4.7113465398
 31
0
  0
LINE
  5
348
100
AcDbEntity
  8
SEMA2D
100
AcDbLine
370
9
 62
7
  6
_SOLID
 10
4.5264158326
 20
4.7131522029
 30
0
 11
4.5264158326
 21
4.7113465398
 31
0
  0
LINE
  5
349
100
AcDbEntity
  8
SEMA2D
100
AcDbLine
370
9
 62
7
  6
_SOLID
 10
4.5225964266
 20
4.711579892
 30
0
 11
4.5225964266
 21
4.6801061958
 31
0
  0
LINE
  5
34A
100
AcDbEntity
  8
SEMA2D
100
AcDbLine
370
9
 62
7
  6
_SOLID
 10
4.5243681747
 20
4.6801036328
 30
0
 11
4.5243681747
 21
4.7115768522
 31
0
  0
LINE
  5
34B
100
AcDbEntity
  8
SEMA2D
100
AcDbLine
370
9
 62
7
  6
_SOLID
 10
4.5245949405
 20
4.7113496989
 30
0
 11
4.5245949405
 21
4.3288024097
 31
0
  0
LINE
  5
34C
100
AcDbEntity
  8
SEMA2D
100
AcDbLine
370
9
 62
7
  6
_SOLID
 10
4.5665936398
 20
4.3004615038
 30
0
 11
4.5753196257
 21
4.3026610493
 31
0
  0
LINE
  5
34D
100
AcDbEntity
  8
SEMA2D
100
AcDbLine
370
9
 62
7
  6
_SOLID
 10
4.516576581
 20
4.7288109988
 30
0
 11
4.516576581
 21
4.3258439928
 31
0
  0
LINE
  5
34E
100
AcDbEntity
  8
SEMA2D
100
AcDbLine
370
9
 62
7
  6
_SOLID
 10
4.5186021405
 20
4.6750461787
 30
0
 11
4.5186021405
 21
4.3371918529
 31
0
  0
LINE
  5
34F
100
AcDbEntity
  8
SEMA2D
100
AcDbLine
370
9
 62
7
  6
_SOLID
 10
4.5204867947
 20
4.3301925093
 30
0
 11
4.5204867947
 21
4.6750436753
 31
0
  0
LINE
  5
350
100
AcDbEntity
  8
SEMA2D
100
AcDbLine
370
9
 62
7
  6
_SOLID
 10
4.5218481648
 20
4.6750436753
 30
0
 11
4.5218481648
 21
4.3301950126
 31
0
  0
LINE
  5
351
100
AcDbEntity
  8
SEMA2D
100
AcDbLine
370
9
 62
7
  6
_SOLID
 10
4.5237480479
 20
4.3302015692
 30
0
 11
4.5237480479
 21
4.6750412315
 31
0
  0
LINE
  5
352
100
AcDbEntity
  8
SEMA2D
100
AcDbLine
370
9
 62
7
  6
_SOLID
 10
4.5264158326
 20
4.7113465398
 30
0
 11
4.5264158326
 21
4.3288057476
 31
0
  0
LINE
  5
353
100
AcDbEntity
  8
SEMA2D
100
AcDbLine
370
9
 62
7
  6
_SOLID
 10
4.5411078262
 20
4.3297003537
 30
0
 11
4.5411078262
 21
4.6761119097
 31
0
  0
LINE
  5
354
100
AcDbEntity
  8
SEMA2D
100
AcDbLine
370
9
 62
7
  6
_SOLID
 10
4.5450251031
 20
4.6761070221
 30
0
 11
4.5450251031
 21
4.3297067314
 31
0
  0
LINE
  5
355
100
AcDbEntity
  8
SEMA2D
100
AcDbLine
370
9
 62
7
  6
_SOLID
 10
4.5433286059
 20
4.3297036022
 30
0
 11
4.5433286059
 21
4.6761091083
 31
0
  0
LINE
  5
356
100
AcDbEntity
  8
SEMA2D
100
AcDbLine
370
9
 62
7
  6
_SOLID
 10
4.5428043234
 20
4.6761094659
 30
0
 11
4.5428043234
 21
4.3297031253
 31
0
  0
LINE
  5
357
100
AcDbEntity
  8
SEMA2D
100
AcDbLine
370
9
 62
7
  6
_SOLID
 10
4.7704815346
 20
4.3680047124
 30
0
 11
4.7704815346
 21
4.7085050076
 31
0
  0
LINE
  5
358
100
AcDbEntity
  8
SEMA2D
100
AcDbLine
370
9
 62
7
  6
_SOLID
 10
4.7667040306
 20
4.3332944542
 30
0
 11
4.7667040306
 21
4.3262944549
 31
0
  0
LINE
  5
359
100
AcDbEntity
  8
SEMA2D
100
AcDbLine
370
9
 62
7
  6
_SOLID
 10
4.7685096937
 20
4.3332944542
 30
0
 11
4.7685096937
 21
4.3262944549
 31
0
  0
LINE
  5
35A
100
AcDbEntity
  8
SEMA2D
100
AcDbLine
370
9
 62
7
  6
_SOLID
 10
4.7699646133
 20
4.3332944542
 30
0
 11
4.7699646133
 21
4.3262944549
 31
0
  0
LINE
  5
35B
100
AcDbEntity
  8
SEMA2D
100
AcDbLine
370
9
 62
7
  6
_SOLID
 10
4.7704815346
 20
4.3680047124
 30
0
 11
4.7704815346
 21
4.3285760909
 31
0
  0
LINE
  5
35C
100
AcDbEntity
  8
SEMA2D
100
AcDbLine
370
9
 62
7
  6
_SOLID
 10
4.7701239961
 20
4.5137519866
 30
0
 11
4.7699392217
 21
4.7080434888
 31
0
  0
LINE
  5
35D
100
AcDbEntity
  8
SEMA2D
100
AcDbLine
370
9
 62
7
  6
_SOLID
 10
4.7668634432
 20
4.5137519866
 30
0
 11
4.7671027261
 21
4.6971072882
 31
0
  0
LINE
  5
35E
100
AcDbEntity
  8
SEMA2D
100
AcDbLine
370
9
 62
7
  6
_SOLID
 10
4.7686691064
 20
4.5137519866
 30
0
 11
4.7680555361
 21
4.7061690419
 31
0
  0
LINE
  5
35F
100
AcDbEntity
  8
SEMA2D
100
AcDbLine
370
9
 62
7
  6
_SOLID
 10
4.7667040306
 20
4.3332944542
 30
0
 11
4.7668634432
 21
4.5137519866
 31
0
  0
LINE
  5
360
100
AcDbEntity
  8
SEMA2D
100
AcDbLine
370
9
 62
7
  6
_SOLID
 10
4.7686691064
 20
4.5137519866
 30
0
 11
4.7685096937
 21
4.3332944542
 31
0
  0
LINE
  5
361
100
AcDbEntity
  8
SEMA2D
100
AcDbLine
370
9
 62
7
  6
_SOLID
 10
4.7699646133
 20
4.3332944542
 30
0
 11
4.7701239961
 21
4.5137519866
 31
0
  0
LINE
  5
362
100
AcDbEntity
  8
SEMA2D
100
AcDbLine
370
9
 62
7
  6
_SOLID
 10
4.559619956
 20
4.9396628214
 30
0
 11
4.559619956
 21
4.9326628519
 31
0
  0
LINE
  5
363
100
AcDbEntity
  8
SEMA2D
100
AcDbLine
370
9
 62
7
  6
_DOT
 10
4.559619956
 20
4.8716628624
 30
0
 11
4.559619956
 21
4.9396628214
 31
0
  0
LINE
  5
364
100
AcDbEntity
  8
SEMA2D
100
AcDbLine
370
9
 62
7
  6
_DOT
 10
4.7705854255
 20
4.8716628624
 30
0
 11
4.7705854255
 21
4.9396628214
 31
0
  0
LINE
  5
365
100
AcDbEntity
  8
SEMA2D
100
AcDbLine
370
9
 62
7
  6
_DOT
 10
4.305
 20
4.7274265021
 30
0
 11
4.305
 21
4.777426514
 31
0
  0
LINE
  5
366
100
AcDbEntity
  8
SEMA2D
100
AcDbLine
370
9
 62
7
  6
_DOT
 10
4.3409969959
 20
4.7274265021
 30
0
 11
4.3409969959
 21
4.777426514
 31
0
  0
LINE
  5
367
100
AcDbEntity
  8
SEMA2D
100
AcDbLine
370
9
 62
7
  6
_DOT
 10
4.3566879968
 20
4.7119680374
 30
0
 11
4.3566879968
 21
4.777426514
 31
0
  0
LINE
  5
368
100
AcDbEntity
  8
SEMA2D
100
AcDbLine
370
9
 62
7
  6
_SOLID
 10
4.305
 20
4.2500000029
 30
0
 11
4.3562264967
 21
4.2500000029
 31
0
  0
LINE
  5
369
100
AcDbEntity
  8
SEMA2D
100
AcDbLine
370
9
 62
7
  6
_SOLID
 10
4.305
 20
4.2500000029
 30
0
 11
4.305
 21
4.2570000022
 31
0
  0
LINE
  5
36A
100
AcDbEntity
  8
SEMA2D
100
AcDbLine
370
9
 62
7
  6
_SOLID
 10
4.305
 20
4.2500000029
 30
0
 11
4.305
 21
4.2430000037
 31
0
  0
LINE
  5
36B
100
AcDbEntity
  8
SEMA2D
100
AcDbLine
370
9
 62
7
  6
_SOLID
 10
4.305
 20
4.2500000029
 30
0
 11
4.3110621723
 21
4.2535000026
 31
0
  0
LINE
  5
36C
100
AcDbEntity
  8
SEMA2D
100
AcDbLine
370
9
 62
7
  6
_SOLID
 10
4.305
 20
4.2500000029
 30
0
 11
4.2989378202
 21
4.2465000033
 31
0
  0
LINE
  5
36D
100
AcDbEntity
  8
SEMA2D
100
AcDbLine
370
9
 62
7
  6
_DOT
 10
4.305
 20
4.3
 30
0
 11
4.305
 21
4.2500000029
 31
0
  0
MTEXT
  5
36E
100
AcDbEntity
  8
SEMATEXT
100
AcDbMText
370
9
 62
7
 10
4.3257208618
 20
4.27119326256829
 30
0
 40
0.010476
  1
{\fHelveticaNeueLT Com 55 Roman;51}
 50
0
 41
0
  7
STANDARD
 71
0
 73
1
 44
1
  0
LINE
  5
373
100
AcDbEntity
  8
SEMA2D
100
AcDbLine
370
9
 62
7
  6
_SOLID
 10
4.3562264967
 20
4.2500000029
 30
0
 11
4.3562264967
 21
4.2570000022
 31
0
  0
LINE
  5
374
100
AcDbEntity
  8
SEMA2D
100
AcDbLine
370
9
 62
7
  6
_SOLID
 10
4.3562264967
 20
4.2500000029
 30
0
 11
4.3562264967
 21
4.2430000037
 31
0
  0
LINE
  5
375
100
AcDbEntity
  8
SEMA2D
100
AcDbLine
370
9
 62
7
  6
_SOLID
 10
4.3562264967
 20
4.2500000029
 30
0
 11
4.3622886746
 21
4.2535000026
 31
0
  0
LINE
  5
376
100
AcDbEntity
  8
SEMA2D
100
AcDbLine
370
9
 62
7
  6
_SOLID
 10
4.3562264967
 20
4.2500000029
 30
0
 11
4.3501643206
 21
4.2465000033
 31
0
  0
LINE
  5
377
100
AcDbEntity
  8
SEMA2D
100
AcDbLine
370
9
 62
7
  6
_DOT
 10
4.3562264967
 20
4.3
 30
0
 11
4.3562264967
 21
4.2500000029
 31
0
  0
LINE
  5
378
100
AcDbEntity
  8
SEMA2D
100
AcDbLine
370
9
 62
7
  6
_DOT
 10
4.516576581
 20
4.72834948
 30
0
 11
4.516576581
 21
4.777426514
 31
0
  0
LINE
  5
379
100
AcDbEntity
  8
SEMA2D
100
AcDbLine
370
9
 62
7
  6
_DOT
 10
4.7704815346
 20
4.72834948
 30
0
 11
4.7704815346
 21
4.777426514
 31
0
  0
MTEXT
  5
37A
100
AcDbEntity
  8
SEMATEXT
100
AcDbMText
370
9
 62
7
 10
4.6424370538
 20
4.95569905066829
 30
0
 40
0.010476
  1
{\fHelveticaNeueLT Com 55 Roman;= Deckbreite}
 50
0
 41
0
  7
STANDARD
 71
0
 73
1
 44
1
  0
MTEXT
  5
37F
100
AcDbEntity
  8
SEMATEXT
100
AcDbMText
370
9
 62
7
 10
4.37121788153171
 20
4.43671539719992
 30
0
 40
0.010476
  1
{\fHelveticaNeueLT Com 55 Roman;Lattweite = 300 - 372 mm}
 50
90
 41
0
  7
STANDARD
 71
0
 73
1
 44
1
  0
LINE
  5
384
100
AcDbEntity
  8
SEMA2D
100
AcDbLine
370
9
 62
7
  6
_SOLID
 10
4.3923814975
 20
4.3310252052
 30
0
 11
4.3923814975
 21
4.7018362015
 31
0
  0
LINE
  5
385
100
AcDbEntity
  8
SEMA2D
100
AcDbLine
370
9
 62
7
  6
_SOLID
 10
4.3859370567
 20
4.7018362015
 30
0
 11
4.3989370571
 21
4.7018362015
 31
0
  0
LINE
  5
386
100
AcDbEntity
  8
SEMA2D
100
AcDbLine
370
9
 62
7
  6
_SOLID
 10
4.3856370566
 20
4.3310252052
 30
0
 11
4.3994370571
 21
4.3310252052
 31
0
  0
LINE
  5
387
100
AcDbEntity
  8
SEMA2D
100
AcDbLine
370
9
 62
7
  6
_DOT
 10
4.3923814975
 20
4.7018362015
 30
0
 11
4.3409969959
 21
4.7018362015
 31
0
  0
LINE
  5
388
100
AcDbEntity
  8
SEMA2D
100
AcDbLine
370
9
 62
7
  6
_DOT
 10
4.3923814975
 20
4.3310252052
 30
0
 11
4.3423814963
 21
4.3310252052
 31
0
  0
LINE
  5
389
100
AcDbEntity
  8
SEMA2D
100
AcDbLine
370
9
 62
7
  6
_SOLID
 10
4.8208852786
 20
4.3
 30
0
 11
4.8208852786
 21
4.7288109988
 31
0
  0
LINE
  5
38A
100
AcDbEntity
  8
SEMA2D
100
AcDbLine
370
9
 62
7
  6
_SOLID
 10
4.8208852786
 20
4.3
 30
0
 11
4.8138852793
 21
4.3
 31
0
  0
LINE
  5
38B
100
AcDbEntity
  8
SEMA2D
100
AcDbLine
370
9
 62
7
  6
_SOLID
 10
4.8208852786
 20
4.3
 30
0
 11
4.8278852779
 21
4.3
 31
0
  0
LINE
  5
38C
100
AcDbEntity
  8
SEMA2D
100
AcDbLine
370
9
 62
7
  6
_DOT
 10
4.7704005319
 20
4.3
 30
0
 11
4.8208852786
 21
4.3
 31
0
  0
MTEXT
  5
38D
100
AcDbEntity
  8
SEMATEXT
100
AcDbMText
370
9
 62
7
 10
4.79969200403171
 20
4.50584382109992
 30
0
 40
0.010476
  1
{\fHelveticaNeueLT Com 55 Roman;431}
 50
90
 41
0
  7
STANDARD
 71
0
 73
1
 44
1
  0
LINE
  5
392
100
AcDbEntity
  8
SEMA2D
100
AcDbLine
370
9
 62
7
  6
_SOLID
 10
4.8208852786
 20
4.7288109988
 30
0
 11
4.8138852793
 21
4.7288109988
 31
0
  0
LINE
  5
393
100
AcDbEntity
  8
SEMA2D
100
AcDbLine
370
9
 62
7
  6
_SOLID
 10
4.8208852786
 20
4.7288109988
 30
0
 11
4.8278852779
 21
4.7288109988
 31
0
  0
LINE
  5
394
100
AcDbEntity
  8
SEMA2D
100
AcDbLine
370
9
 62
7
  6
_DOT
 10
4.7704005319
 20
4.7288109988
 30
0
 11
4.8208852786
 21
4.7288109988
 31
0
  0
ENDSEC
  0
SECTION
  2
OBJECTS
  0
DICTIONARY
  5
3A5
100
AcDbDictionary
  3
ACAD_GROUP
350
3A6
  3
ACAD_MATERIAL
350
3A7
  3
ACAD_WIPEOUT_VARS
350
3A8
  3
ACAD_MLINESTYLE
350
3A9
  3
ACAD_LAYOUT
350
3AA
  0
DICTIONARY
  5
3A6
330
3A5
100
AcDbDictionary
  0
DICTIONARY
  5
3A7
330
3A5
100
AcDbDictionary
  0
WIPEOUTVARIABLES
  5
3A8
330
3A5
100
AcDbWipeoutVariables
 70
1
  0
DICTIONARY
  5
3A9
330
3A5
100
AcDbDictionary
  3
STANDARD
350
3AB
  0
MLINESTYLE
  5
3AB
100
AcDbMlineStyle
  2
STANDARD
 70
0
  3

 62
256
 51
90
 52
90
 71
2
 49
0.5
 62
256
  6
ByLayer
 49
-0.5
 62
256
  6
ByLayer
  0
DICTIONARY
  5
3AA
100
AcDbDictionary
281
1
  3
Model
350
395
  0
LAYOUT
  5
395
102
{ACAD_REACTORS
330
3AA
102
}
330
3AA
100
AcDbPlotSettings
  1

  2
none_device
  4

  6

 40
0
 41
0
 42
0
 43
0
 44
0
 45
0
 46
0
 47
0
 48
0
 49
0
 70
1712
 72
1
 73
0
 74
5
 75
16
 76
0
 77
0
 78
100
140
0
141
0
142
1
143
1
147
1
148
0
149
0
100
AcDbLayout
  1
Model
 70
1
 71
1
 10
4.2989378202
 20
4.2430000037
 11
4.8278852779
 21
4.95569905025269
 12
0
 22
0
 32
0
 14
4.2989378202
 24
4.2430000037
 34
0
 15
4.8278852779
 25
4.95569905025269
 35
0
146
0
 13
0
 23
0
 33
0
 16
1
 26
0
 36
0
 17
0
 27
1
 37
0
 76
0
330
2A
  0
DICTIONARY
  5
3AC
100
AcDbDictionary
280
1
  3
XINFO
360
3AD
  0
XRECORD
  5
3AD
102
{ACAD_REACTORS
330
3AC
102
}
330
3AC
100
AcDbXrecord
280
0
310
0000000002001400
311
57ABFDCAF57027FB
  0
ENDSEC
  0
EOF
