999
Created by Soft Gold Ltd. www.cadsofttools.com
999

  0
SECTION
  2
HEADER
  9
$ACADVER
  1
AC1021
  9
$DWGCODEPAGE
  3
ANSI_1252
  9
$CLAYER
  8
0
  9
$CELTYPE
  6
BYLAYER
  9
$CELTSCALE
 40
1
  9
$CELWEIGHT
370
-1
  9
$DIMALT
 70
0
  9
$DIMALTF
 40
1
  9
$DIMPOST
  1

  9
$DIMAPOST
  1

  9
$DIMSCALE
 40
1
  9
$DIMASZ
 40
0.18
  9
$DIMCLRD
 70
0
  9
$DIMCLRE
 70
0
  9
$DIMCLRT
 70
0
  9
$DIMEXE
 40
0.18
  9
$DIMEXO
 40
0.0625
  9
$DIMGAP
 40
0.0625
  9
$DIMLFAC
 40
1
  9
$DIMDEC
 70
4
  9
$DIMTAD
 70
0
  9
$DIMCEN
 40
0.09
  9
$DIMTIH
 70
1
  9
$DIMTIX
 70
0
  9
$DIMTOH
 70
1
  9
$DIMSE1
 70
0
  9
$DIMSE2
 70
0
  9
$DIMSD1
 70
0
  9
$DIMSD2
 70
0
  9
$DIMLWD
 70
-1
  9
$DIMLWE
 70
-1
  9
$DIMSAH
 70
0
  9
$DIMBLK
  1

  9
$DIMBLK1
  1

  9
$DIMBLK2
  1

  9
$DIMLDRBLK
  1

  9
$DIMSTYLE
  2
STANDARD
  9
$DIMTP
 40
0
  9
$DIMTM
 40
0
  9
$DIMTXT
 40
0.18
  9
$DIMLUNIT
 70
2
  9
$DIMDSEP
 70
46
  9
$DIMTXSTY
  7
STANDARD
  9
$TEXTSIZE
 40
0.18
  9
$TEXTSTYLE
  7
STANDARD
  9
$HANDSEED
  5
00000000000001DA
  9
$FILLETRAD
 40
0.5
  9
$INSUNITS
 70
4
  9
$LIMMIN
 10
2.1986255571625
 20
3.97725044892291
  9
$LIMMAX
 10
2.9403932355375
 20
4.83201641380985
  9
$FILLMODE
 70
1
  9
$LTSCALE
 40
1
  9
$MEASUREMENT
 70
0
  9
$ATTMODE
 70
1
  9
$PDMODE
 70
0
  9
$PDSIZE
 40
0
  9
$TILEMODE
 70
1
  9
$UCSORG
 10
0
 20
0
 30
0
  9
$UCSXDIR
 10
1
 20
0
 30
0
  9
$UCSYDIR
 10
0
 20
1
 30
0
  9
$INSBASE
 10
0
 20
0
 30
0
  9
$XCLIPFRAME
290
1
  9
$DIMASSOC
280
2
  9
$TDCREATE
 40
2459012.62009098
  9
$TDINDWG
 40
3.125E-7
  9
$TDUPDATE
 40
2459012.6200913
  0
ENDSEC
  0
SECTION
  2
CLASSES
  0
CLASS
  1
IMAGE
  2
AcDbRasterImage
  3
ISM
 90
2175
 91
1
280
0
281
1
  0
CLASS
  1
IMAGEDEF
  2
AcDbRasterImageDef
  3
ISM
 90
0
 91
1
280
0
281
0
  0
CLASS
  1
WIPEOUT
  2
AcDbWipeout
  3
"WipeOut"
 90
2175
 91
1
280
0
281
1
  0
CLASS
  1
WIPEOUTVARIABLES
  2
AcDbWipeoutVariables
  3
"WipeOut"
 90
0
 91
1
280
0
281
0
  0
CLASS
  1
MPOLYGON
  2
AcDbMPolygon
  3
"AcMPolygonObj15"
 90
3071
 91
1
280
0
281
1
  0
ENDSEC
  0
SECTION
  2
TABLES
  0
TABLE
  2
APPID
  5
1C2
100
AcDbSymbolTable
  0
APPID
  5
1C3
100
AcDbSymbolTableRecord
100
AcDbRegAppTableRecord
  2
ACAD
 70
0
  0
APPID
  5
12
100
AcDbSymbolTableRecord
100
AcDbRegAppTableRecord
  2
CSTINVENTORY
 70
0
  0
APPID
  5
1C4
100
AcDbSymbolTableRecord
100
AcDbRegAppTableRecord
  2
PE_URL
 70
0
  0
ENDTAB
  0
TABLE
  2
BLOCK_RECORD
  5
1C5
100
AcDbSymbolTable
  0
BLOCK_RECORD
  5
2A
100
AcDbSymbolTableRecord
100
AcDbBlockTableRecord
  2
*MODEL_SPACE
  0
BLOCK_RECORD
  5
1C6
100
AcDbSymbolTableRecord
100
AcDbBlockTableRecord
  2
*PAPER_SPACE
  0
BLOCK_RECORD
  5
10
100
AcDbSymbolTableRecord
100
AcDbBlockTableRecord
  2
_CLOSEDFILLED
  0
ENDTAB
  0
TABLE
  2
STYLE
  5
3
100
AcDbSymbolTable
  0
STYLE
  5
A
100
AcDbSymbolTableRecord
100
AcDbTextStyleTableRecord
  2
STANDARD
 70
0
 40
0
 41
1
 50
0
 71
0
 42
2.5
  3
txt
  4

1001
ACAD
1000
txt
1071
0
  0
ENDTAB
  0
TABLE
  2
LTYPE
  5
1
100
AcDbSymbolTable
  0
LTYPE
  5
9
100
AcDbSymbolTableRecord
100
AcDbLinetypeTableRecord
  2
CONTINUOUS
 70
0
  3

 72
65
 73
0
 40
0
  0
LTYPE
  5
7
100
AcDbSymbolTableRecord
100
AcDbLinetypeTableRecord
  2
BYLAYER
 70
0
  3

 72
65
 73
0
 40
0
  0
LTYPE
  5
8
100
AcDbSymbolTableRecord
100
AcDbLinetypeTableRecord
  2
BYBLOCK
 70
0
  3

 72
65
 73
0
 40
0
  0
LTYPE
  5
13
100
AcDbSymbolTableRecord
100
AcDbLinetypeTableRecord
  2
_SOLID
 70
0
  3
_.
 72
65
 73
2
 40
5
 49
5
 74
0
 49
0
 74
0
  0
LTYPE
  5
14
100
AcDbSymbolTableRecord
100
AcDbLinetypeTableRecord
  2
_DASH
 70
0
  3
_ 
 72
65
 73
2
 40
7
 49
5
 74
0
 49
-2
 74
0
  0
LTYPE
  5
15
100
AcDbSymbolTableRecord
100
AcDbLinetypeTableRecord
  2
_DOT
 70
0
  3
_ 
 72
65
 73
2
 40
4
 49
2
 74
0
 49
-2
 74
0
  0
LTYPE
  5
16
100
AcDbSymbolTableRecord
100
AcDbLinetypeTableRecord
  2
_DASHDOT
 70
0
  3
_ _ 
 72
65
 73
4
 40
11
 49
5
 74
0
 49
-2
 74
0
 49
2
 74
0
 49
-2
 74
0
  0
LTYPE
  5
17
100
AcDbSymbolTableRecord
100
AcDbLinetypeTableRecord
  2
_DASHDOTDOT
 70
0
  3
_ _ _ 
 72
65
 73
6
 40
15
 49
5
 74
0
 49
-2
 74
0
 49
2
 74
0
 49
-2
 74
0
 49
2
 74
0
 49
-2
 74
0
  0
LTYPE
  5
18
100
AcDbSymbolTableRecord
100
AcDbLinetypeTableRecord
  2
ISO128-20-02
 70
0
  3
_ 
 72
65
 73
2
 40
5
 49
4
 74
0
 49
-1
 74
0
  0
LTYPE
  5
19
100
AcDbSymbolTableRecord
100
AcDbLinetypeTableRecord
  2
ISO128-20-03
 70
0
  3
_ 
 72
65
 73
2
 40
10
 49
4
 74
0
 49
-6
 74
0
  0
LTYPE
  5
1A
100
AcDbSymbolTableRecord
100
AcDbLinetypeTableRecord
  2
ISO128-20-04
 70
0
  3
_ . 
 72
65
 73
4
 40
10
 49
8
 74
0
 49
-1
 74
0
 49
0
 74
0
 49
-1
 74
0
  0
LTYPE
  5
1B
100
AcDbSymbolTableRecord
100
AcDbLinetypeTableRecord
  2
ISO128-20-05
 70
0
  3
_ . . 
 72
65
 73
6
 40
11
 49
8
 74
0
 49
-1
 74
0
 49
0
 74
0
 49
-1
 74
0
 49
0
 74
0
 49
-1
 74
0
  0
LTYPE
  5
1C
100
AcDbSymbolTableRecord
100
AcDbLinetypeTableRecord
  2
ISO128-20-06
 70
0
  3
_ . . . 
 72
65
 73
8
 40
12
 49
8
 74
0
 49
-1
 74
0
 49
0
 74
0
 49
-1
 74
0
 49
0
 74
0
 49
-1
 74
0
 49
0
 74
0
 49
-1
 74
0
  0
LTYPE
  5
1D
100
AcDbSymbolTableRecord
100
AcDbLinetypeTableRecord
  2
ISO128-20-07
 70
0
  3
. 
 72
65
 73
2
 40
1
 49
0
 74
0
 49
-1
 74
0
  0
LTYPE
  5
1E
100
AcDbSymbolTableRecord
100
AcDbLinetypeTableRecord
  2
ISO128-20-08
 70
0
  3
_ _ 
 72
65
 73
4
 40
12
 49
8
 74
0
 49
-1
 74
0
 49
2
 74
0
 49
-1
 74
0
  0
LTYPE
  5
1F
100
AcDbSymbolTableRecord
100
AcDbLinetypeTableRecord
  2
ISO128-20-09
 70
0
  3
_ _ _ 
 72
65
 73
6
 40
15
 49
8
 74
0
 49
-1
 74
0
 49
2
 74
0
 49
-1
 74
0
 49
2
 74
0
 49
-1
 74
0
  0
LTYPE
  5
20
100
AcDbSymbolTableRecord
100
AcDbLinetypeTableRecord
  2
ISO128-20-10
 70
0
  3
_ . 
 72
65
 73
4
 40
10
 49
8
 74
0
 49
-1
 74
0
 49
0
 74
0
 49
-1
 74
0
  0
LTYPE
  5
21
100
AcDbSymbolTableRecord
100
AcDbLinetypeTableRecord
  2
ISO128-20-11
 70
0
  3
_ _ . 
 72
65
 73
6
 40
11
 49
4
 74
0
 49
-1
 74
0
 49
4
 74
0
 49
-1
 74
0
 49
0
 74
0
 49
-1
 74
0
  0
LTYPE
  5
22
100
AcDbSymbolTableRecord
100
AcDbLinetypeTableRecord
  2
ISO128-20-12
 70
0
  3
_ . . 
 72
65
 73
6
 40
7
 49
4
 74
0
 49
-1
 74
0
 49
0
 74
0
 49
-1
 74
0
 49
0
 74
0
 49
-1
 74
0
  0
LTYPE
  5
23
100
AcDbSymbolTableRecord
100
AcDbLinetypeTableRecord
  2
ISO128-20-13
 70
0
  3
_ _ . . 
 72
65
 73
8
 40
12
 49
4
 74
0
 49
-1
 74
0
 49
4
 74
0
 49
-1
 74
0
 49
0
 74
0
 49
-1
 74
0
 49
0
 74
0
 49
-1
 74
0
  0
LTYPE
  5
24
100
AcDbSymbolTableRecord
100
AcDbLinetypeTableRecord
  2
ISO128-20-14
 70
0
  3
_ . . . 
 72
65
 73
8
 40
8
 49
4
 74
0
 49
-1
 74
0
 49
0
 74
0
 49
-1
 74
0
 49
0
 74
0
 49
-1
 74
0
 49
0
 74
0
 49
-1
 74
0
  0
LTYPE
  5
25
100
AcDbSymbolTableRecord
100
AcDbLinetypeTableRecord
  2
ISO128-20-15
 70
0
  3
_ _ . . . 
 72
65
 73
10
 40
13
 49
4
 74
0
 49
-1
 74
0
 49
4
 74
0
 49
-1
 74
0
 49
0
 74
0
 49
-1
 74
0
 49
0
 74
0
 49
-1
 74
0
 49
0
 74
0
 49
-1
 74
0
  0
LTYPE
  5
26
100
AcDbSymbolTableRecord
100
AcDbLinetypeTableRecord
  2
kurzgestrichelt
 70
0
  3
_ 
 72
65
 73
2
 40
3
 49
2
 74
0
 49
-1
 74
0
  0
ENDTAB
  0
TABLE
  2
LAYER
  5
2
100
AcDbSymbolTable
  0
LAYER
  5
E
100
AcDbSymbolTableRecord
100
AcDbLayerTableRecord
  2
0
 70
0
 62
7
  6
CONTINUOUS
290
1
370
-3
390
0
  0
LAYER
  5
27
100
AcDbSymbolTableRecord
100
AcDbLayerTableRecord
  2
SEMA2D
 70
0
 62
7
290
1
370
-3
390
0
  0
LAYER
  5
2B
100
AcDbSymbolTableRecord
100
AcDbLayerTableRecord
  2
SEMATEXT
 70
0
 62
7
290
1
370
-3
390
0
  0
ENDTAB
  0
TABLE
  2
VPORT
  5
1C7
100
AcDbSymbolTable
  0
VPORT
  5
1C9
100
AcDbSymbolTableRecord
100
AcDbViewportTableRecord
  2
*ACTIVE
 70
0
 10
0
 20
0
 11
1
 21
1
 12
2.56950939635
 22
4.40463343136638
 32
0
 13
0
 23
0
 14
1
 24
1
 15
1
 25
1
 16
0
 26
0
 36
1
 17
0
 27
0
 37
0
 40
0.683812771909555
 41
0.867802075475843
 42
50
 43
0
 44
0
 50
0
 51
0
 71
0
 72
100
 73
1
 74
1
 75
0
 76
0
 77
0
 78
0
  0
ENDTAB
  0
TABLE
  2
VIEW
  5
1CA
100
AcDbSymbolTable
  0
ENDTAB
  0
TABLE
  2
UCS
  5
1CB
100
AcDbSymbolTable
  0
ENDTAB
  0
TABLE
  2
DIMSTYLE
  5
4
100
AcDbSymbolTable
 70
1
100
AcDbDimStyleTable
 71
0
  0
DIMSTYLE
105
B
100
AcDbSymbolTableRecord
100
AcDbDimStyleTableRecord
  2
STANDARD
 70
0
  3

 40
1
 41
0.18
 42
0.0625
 44
0.18
 47
0
 48
0
 73
1
 74
1
 75
0
 76
0
 77
0
140
0.18
141
0.09
144
1
147
0.0625
173
0
174
0
176
0
177
0
178
0
277
2
278
46
281
0
282
0
271
4
340
A
371
-1
372
-1
  0
ENDTAB
  0
ENDSEC
  0
SECTION
  2
BLOCKS
  0
BLOCK
  5
1CC
100
AcDbEntity
  8
0
100
AcDbBlockBegin
  2
*MODEL_SPACE
 70
0
 10
0
 20
0
  0
ENDBLK
  5
1CD
100
AcDbEntity
  8
0
100
AcDbBlockEnd
  0
BLOCK
  5
1CE
100
AcDbEntity
  8
0
100
AcDbBlockBegin
  2
*PAPER_SPACE
 70
0
 10
0
 20
0
  0
ENDBLK
  5
1CF
100
AcDbEntity
  8
0
100
AcDbBlockEnd
  0
BLOCK
  5
F
100
AcDbEntity
  8
0
100
AcDbBlockBegin
  2
_CLOSEDFILLED
 70
0
 10
0
 20
0
 30
0
  3
_CLOSEDFILLED
  1

  0
SOLID
  5
C
100
AcDbEntity
  8
0
100
AcDbTrace
370
-2
 62
0
 10
-1
 20
0.166666666666667
 30
0
 11
0
 21
0
 31
0
 12
-1
 22
0.166666666666667
 32
0
 13
-1
 23
-0.166666666666667
 33
0
  0
LINE
  5
D
100
AcDbEntity
  8
0
100
AcDbLine
370
-2
 62
0
 10
-1
 20
0
 30
0
 11
-2
 21
0
 31
0
  0
ENDBLK
  5
1D0
100
AcDbEntity
  8
0
100
AcDbBlockEnd
  0
ENDSEC
  0
SECTION
  2
ENTITIES
  0
LINE
  5
28
100
AcDbEntity
  8
SEMA2D
100
AcDbLine
370
9
 62
7
  6
_SOLID
 10
2.8578164677
 20
4.1154611117
 30
0
 11
2.8578164677
 21
4.5464611117
 31
0
  0
MTEXT
  5
2C
100
AcDbEntity
  8
SEMATEXT
100
AcDbMText
370
9
 62
7
 10
2.83985589091951
 20
4.31986851109024
 30
0
 40
0.010476
  1
{\fHelveticaNeueLT Com 55 Roman;431}
 50
90
 41
0
  7
STANDARD
 71
0
 73
1
 44
1
  0
LINE
  5
31
100
AcDbEntity
  8
SEMA2D
100
AcDbLine
370
9
 62
7
  6
_SOLID
 10
2.8578164677
 20
4.1154611117
 30
0
 11
2.8494164677
 21
4.1154611117
 31
0
  0
LINE
  5
32
100
AcDbEntity
  8
SEMA2D
100
AcDbLine
370
9
 62
7
  6
_SOLID
 10
2.8578164677
 20
4.1154611117
 30
0
 11
2.8662164677
 21
4.1154611117
 31
0
  0
LINE
  5
33
100
AcDbEntity
  8
SEMA2D
100
AcDbLine
370
9
 62
7
  6
_SOLID
 10
2.8578164677
 20
4.5464611117
 30
0
 11
2.8494164677
 21
4.5464611117
 31
0
  0
LINE
  5
34
100
AcDbEntity
  8
SEMA2D
100
AcDbLine
370
9
 62
7
  6
_SOLID
 10
2.8578164677
 20
4.5464611117
 30
0
 11
2.8662164677
 21
4.5464611117
 31
0
  0
LINE
  5
35
100
AcDbEntity
  8
SEMA2D
100
AcDbLine
370
9
 62
7
  6
_SOLID
 10
2.8219269712
 20
4.0756435117
 30
0
 11
2.5539269712
 21
4.0756435117
 31
0
  0
MTEXT
  5
36
100
AcDbEntity
  8
SEMATEXT
100
AcDbMText
370
9
 62
7
 10
2.67679153174007
 20
4.09167974096829
 30
0
 40
0.010476
  1
{\fHelveticaNeueLT Com 55 Roman;268}
 50
0
 41
0
  7
STANDARD
 71
0
 73
1
 44
1
  0
LINE
  5
3B
100
AcDbEntity
  8
SEMA2D
100
AcDbLine
370
9
 62
7
  6
_SOLID
 10
2.8219269712
 20
4.0756435117
 30
0
 11
2.8219269712
 21
4.0672435117
 31
0
  0
LINE
  5
3C
100
AcDbEntity
  8
SEMA2D
100
AcDbLine
370
9
 62
7
  6
_SOLID
 10
2.8219269712
 20
4.0756435117
 30
0
 11
2.8219269712
 21
4.0840435117
 31
0
  0
LINE
  5
3D
100
AcDbEntity
  8
SEMA2D
100
AcDbLine
370
9
 62
7
  6
_SOLID
 10
2.5539269712
 20
4.0756435117
 30
0
 11
2.5539269712
 21
4.0672435117
 31
0
  0
LINE
  5
3E
100
AcDbEntity
  8
SEMA2D
100
AcDbLine
370
9
 62
7
  6
_SOLID
 10
2.5539269712
 20
4.0756435117
 30
0
 11
2.5539269712
 21
4.0840435117
 31
0
  0
LINE
  5
3F
100
AcDbEntity
  8
SEMA2D
100
AcDbLine
370
9
 62
7
  6
_SOLID
 10
2.8219269712
 20
4.5717710723
 30
0
 11
2.6939217776
 21
4.5717710723
 31
0
  0
MTEXT
  5
40
100
AcDbEntity
  8
SEMATEXT
100
AcDbMText
370
9
 62
7
 10
2.74678893494007
 20
4.58780730156829
 30
0
 40
0.010476
  1
{\fHelveticaNeueLT Com 55 Roman;128}
 50
0
 41
0
  7
STANDARD
 71
0
 73
1
 44
1
  0
LINE
  5
45
100
AcDbEntity
  8
SEMA2D
100
AcDbLine
370
9
 62
7
  6
_SOLID
 10
2.8219269712
 20
4.5717710723
 30
0
 11
2.8219269712
 21
4.5633710723
 31
0
  0
LINE
  5
46
100
AcDbEntity
  8
SEMA2D
100
AcDbLine
370
9
 62
7
  6
_SOLID
 10
2.8219269712
 20
4.5717710723
 30
0
 11
2.8219269712
 21
4.5801710723
 31
0
  0
LINE
  5
47
100
AcDbEntity
  8
SEMA2D
100
AcDbLine
370
9
 62
7
  6
_SOLID
 10
2.6939217776
 20
4.5717710723
 30
0
 11
2.6939217776
 21
4.5633710723
 31
0
  0
LINE
  5
48
100
AcDbEntity
  8
SEMA2D
100
AcDbLine
370
9
 62
7
  6
_SOLID
 10
2.6939217776
 20
4.5717710723
 30
0
 11
2.6939217776
 21
4.5801710723
 31
0
  0
LINE
  5
49
100
AcDbEntity
  8
SEMA2D
100
AcDbLine
370
9
 62
7
  6
_SOLID
 10
2.6118305311
 20
4.598039655
 30
0
 11
2.7818305311
 21
4.598039655
 31
0
  0
MTEXT
  5
4A
100
AcDbEntity
  8
SEMATEXT
100
AcDbMText
370
9
 62
7
 10
2.68890439325157
 20
4.61600023178049
 30
0
 40
0.010476
  1
{\fHelveticaNeueLT Com 55 Roman;17}
 50
0
 41
0
  7
STANDARD
 71
0
 73
1
 44
1
  0
LINE
  5
4F
100
AcDbEntity
  8
SEMA2D
100
AcDbLine
370
9
 62
7
  6
_SOLID
 10
2.6118305311
 20
4.598039655
 30
0
 11
2.6118305311
 21
4.606439655
 31
0
  0
LINE
  5
50
100
AcDbEntity
  8
SEMA2D
100
AcDbLine
370
9
 62
7
  6
_SOLID
 10
2.6118305311
 20
4.598039655
 30
0
 11
2.6118305311
 21
4.589639655
 31
0
  0
LINE
  5
51
100
AcDbEntity
  8
SEMA2D
100
AcDbLine
370
9
 62
7
  6
_SOLID
 10
2.7818305311
 20
4.598039655
 30
0
 11
2.7818305311
 21
4.606439655
 31
0
  0
LINE
  5
52
100
AcDbEntity
  8
SEMA2D
100
AcDbLine
370
9
 62
7
  6
_SOLID
 10
2.7818305311
 20
4.598039655
 30
0
 11
2.7818305311
 21
4.589639655
 31
0
  0
LINE
  5
53
100
AcDbEntity
  8
SEMA2D
100
AcDbLine
370
9
 62
7
  6
_SOLID
 10
2.6118305311
 20
4.598039655
 30
0
 11
2.566859221
 21
4.598039655
 31
0
  0
MTEXT
  5
54
100
AcDbEntity
  8
SEMATEXT
100
AcDbMText
370
9
 62
7
 10
2.58221163715627
 20
4.61407588426829
 30
0
 40
0.010476
  1
{\fHelveticaNeueLT Com 55 Roman;45}
 50
0
 41
0
  7
STANDARD
 71
0
 73
1
 44
1
  0
LINE
  5
59
100
AcDbEntity
  8
SEMA2D
100
AcDbLine
370
9
 62
7
  6
_SOLID
 10
2.6118305311
 20
4.598039655
 30
0
 11
2.6118305311
 21
4.589639655
 31
0
  0
LINE
  5
5A
100
AcDbEntity
  8
SEMA2D
100
AcDbLine
370
9
 62
7
  6
_SOLID
 10
2.6118305311
 20
4.598039655
 30
0
 11
2.6118305311
 21
4.606439655
 31
0
  0
LINE
  5
5B
100
AcDbEntity
  8
SEMA2D
100
AcDbLine
370
9
 62
7
  6
_SOLID
 10
2.566859221
 20
4.598039655
 30
0
 11
2.566859221
 21
4.589639655
 31
0
  0
LINE
  5
5C
100
AcDbEntity
  8
SEMA2D
100
AcDbLine
370
9
 62
7
  6
_SOLID
 10
2.566859221
 20
4.598039655
 30
0
 11
2.566859221
 21
4.606439655
 31
0
  0
LINE
  5
5D
100
AcDbEntity
  8
SEMA2D
100
AcDbLine
370
9
 62
7
  6
_SOLID
 10
2.297642325
 20
4.5713305952
 30
0
 11
2.3987982773
 21
4.5713305952
 31
0
  0
MTEXT
  5
5E
100
AcDbEntity
  8
SEMATEXT
100
AcDbMText
370
9
 62
7
 10
2.33712770054024
 20
4.58929117198049
 30
0
 40
0.010476
  1
{\fHelveticaNeueLT Com 55 Roman;101}
 50
0
 41
0
  7
STANDARD
 71
0
 73
1
 44
1
  0
LINE
  5
63
100
AcDbEntity
  8
SEMA2D
100
AcDbLine
370
9
 62
7
  6
_SOLID
 10
2.297642325
 20
4.5713305952
 30
0
 11
2.297642325
 21
4.5797305952
 31
0
  0
LINE
  5
64
100
AcDbEntity
  8
SEMA2D
100
AcDbLine
370
9
 62
7
  6
_SOLID
 10
2.297642325
 20
4.5713305952
 30
0
 11
2.297642325
 21
4.5629305952
 31
0
  0
LINE
  5
65
100
AcDbEntity
  8
SEMA2D
100
AcDbLine
370
9
 62
7
  6
_SOLID
 10
2.3987982773
 20
4.5713305952
 30
0
 11
2.3987982773
 21
4.5797305952
 31
0
  0
LINE
  5
66
100
AcDbEntity
  8
SEMA2D
100
AcDbLine
370
9
 62
7
  6
_SOLID
 10
2.3987982773
 20
4.5713305952
 30
0
 11
2.3987982773
 21
4.5629305952
 31
0
  0
LINE
  5
67
100
AcDbEntity
  8
SEMA2D
100
AcDbLine
370
9
 62
7
  6
_SOLID
 10
2.281202325
 20
4.5443811117
 30
0
 11
2.281202325
 21
4.5163811117
 31
0
  0
MTEXT
  5
68
100
AcDbEntity
  8
SEMATEXT
100
AcDbMText
370
9
 62
7
 10
2.2831266725122
 20
4.52320731531498
 30
0
 40
0.010476
  1
{\fHelveticaNeueLT Com 55 Roman;28}
 50
90
 41
0
  7
STANDARD
 71
0
 73
1
 44
1
  0
LINE
  5
6D
100
AcDbEntity
  8
SEMA2D
100
AcDbLine
370
9
 62
7
  6
_SOLID
 10
2.281202325
 20
4.5443811117
 30
0
 11
2.289602325
 21
4.5443811117
 31
0
  0
LINE
  5
6E
100
AcDbEntity
  8
SEMA2D
100
AcDbLine
370
9
 62
7
  6
_SOLID
 10
2.281202325
 20
4.5443811117
 30
0
 11
2.272802325
 21
4.5443811117
 31
0
  0
LINE
  5
6F
100
AcDbEntity
  8
SEMA2D
100
AcDbLine
370
9
 62
7
  6
_SOLID
 10
2.281202325
 20
4.5163811117
 30
0
 11
2.289602325
 21
4.5163811117
 31
0
  0
LINE
  5
70
100
AcDbEntity
  8
SEMA2D
100
AcDbLine
370
9
 62
7
  6
_SOLID
 10
2.281202325
 20
4.5163811117
 30
0
 11
2.272802325
 21
4.5163811117
 31
0
  0
LINE
  5
71
100
AcDbEntity
  8
SEMA2D
100
AcDbLine
370
9
 62
7
  6
_SOLID
 10
2.339552325
 20
4.5484217915
 30
0
 11
2.355552325
 21
4.5484217915
 31
0
  0
MTEXT
  5
72
100
AcDbEntity
  8
SEMATEXT
100
AcDbMText
370
9
 62
7
 10
2.34035419412021
 20
4.56638236828049
 30
0
 40
0.010476
  1
{\fHelveticaNeueLT Com 55 Roman;16}
 50
0
 41
0
  7
STANDARD
 71
0
 73
1
 44
1
  0
LINE
  5
77
100
AcDbEntity
  8
SEMA2D
100
AcDbLine
370
9
 62
7
  6
_SOLID
 10
2.339552325
 20
4.5484217915
 30
0
 11
2.339552325
 21
4.5568217915
 31
0
  0
LINE
  5
78
100
AcDbEntity
  8
SEMA2D
100
AcDbLine
370
9
 62
7
  6
_SOLID
 10
2.339552325
 20
4.5484217915
 30
0
 11
2.339552325
 21
4.5400217915
 31
0
  0
LINE
  5
79
100
AcDbEntity
  8
SEMA2D
100
AcDbLine
370
9
 62
7
  6
_SOLID
 10
2.355552325
 20
4.5484217915
 30
0
 11
2.355552325
 21
4.5568217915
 31
0
  0
LINE
  5
7A
100
AcDbEntity
  8
SEMA2D
100
AcDbLine
370
9
 62
7
  6
_SOLID
 10
2.355552325
 20
4.5484217915
 30
0
 11
2.355552325
 21
4.5400217915
 31
0
  0
LINE
  5
7B
100
AcDbEntity
  8
SEMA2D
100
AcDbLine
370
9
 62
7
  6
_SOLID
 10
2.45091282582659
 20
4.09491032792612
 30
0
 11
2.31500000002659
 21
4.07100000002612
 31
0
  0
MTEXT
  5
7C
100
AcDbEntity
  8
SEMATEXT
100
AcDbMText
370
9
 62
7
 10
2.37232280956702
 20
4.07913055878018
 30
0
 40
0.010476
  1
{\fHelveticaNeueLT Com 55 Roman;138}
 50
9.97760555840138
 41
0
  7
STANDARD
 71
0
 73
1
 44
1
  0
LINE
  5
81
100
AcDbEntity
  8
SEMA2D
100
AcDbLine
370
9
 62
7
  6
_SOLID
 10
2.45091282582659
 20
4.09491032792612
 30
0
 11
2.45236823709018
 21
4.0866373733116
 31
0
  0
LINE
  5
82
100
AcDbEntity
  8
SEMA2D
100
AcDbLine
370
9
 62
7
  6
_SOLID
 10
2.45091282582659
 20
4.09491032792612
 30
0
 11
2.44945741456301
 21
4.10318328254063
 31
0
  0
LINE
  5
83
100
AcDbEntity
  8
SEMA2D
100
AcDbLine
370
9
 62
7
  6
_SOLID
 10
2.31500000002659
 20
4.07100000002612
 30
0
 11
2.31645541129018
 21
4.0627270454116
 31
0
  0
LINE
  5
84
100
AcDbEntity
  8
SEMA2D
100
AcDbLine
370
9
 62
7
  6
_SOLID
 10
2.31500000002659
 20
4.07100000002612
 30
0
 11
2.31354458876301
 21
4.07927295464063
 31
0
  0
LINE
  5
85
100
AcDbEntity
  8
SEMA2D
100
AcDbLine
370
9
 62
7
  6
_SOLID
 10
2.44692777116941
 20
4.11756246555989
 30
0
 11
2.34450071406941
 21
4.09954308805989
 31
0
  0
MTEXT
  5
86
100
AcDbEntity
  8
SEMATEXT
100
AcDbMText
370
9
 62
7
 10
2.38508063925826
 20
4.10472817161833
 30
0
 40
0.010476
  1
{\fHelveticaNeueLT Com 55 Roman;104}
 50
9.97760553480308
 41
0
  7
STANDARD
 71
0
 73
1
 44
1
  0
LINE
  5
8B
100
AcDbEntity
  8
SEMA2D
100
AcDbLine
370
9
 62
7
  6
_SOLID
 10
2.44692777116941
 20
4.11756246555989
 30
0
 11
2.44838318242958
 21
4.10928951094477
 31
0
  0
LINE
  5
8C
100
AcDbEntity
  8
SEMA2D
100
AcDbLine
370
9
 62
7
  6
_SOLID
 10
2.44692777116941
 20
4.11756246555989
 30
0
 11
2.44547235990923
 21
4.125835420175
 31
0
  0
LINE
  5
8D
100
AcDbEntity
  8
SEMA2D
100
AcDbLine
370
9
 62
7
  6
_SOLID
 10
2.34450071406941
 20
4.09954308805989
 30
0
 11
2.34595612532958
 21
4.09127013344477
 31
0
  0
LINE
  5
8E
100
AcDbEntity
  8
SEMA2D
100
AcDbLine
370
9
 62
7
  6
_SOLID
 10
2.34450071406941
 20
4.09954308805989
 30
0
 11
2.34304530280923
 21
4.107816042675
 31
0
  0
LINE
  5
8F
100
AcDbEntity
  8
SEMA2D
100
AcDbLine
370
9
 62
7
  6
_SOLID
 10
2.42860539143409
 20
4.53223375850151
 30
0
 11
2.47356443573409
 21
4.13767617530151
 31
0
  0
MTEXT
  5
90
100
AcDbEntity
  8
SEMATEXT
100
AcDbMText
370
9
 62
7
 10
2.43438159007249
 20
4.32188497828542
 30
0
 40
0.010476
  1
{\fHelveticaNeueLT Com 55 Roman;397}
 50
96.5007004351482
 41
0
  7
STANDARD
 71
0
 73
1
 44
1
  0
LINE
  5
95
100
AcDbEntity
  8
SEMA2D
100
AcDbLine
370
9
 62
7
  6
_SOLID
 10
2.42860539143409
 20
4.53223375850151
 30
0
 11
2.43695138339641
 21
4.53318476752615
 31
0
  0
LINE
  5
96
100
AcDbEntity
  8
SEMA2D
100
AcDbLine
370
9
 62
7
  6
_SOLID
 10
2.42860539143409
 20
4.53223375850151
 30
0
 11
2.42025939947177
 21
4.53128274947688
 31
0
  0
LINE
  5
97
100
AcDbEntity
  8
SEMA2D
100
AcDbLine
370
9
 62
7
  6
_SOLID
 10
2.47356443573409
 20
4.13767617530151
 30
0
 11
2.48191042769641
 21
4.13862718432615
 31
0
  0
LINE
  5
98
100
AcDbEntity
  8
SEMA2D
100
AcDbLine
370
9
 62
7
  6
_SOLID
 10
2.47356443573409
 20
4.13767617530151
 30
0
 11
2.46521844377177
 21
4.13672516627688
 31
0
  0
LINE
  5
99
100
AcDbEntity
  8
SEMA2D
100
AcDbLine
370
9
 62
7
  6
_SOLID
 10
2.39755944496028
 20
4.52194779160668
 30
0
 11
2.33831349266028
 21
4.53260106610668
 31
0
  0
MTEXT
  5
9A
100
AcDbEntity
  8
SEMATEXT
100
AcDbMText
370
9
 62
7
 10
2.36361415494965
 20
4.52609643287344
 30
0
 40
0.010476
  1
{\fHelveticaNeueLT Com 55 Roman;6}
 50
349.806327786903
 41
0
  7
STANDARD
 71
0
 73
1
 44
1
  0
LINE
  5
9F
100
AcDbEntity
  8
SEMA2D
100
AcDbLine
370
9
 62
7
  6
_SOLID
 10
2.39755944496028
 20
4.52194779160668
 30
0
 11
2.39607284619091
 21
4.51368038426828
 31
0
  0
LINE
  5
A0
100
AcDbEntity
  8
SEMA2D
100
AcDbLine
370
9
 62
7
  6
_SOLID
 10
2.39755944496028
 20
4.52194779160668
 30
0
 11
2.39904604372964
 21
4.53021519894507
 31
0
  0
LINE
  5
A1
100
AcDbEntity
  8
SEMA2D
100
AcDbLine
370
9
 62
7
  6
_SOLID
 10
2.33831349266028
 20
4.53260106610668
 30
0
 11
2.33682689389091
 21
4.52433365876828
 31
0
  0
LINE
  5
A2
100
AcDbEntity
  8
SEMA2D
100
AcDbLine
370
9
 62
7
  6
_SOLID
 10
2.33831349266028
 20
4.53260106610668
 30
0
 11
2.33980009142964
 21
4.54086847344507
 31
0
  0
ARC
  5
A3
100
AcDbEntity
  8
SEMA2D
100
AcDbCircle
370
9
 62
7
  6
_SOLID
 10
2.327267325
 20
4.1399204464
 30
0
 40
0.023625
100
AcDbArc
 50
180
 51
265.000000043215
  0
LINE
  5
A4
100
AcDbEntity
  8
SEMA2D
100
AcDbLine
370
9
 62
7
  6
_SOLID
 10
2.340024825
 20
4.5144139097
 30
0
 11
2.339552325
 21
4.5145858856
 31
0
  0
LINE
  5
A5
100
AcDbEntity
  8
SEMA2D
100
AcDbLine
370
9
 62
7
  6
_SOLID
 10
2.311202325
 20
4.1274342617
 30
0
 11
2.3083565226
 21
4.125759861
 31
0
  0
LINE
  5
A6
100
AcDbEntity
  8
SEMA2D
100
AcDbLine
370
9
 62
7
  6
_SOLID
 10
2.303642325
 20
4.5085578868
 30
0
 11
2.309312325
 21
4.5095576607
 31
0
  0
LINE
  5
A7
100
AcDbEntity
  8
SEMA2D
100
AcDbLine
370
9
 62
7
  6
_SOLID
 10
2.2996118713
 20
4.5330131903
 30
0
 11
2.309312325
 21
4.5314499005
 31
0
  0
ARC
  5
A8
100
AcDbEntity
  8
SEMA2D
100
AcDbCircle
370
9
 62
7
  6
_SOLID
 10
2.2999845233
 20
4.5353255535
 30
0
 40
0.00234219830000004
100
AcDbArc
 50
180
 51
260.845134093312
  0
LINE
  5
A9
100
AcDbEntity
  8
SEMA2D
100
AcDbLine
370
9
 62
7
  6
_SOLID
 10
2.4437573211
 20
4.1342797145
 30
0
 11
2.3987982773
 21
4.5288372977
 31
0
  0
LINE
  5
AA
100
AcDbEntity
  8
SEMA2D
100
AcDbLine
370
9
 62
7
  6
_SOLID
 10
2.340024825
 20
4.5065811117
 30
0
 11
2.339552325
 21
4.5073995057
 31
0
  0
LINE
  5
AB
100
AcDbEntity
  8
SEMA2D
100
AcDbLine
370
9
 62
7
  6
_SOLID
 10
2.330574825
 20
4.4768566256
 30
0
 11
2.339552325
 21
4.4744511117
 31
0
  0
LINE
  5
AC
100
AcDbEntity
  8
SEMA2D
100
AcDbLine
370
9
 62
7
  6
_SOLID
 10
2.2991401695
 20
4.543435986
 30
0
 11
2.311202325
 21
4.5443811117
 31
0
  0
ARC
  5
AD
100
AcDbEntity
  8
SEMA2D
100
AcDbCircle
370
9
 62
7
  6
_SOLID
 10
2.2992670882
 20
4.5418161875
 30
0
 40
0.00162476319999971
100
AcDbArc
 50
90
 51
180
  0
LINE
  5
AE
100
AcDbEntity
  8
SEMA2D
100
AcDbLine
370
9
 62
7
  6
_SOLID
 10
2.309312325
 20
4.5233254895
 30
0
 11
2.311202325
 21
4.5235911117
 31
0
  0
LINE
  5
AF
100
AcDbEntity
  8
SEMA2D
100
AcDbLine
370
9
 62
7
  6
_SOLID
 10
2.311202325
 20
4.5443811117
 30
0
 11
2.314982325
 21
4.5443811117
 31
0
  0
LINE
  5
B0
100
AcDbEntity
  8
SEMA2D
100
AcDbLine
370
9
 62
9
  6
_SOLID
 10
2.309312325
 20
4.5273711117
 30
0
 11
2.321597325
 21
4.5273711117
 31
0
  0
LINE
  5
B1
100
AcDbEntity
  8
SEMA2D
100
AcDbLine
370
9
 62
7
  6
_SOLID
 10
2.311202325
 20
4.5235911117
 30
0
 11
2.314982325
 21
4.5235911117
 31
0
  0
LINE
  5
B2
100
AcDbEntity
  8
SEMA2D
100
AcDbLine
370
9
 62
7
  6
_SOLID
 10
2.355552325
 20
4.5217800006
 30
0
 11
2.3305740074
 21
4.5176279995
 31
0
  0
LINE
  5
B3
100
AcDbEntity
  8
SEMA2D
100
AcDbLine
370
9
 62
7
  6
_SOLID
 10
2.355552325
 20
4.5316706631
 30
0
 11
2.3305704012
 21
4.5378138821
 31
0
  0
LINE
  5
B4
100
AcDbEntity
  8
SEMA2D
100
AcDbLine
370
9
 62
7
  6
_SOLID
 10
2.314982325
 20
4.5231186117
 30
0
 11
2.324432325
 21
4.5217905008
 31
0
  0
LINE
  5
B5
100
AcDbEntity
  8
SEMA2D
100
AcDbLine
370
9
 62
7
  6
_SOLID
 10
2.339552325
 20
4.5354217915
 30
0
 11
2.339552325
 21
4.5073995057
 31
0
  0
LINE
  5
B6
100
AcDbEntity
  8
SEMA2D
100
AcDbLine
370
9
 62
7
  6
_SOLID
 10
2.330574825
 20
4.5176187013
 30
0
 11
2.330574825
 21
4.4768566256
 31
0
  0
LINE
  5
B7
100
AcDbEntity
  8
SEMA2D
100
AcDbLine
370
9
 62
7
  6
_SOLID
 10
2.330574825
 20
4.5412447287
 30
0
 11
2.330574825
 21
4.5378273054
 31
0
  0
LINE
  5
B8
100
AcDbEntity
  8
SEMA2D
100
AcDbLine
370
9
 62
7
  6
_SOLID
 10
2.335772325
 20
4.1154611117
 30
0
 11
2.335772325
 21
4.1177558813
 31
0
  0
LINE
  5
B9
100
AcDbEntity
  8
SEMA2D
100
AcDbLine
370
9
 62
7
  6
_SOLID
 10
2.355552325
 20
4.5316236117
 30
0
 11
2.355552325
 21
4.5217011117
 31
0
  0
LINE
  5
BA
100
AcDbEntity
  8
SEMA2D
100
AcDbLine
370
9
 62
7
  6
_SOLID
 10
2.340024825
 20
4.4857911117
 30
0
 11
2.340024825
 21
4.5144139097
 31
0
  0
LINE
  5
BB
100
AcDbEntity
  8
SEMA2D
100
AcDbLine
370
9
 62
7
  6
_SOLID
 10
2.355144825
 20
4.1278820133
 30
0
 11
2.355144825
 21
4.1185956772
 31
0
  0
LINE
  5
BC
100
AcDbEntity
  8
SEMA2D
100
AcDbLine
370
9
 62
7
  6
_SOLID
 10
2.339552325
 20
4.1329307526
 30
0
 11
2.339552325
 21
4.4849727177
 31
0
  0
LINE
  5
BD
100
AcDbEntity
  8
SEMA2D
100
AcDbLine
370
9
 62
7
  6
_SOLID
 10
2.339552325
 20
4.1154611117
 30
0
 11
2.339552325
 21
4.1182961117
 31
0
  0
LINE
  5
BE
100
AcDbEntity
  8
SEMA2D
100
AcDbLine
370
9
 62
7
  6
_SOLID
 10
2.339646825
 20
4.1164193928
 30
0
 11
2.339646825
 21
4.1390883885
 31
0
  0
LINE
  5
BF
100
AcDbEntity
  8
SEMA2D
100
AcDbLine
370
9
 62
7
  6
_SOLID
 10
2.3157037342
 20
4.5433794447
 30
0
 11
2.3149884883
 21
4.5434799659
 31
0
  0
LINE
  5
C0
100
AcDbEntity
  8
SEMA2D
100
AcDbLine
370
9
 62
7
  6
_SOLID
 10
2.314982325
 20
4.5434361117
 30
0
 11
2.330574825
 21
4.5412447287
 31
0
  0
LINE
  5
C1
100
AcDbEntity
  8
SEMA2D
100
AcDbLine
370
9
 62
7
  6
_SOLID
 10
2.330574825
 20
4.5411048559
 30
0
 11
2.3987982773
 21
4.5288372977
 31
0
  0
LINE
  5
C2
100
AcDbEntity
  8
SEMA2D
100
AcDbLine
370
9
 62
7
  6
_SOLID
 10
2.3168424252
 20
4.5431746916
 30
0
 11
2.3157037342
 21
4.5433794447
 31
0
  0
LINE
  5
C3
100
AcDbEntity
  8
SEMA2D
100
AcDbLine
370
9
 62
7
  6
_SOLID
 10
2.311202325
 20
4.1277461117
 30
0
 11
2.3069626563
 21
4.1278431515
 31
0
  0
LINE
  5
C4
100
AcDbEntity
  8
SEMA2D
100
AcDbLine
370
9
 62
7
  6
_SOLID
 10
2.311202325
 20
4.1277461117
 30
0
 11
2.314982325
 21
4.1277461117
 31
0
  0
LINE
  5
C5
100
AcDbEntity
  8
SEMA2D
100
AcDbLine
370
9
 62
7
  6
_SOLID
 10
2.3551448208
 20
4.1278773027
 30
0
 11
2.324432325
 21
4.1378563975
 31
0
  0
LINE
  5
C6
100
AcDbEntity
  8
SEMA2D
100
AcDbLine
370
9
 62
7
  6
_SOLID
 10
2.339552325
 20
4.1164061117
 30
0
 11
2.3551448186
 21
4.1185974937
 31
0
  0
LINE
  5
C7
100
AcDbEntity
  8
SEMA2D
100
AcDbLine
370
9
 62
7
  6
_SOLID
 10
2.443982296
 20
4.1343053499
 30
0
 11
2.355144825
 21
4.1186767067
 31
0
  0
LINE
  5
C8
100
AcDbEntity
  8
SEMA2D
100
AcDbLine
370
9
 62
7
  6
_SOLID
 10
2.339646825
 20
4.1284645488
 30
0
 11
2.314982325
 21
4.1279000147
 31
0
  0
LINE
  5
C9
100
AcDbEntity
  8
SEMA2D
100
AcDbLine
370
9
 62
7
  6
_SOLID
 10
2.314982325
 20
4.1272388603
 30
0
 11
2.339646825
 21
4.1283387555
 31
0
  0
LINE
  5
CA
100
AcDbEntity
  8
SEMA2D
100
AcDbLine
370
9
 62
7
  6
_SOLID
 10
2.314982325
 20
4.1269261483
 30
0
 11
2.314982325
 21
4.5443811117
 31
0
  0
LINE
  5
CB
100
AcDbEntity
  8
SEMA2D
100
AcDbLine
370
9
 62
7
  6
_SOLID
 10
2.311202325
 20
4.1274214026
 30
0
 11
2.311202325
 21
4.5443811117
 31
0
  0
LINE
  5
CC
100
AcDbEntity
  8
SEMA2D
100
AcDbLine
370
9
 62
7
  6
_SOLID
 10
2.324432325
 20
4.5217905008
 30
0
 11
2.324432325
 21
4.1378435384
 31
0
  0
LINE
  5
CD
100
AcDbEntity
  8
SEMA2D
100
AcDbLine
370
9
 62
7
  6
_SOLID
 10
2.321597325
 20
4.5221889341
 30
0
 11
2.321597325
 21
4.5425064341
 31
0
  0
LINE
  5
CE
100
AcDbEntity
  8
SEMA2D
100
AcDbLine
370
9
 62
7
  6
_SOLID
 10
2.297642325
 20
4.5418161875
 30
0
 11
2.297642325
 21
4.5353255535
 31
0
  0
LINE
  5
CF
100
AcDbEntity
  8
SEMA2D
100
AcDbLine
370
9
 62
7
  6
_SOLID
 10
2.339552325
 20
4.4849727177
 30
0
 11
2.340024825
 21
4.4857911117
 31
0
  0
LINE
  5
D0
100
AcDbEntity
  8
SEMA2D
100
AcDbLine
370
9
 62
7
  6
_SOLID
 10
2.309312325
 20
4.5095576607
 30
0
 11
2.309312325
 21
4.5314499005
 31
0
  0
LINE
  5
D1
100
AcDbEntity
  8
SEMA2D
100
AcDbLine
370
9
 62
7
  6
_SOLID
 10
2.303642325
 20
4.5085578868
 30
0
 11
2.303642325
 21
4.1399075873
 31
0
  0
LINE
  5
D2
100
AcDbEntity
  8
SEMA2D
100
AcDbLine
370
9
 62
7
  6
_SOLID
 10
2.314982325
 20
4.1269390074
 30
0
 11
2.339552325
 21
4.1179962588
 31
0
  0
LINE
  5
D3
100
AcDbEntity
  8
SEMA2D
100
AcDbLine
370
9
 62
7
  6
_SOLID
 10
2.3252082706
 20
4.1163853467
 30
0
 11
2.335772325
 21
4.1154611117
 31
0
  0
LINE
  5
D4
100
AcDbEntity
  8
SEMA2D
100
AcDbLine
370
9
 62
7
  6
_SOLID
 10
2.335772325
 20
4.1177558813
 30
0
 11
2.311202325
 21
4.1274342617
 31
0
  0
LINE
  5
D5
100
AcDbEntity
  8
SEMA2D
100
AcDbLine
370
9
 62
7
  6
_SOLID
 10
2.314982325
 20
4.1272388603
 30
0
 11
2.339552325
 21
4.1182961117
 31
0
  0
LINE
  5
D6
100
AcDbEntity
  8
SEMA2D
100
AcDbLine
370
9
 62
7
  6
_SOLID
 10
2.335772325
 20
4.1154611117
 30
0
 11
2.339552325
 21
4.1154611117
 31
0
  0
LINE
  5
D7
100
AcDbEntity
  8
SEMA2D
100
AcDbLine
370
9
 62
7
  6
_SOLID
 10
2.4044590453
 20
4.4791587741
 30
0
 11
2.4052515528
 21
4.4722037808
 31
0
  0
LINE
  5
D8
100
AcDbEntity
  8
SEMA2D
100
AcDbLine
370
9
 62
7
  6
_SOLID
 10
2.4044590453
 20
4.4791587741
 30
0
 11
2.4036665378
 21
4.4861137674
 31
0
  0
LINE
  5
D9
100
AcDbEntity
  8
SEMA2D
100
AcDbLine
370
9
 62
7
  6
_DOT
 10
2.3987982773
 20
4.5288372977
 30
0
 11
2.4044590453
 21
4.4791587741
 31
0
  0
ARC
  5
DA
100
AcDbEntity
  8
SEMA2D
100
AcDbCircle
370
9
 62
7
  6
_SOLID
 10
2.6461569712
 20
4.1405036117
 30
0
 40
0.0250492892
100
AcDbArc
 50
181.33400709223
 51
358.66599290777
  0
ARC
  5
DB
100
AcDbEntity
  8
SEMA2D
100
AcDbCircle
370
9
 62
7
  6
_SOLID
 10
2.7414838462
 20
4.1408579867
 30
0
 40
0.025414174
100
AcDbArc
 50
182.114146765578
 51
357.885853234422
  0
ARC
  5
DC
100
AcDbEntity
  8
SEMA2D
100
AcDbCircle
370
9
 62
7
  6
_SOLID
 10
2.7983019712
 20
4.5273711117
 30
0
 40
0.00377999999999989
100
AcDbArc
 50
180
 51
270
  0
ARC
  5
DD
100
AcDbEntity
  8
SEMA2D
100
AcDbCircle
370
9
 62
7
  6
_SOLID
 10
2.7983019712
 20
4.5273711117
 30
0
 40
0.00404562219999982
100
AcDbArc
 50
180
 51
270
  0
LINE
  5
DE
100
AcDbEntity
  8
SEMA2D
100
AcDbLine
370
9
 62
7
  6
_SOLID
 10
2.5554521753
 20
4.1379706252
 30
0
 11
2.5790199667
 21
4.5256263591
 31
0
  0
LINE
  5
DF
100
AcDbEntity
  8
SEMA2D
100
AcDbLine
370
9
 62
7
  6
_SOLID
 10
2.5550367236
 20
4.1344603788
 30
0
 11
2.5790148396
 21
4.5288611413
 31
0
  0
LINE
  5
E0
100
AcDbEntity
  8
SEMA2D
100
AcDbLine
370
9
 62
7
  6
_SOLID
 10
2.7633369712
 20
4.5281823577
 30
0
 11
2.7685201332
 21
4.5314499005
 31
0
  0
LINE
  5
E1
100
AcDbEntity
  8
SEMA2D
100
AcDbLine
370
9
 62
7
  6
_SOLID
 10
2.556394469
 20
4.1379189644
 30
0
 11
2.5799622604
 21
4.5255746983
 31
0
  0
LINE
  5
E2
100
AcDbEntity
  8
SEMA2D
100
AcDbLine
370
9
 62
7
  6
_SOLID
 10
2.5592797527
 20
4.1165091629
 30
0
 11
2.5592222938
 21
4.1154611117
 31
0
  0
LINE
  5
E3
100
AcDbEntity
  8
SEMA2D
100
AcDbLine
370
9
 62
7
  6
_SOLID
 10
2.5846708711
 20
4.5314499005
 30
0
 11
2.5850811653
 21
4.5335136117
 31
0
  0
LINE
  5
E4
100
AcDbEntity
  8
SEMA2D
100
AcDbLine
370
9
 62
7
  6
_SOLID
 10
2.5603681092
 20
4.1154611117
 30
0
 11
2.5605929612
 21
4.1195624117
 31
0
  0
LINE
  5
E5
100
AcDbEntity
  8
SEMA2D
100
AcDbLine
370
9
 62
7
  6
_SOLID
 10
2.5594229832
 20
4.1154611117
 30
0
 11
2.5596506675
 21
4.1196140725
 31
0
  0
LINE
  5
E6
100
AcDbEntity
  8
SEMA2D
100
AcDbLine
370
9
 62
7
  6
_SOLID
 10
2.5850811653
 20
4.5335136117
 30
0
 11
2.5856187207
 21
4.543318623
 31
0
  0
LINE
  5
E7
100
AcDbEntity
  8
SEMA2D
100
AcDbLine
370
9
 62
7
  6
_SOLID
 10
2.5635024282
 20
4.1399174474
 30
0
 11
2.5837129786
 21
4.5085578868
 31
0
  0
LINE
  5
E8
100
AcDbEntity
  8
SEMA2D
100
AcDbLine
370
9
 62
7
  6
_SOLID
 10
2.6211144712
 20
4.1399204464
 30
0
 11
2.6211144712
 21
4.5027143366
 31
0
  0
LINE
  5
E9
100
AcDbEntity
  8
SEMA2D
100
AcDbLine
370
9
 62
7
  6
_SOLID
 10
2.5844487343
 20
4.5464439088
 30
0
 11
2.5841136227
 21
4.5403314725
 31
0
  0
LINE
  5
EA
100
AcDbEntity
  8
SEMA2D
100
AcDbLine
370
9
 62
7
  6
_SOLID
 10
2.5841349529
 20
4.5443811117
 30
0
 11
2.5840855955
 21
4.5434808321
 31
0
  0
LINE
  5
EB
100
AcDbEntity
  8
SEMA2D
100
AcDbLine
370
9
 62
7
  6
_SOLID
 10
2.5846708711
 20
4.5314499005
 30
0
 11
2.5834706386
 21
4.5095576607
 31
0
  0
LINE
  5
EC
100
AcDbEntity
  8
SEMA2D
100
AcDbLine
370
9
 62
7
  6
_SOLID
 10
2.5852807684
 20
4.5443811117
 30
0
 11
2.5850559164
 21
4.5402798117
 31
0
  0
LINE
  5
ED
100
AcDbEntity
  8
SEMA2D
100
AcDbLine
370
9
 62
7
  6
_SOLID
 10
2.7028569712
 20
4.1399204464
 30
0
 11
2.6844294712
 21
4.1399204464
 31
0
  0
LINE
  5
EE
100
AcDbEntity
  8
SEMA2D
100
AcDbLine
370
9
 62
7
  6
_SOLID
 10
2.8208644825
 20
4.1399204464
 30
0
 11
2.7668807212
 21
4.1399204464
 31
0
  0
LINE
  5
EF
100
AcDbEntity
  8
SEMA2D
100
AcDbLine
370
9
 62
7
  6
_SOLID
 10
2.5562731017
 20
4.1379226503
 30
0
 11
2.555330808
 21
4.1379743111
 31
0
  0
LINE
  5
F0
100
AcDbEntity
  8
SEMA2D
100
AcDbLine
370
9
 62
7
  6
_SOLID
 10
2.6211144712
 20
4.1399204464
 30
0
 11
2.5633929435
 21
4.1399204464
 31
0
  0
LINE
  5
F1
100
AcDbEntity
  8
SEMA2D
100
AcDbLine
370
9
 62
7
  6
_SOLID
 10
2.5592222938
 20
4.1154611117
 30
0
 11
2.8178164677
 21
4.1154611117
 31
0
  0
LINE
  5
F2
100
AcDbEntity
  8
SEMA2D
100
AcDbLine
370
9
 62
7
  6
_SOLID
 10
2.5605929612
 20
4.1195624117
 30
0
 11
2.5596506675
 21
4.1196140725
 31
0
  0
LINE
  5
F3
100
AcDbEntity
  8
SEMA2D
100
AcDbLine
370
9
 62
7
  6
_SOLID
 10
2.6239638091
 20
4.5095576607
 30
0
 11
2.6291469712
 21
4.5111406362
 31
0
  0
LINE
  5
F4
100
AcDbEntity
  8
SEMA2D
100
AcDbLine
370
9
 62
7
  6
_SOLID
 10
2.817291116
 20
4.1163853467
 30
0
 11
2.5609724186
 21
4.1163853467
 31
0
  0
LINE
  5
F5
100
AcDbEntity
  8
SEMA2D
100
AcDbLine
370
9
 62
7
  6
_SOLID
 10
2.5592797527
 20
4.1165091629
 30
0
 11
2.554915355
 21
4.1344640648
 31
0
  0
LINE
  5
F6
100
AcDbEntity
  8
SEMA2D
100
AcDbLine
370
9
 62
7
  6
_SOLID
 10
2.8219269712
 20
4.1277461117
 30
0
 11
2.8213311246
 21
4.1278431515
 31
0
  0
LINE
  5
F7
100
AcDbEntity
  8
SEMA2D
100
AcDbLine
370
9
 62
7
  6
_SOLID
 10
2.5605929612
 20
4.1195624117
 30
0
 11
2.5562731017
 21
4.1379226503
 31
0
  0
LINE
  5
F8
100
AcDbEntity
  8
SEMA2D
100
AcDbLine
370
9
 62
7
  6
_SOLID
 10
2.5596506675
 20
4.1196140725
 30
0
 11
2.555330808
 21
4.1379743111
 31
0
  0
LINE
  5
F9
100
AcDbEntity
  8
SEMA2D
100
AcDbLine
370
9
 62
7
  6
_SOLID
 10
2.5790199667
 20
4.5256263591
 30
0
 11
2.5841136227
 21
4.5403314725
 31
0
  0
LINE
  5
FA
100
AcDbEntity
  8
SEMA2D
100
AcDbLine
370
9
 62
7
  6
_SOLID
 10
2.5790148396
 20
4.5288611413
 30
0
 11
2.5840422295
 21
4.5433794447
 31
0
  0
LINE
  5
FB
100
AcDbEntity
  8
SEMA2D
100
AcDbLine
370
9
 62
7
  6
_SOLID
 10
2.5799622604
 20
4.5255746983
 30
0
 11
2.5850559164
 21
4.5402798117
 31
0
  0
LINE
  5
FC
100
AcDbEntity
  8
SEMA2D
100
AcDbLine
370
9
 62
7
  6
_SOLID
 10
2.7160869712
 20
4.1154611117
 30
0
 11
2.7160869712
 21
4.5027143366
 31
0
  0
LINE
  5
FD
100
AcDbEntity
  8
SEMA2D
100
AcDbLine
370
9
 62
7
  6
_SOLID
 10
2.7633369712
 20
4.5111406362
 30
0
 11
2.7633369712
 21
4.5281823577
 31
0
  0
LINE
  5
FE
100
AcDbEntity
  8
SEMA2D
100
AcDbLine
370
9
 62
7
  6
_SOLID
 10
2.5609724186
 20
4.1163853467
 30
0
 11
2.5603681092
 21
4.1154611117
 31
0
  0
LINE
  5
FF
100
AcDbEntity
  8
SEMA2D
100
AcDbLine
370
9
 62
7
  6
_SOLID
 10
2.7028569712
 20
4.5027143366
 30
0
 11
2.7028569712
 21
4.1399204464
 31
0
  0
LINE
  5
100
100
AcDbEntity
  8
SEMA2D
100
AcDbLine
370
9
 62
7
  6
_SOLID
 10
2.7945219712
 20
4.5464611117
 30
0
 11
2.7945219712
 21
4.5273711117
 31
0
  0
LINE
  5
101
100
AcDbEntity
  8
SEMA2D
100
AcDbLine
370
9
 62
7
  6
_SOLID
 10
2.794256349
 20
4.5314499005
 30
0
 11
2.794256349
 21
4.5273711117
 31
0
  0
LINE
  5
102
100
AcDbEntity
  8
SEMA2D
100
AcDbLine
370
9
 62
7
  6
_SOLID
 10
2.8208644825
 20
4.5085578868
 30
0
 11
2.8208644825
 21
4.1399204464
 31
0
  0
LINE
  5
103
100
AcDbEntity
  8
SEMA2D
100
AcDbLine
370
9
 62
7
  6
_SOLID
 10
2.7983019712
 20
4.5233254895
 30
0
 11
2.7983019712
 21
4.5235911117
 31
0
  0
LINE
  5
104
100
AcDbEntity
  8
SEMA2D
100
AcDbLine
370
9
 62
7
  6
_SOLID
 10
2.7685201332
 20
4.5314499005
 30
0
 11
2.7685201332
 21
4.5095576607
 31
0
  0
LINE
  5
105
100
AcDbEntity
  8
SEMA2D
100
AcDbLine
370
9
 62
7
  6
_SOLID
 10
2.7668807212
 20
4.5027143366
 30
0
 11
2.7668807212
 21
4.1399204464
 31
0
  0
LINE
  5
106
100
AcDbEntity
  8
SEMA2D
100
AcDbLine
370
9
 62
7
  6
_SOLID
 10
2.7934594825
 20
4.543318623
 30
0
 11
2.7934594825
 21
4.5335136117
 31
0
  0
LINE
  5
107
100
AcDbEntity
  8
SEMA2D
100
AcDbLine
370
9
 62
7
  6
_SOLID
 10
2.817291116
 20
4.1163853467
 30
0
 11
2.8174702517
 21
4.1154611117
 31
0
  0
LINE
  5
108
100
AcDbEntity
  8
SEMA2D
100
AcDbLine
370
9
 62
7
  6
_SOLID
 10
2.6711994712
 20
4.1154611117
 30
0
 11
2.6711994712
 21
4.5027143366
 31
0
  0
LINE
  5
109
100
AcDbEntity
  8
SEMA2D
100
AcDbLine
370
9
 62
7
  6
_SOLID
 10
2.5856187207
 20
4.543318623
 30
0
 11
2.5852807684
 21
4.5443811117
 31
0
  0
LINE
  5
10A
100
AcDbEntity
  8
SEMA2D
100
AcDbLine
370
9
 62
7
  6
_SOLID
 10
2.8208644825
 20
4.5085578868
 30
0
 11
2.821661349
 21
4.5095576607
 31
0
  0
LINE
  5
10B
100
AcDbEntity
  8
SEMA2D
100
AcDbLine
370
9
 62
7
  6
_SOLID
 10
2.6844294712
 20
4.5027143366
 30
0
 11
2.6844294712
 21
4.1399204464
 31
0
  0
LINE
  5
10C
100
AcDbEntity
  8
SEMA2D
100
AcDbLine
370
9
 62
7
  6
_SOLID
 10
2.6291469712
 20
4.5111406362
 30
0
 11
2.6291469712
 21
4.5281823577
 31
0
  0
LINE
  5
10D
100
AcDbEntity
  8
SEMA2D
100
AcDbLine
370
9
 62
7
  6
_SOLID
 10
2.6239638091
 20
4.5095576607
 30
0
 11
2.6239638091
 21
4.5314499005
 31
0
  0
LINE
  5
10E
100
AcDbEntity
  8
SEMA2D
100
AcDbLine
370
9
 62
7
  6
_SOLID
 10
2.821661349
 20
4.5233254895
 30
0
 11
2.8219269712
 21
4.5235911117
 31
0
  0
LINE
  5
10F
100
AcDbEntity
  8
SEMA2D
100
AcDbLine
370
9
 62
7
  6
_SOLID
 10
2.5837129786
 20
4.5085578868
 30
0
 11
2.5834706386
 21
4.5095576607
 31
0
  0
LINE
  5
110
100
AcDbEntity
  8
SEMA2D
100
AcDbLine
370
9
 62
7
  6
_SOLID
 10
2.8218226276
 20
4.1274342617
 30
0
 11
2.8208406353
 21
4.125759861
 31
0
  0
LINE
  5
111
100
AcDbEntity
  8
SEMA2D
100
AcDbLine
370
9
 62
7
  6
_SOLID
 10
2.8185842868
 20
4.1177558813
 30
0
 11
2.8174702517
 21
4.1154611117
 31
0
  0
LINE
  5
112
100
AcDbEntity
  8
SEMA2D
100
AcDbLine
370
9
 62
7
  6
_SOLID
 10
2.5844496775
 20
4.5464611117
 30
0
 11
2.7945219712
 21
4.5464611117
 31
0
  0
LINE
  5
113
100
AcDbEntity
  8
SEMA2D
100
AcDbLine
370
9
 62
7
  6
_SOLID
 10
2.5856187207
 20
4.543318623
 30
0
 11
2.7934594825
 21
4.543318623
 31
0
  0
LINE
  5
114
100
AcDbEntity
  8
SEMA2D
100
AcDbLine
370
9
 62
7
  6
_SOLID
 10
2.5850811653
 20
4.5335136117
 30
0
 11
2.7934594825
 21
4.5335136117
 31
0
  0
LINE
  5
115
100
AcDbEntity
  8
SEMA2D
100
AcDbLine
370
9
 62
7
  6
_SOLID
 10
2.7685201332
 20
4.5314499005
 30
0
 11
2.794256349
 21
4.5314499005
 31
0
  0
LINE
  5
116
100
AcDbEntity
  8
SEMA2D
100
AcDbLine
370
9
 62
7
  6
_SOLID
 10
2.7633369712
 20
4.5111406362
 30
0
 11
2.7685201332
 21
4.5095576607
 31
0
  0
LINE
  5
117
100
AcDbEntity
  8
SEMA2D
100
AcDbLine
370
9
 62
7
  6
_SOLID
 10
2.5799622604
 20
4.5255746983
 30
0
 11
2.5790199667
 21
4.5256263591
 31
0
  0
LINE
  5
118
100
AcDbEntity
  8
SEMA2D
100
AcDbLine
370
9
 62
7
  6
_SOLID
 10
2.5850559164
 20
4.5402798117
 30
0
 11
2.5841136227
 21
4.5403314725
 31
0
  0
LINE
  5
119
100
AcDbEntity
  8
SEMA2D
100
AcDbLine
370
9
 62
7
  6
_SOLID
 10
2.8208644825
 20
4.5085578868
 30
0
 11
2.5837129786
 21
4.5085578868
 31
0
  0
LINE
  5
11A
100
AcDbEntity
  8
SEMA2D
100
AcDbLine
370
9
 62
7
  6
_SOLID
 10
2.6844294712
 20
4.5027143366
 30
0
 11
2.6211144712
 21
4.5027143366
 31
0
  0
LINE
  5
11B
100
AcDbEntity
  8
SEMA2D
100
AcDbLine
370
9
 62
7
  6
_SOLID
 10
2.7685201332
 20
4.5095576607
 30
0
 11
2.821661349
 21
4.5095576607
 31
0
  0
LINE
  5
11C
100
AcDbEntity
  8
SEMA2D
100
AcDbLine
370
9
 62
7
  6
_SOLID
 10
2.5834706386
 20
4.5095576607
 30
0
 11
2.6239638091
 21
4.5095576607
 31
0
  0
LINE
  5
11D
100
AcDbEntity
  8
SEMA2D
100
AcDbLine
370
9
 62
7
  6
_SOLID
 10
2.8219269712
 20
4.1277461117
 30
0
 11
2.8219269712
 21
4.5235911117
 31
0
  0
LINE
  5
11E
100
AcDbEntity
  8
SEMA2D
100
AcDbLine
370
9
 62
7
  6
_SOLID
 10
2.821661349
 20
4.5095576607
 30
0
 11
2.821661349
 21
4.5233254895
 31
0
  0
LINE
  5
11F
100
AcDbEntity
  8
SEMA2D
100
AcDbLine
370
9
 62
7
  6
_SOLID
 10
2.7668807212
 20
4.5027143366
 30
0
 11
2.7028569712
 21
4.5027143366
 31
0
  0
LINE
  5
120
100
AcDbEntity
  8
SEMA2D
100
AcDbLine
370
9
 62
7
  6
_SOLID
 10
2.6291469712
 20
4.5281823577
 30
0
 11
2.6239638091
 21
4.5314499005
 31
0
  0
LINE
  5
121
100
AcDbEntity
  8
SEMA2D
100
AcDbLine
370
9
 62
7
  6
_SOLID
 10
2.794256349
 20
4.5273711117
 30
0
 11
2.7945219712
 21
4.5273711117
 31
0
  0
LINE
  5
122
100
AcDbEntity
  8
SEMA2D
100
AcDbLine
370
9
 62
7
  6
_SOLID
 10
2.7983019712
 20
4.5235911117
 30
0
 11
2.8219269712
 21
4.5235911117
 31
0
  0
LINE
  5
123
100
AcDbEntity
  8
SEMA2D
100
AcDbLine
370
9
 62
7
  6
_SOLID
 10
2.5846708711
 20
4.5314499005
 30
0
 11
2.6239638091
 21
4.5314499005
 31
0
  0
LINE
  5
124
100
AcDbEntity
  8
SEMA2D
100
AcDbLine
370
9
 62
7
  6
_SOLID
 10
2.7934594825
 20
4.5335136117
 30
0
 11
2.794256349
 21
4.5314499005
 31
0
  0
LINE
  5
125
100
AcDbEntity
  8
SEMA2D
100
AcDbLine
370
9
 62
7
  6
_SOLID
 10
2.7633369712
 20
4.5111406362
 30
0
 11
2.6291469712
 21
4.5111406362
 31
0
  0
LINE
  5
126
100
AcDbEntity
  8
SEMA2D
100
AcDbLine
370
9
 62
7
  6
_SOLID
 10
2.7983019712
 20
4.5233254895
 30
0
 11
2.821661349
 21
4.5233254895
 31
0
  0
LINE
  5
127
100
AcDbEntity
  8
SEMA2D
100
AcDbLine
370
9
 62
7
  6
_SOLID
 10
2.8178164677
 20
4.1154611117
 30
0
 11
2.8219269712
 21
4.1277461117
 31
0
  0
ARC
  5
128
100
AcDbEntity
  8
SEMA2D
100
AcDbCircle
370
9
 62
7
  6
_SOLID
 10
2.6521017707
 20
4.773322255
 30
0
 40
0.0532424376999998
100
AcDbArc
 50
243.315696908833
 51
262.446700485451
  0
ARC
  5
129
100
AcDbEntity
  8
SEMA2D
100
AcDbCircle
370
9
 62
7
  6
_SOLID
 10
2.7158164226
 20
4.7512690204
 30
0
 40
0.0264599999999997
100
AcDbArc
 50
233.470192045996
 51
262.570656322109
  0
ARC
  5
12A
100
AcDbEntity
  8
SEMA2D
100
AcDbCircle
370
9
 62
7
  6
_SOLID
 10
2.6521017707
 20
4.773322255
 30
0
 40
0.0532424376999998
100
AcDbArc
 50
275.622617183257
 51
294.905442596608
  0
ARC
  5
12B
100
AcDbEntity
  8
SEMA2D
100
AcDbCircle
370
9
 62
7
  6
_SOLID
 10
2.6521017707
 20
4.773322255
 30
0
 40
0.0409574377000002
100
AcDbArc
 50
220.836977253331
 51
297.793197875822
  0
ARC
  5
12C
100
AcDbEntity
  8
SEMA2D
100
AcDbCircle
370
9
 62
7
  6
_SOLID
 10
2.7162215151
 20
4.7512641787
 30
0
 40
0.014175
100
AcDbArc
 50
199.468483253525
 51
270
  0
LINE
  5
12D
100
AcDbEntity
  8
SEMA2D
100
AcDbLine
370
9
 62
7
  6
_SOLID
 10
2.8038021071
 20
4.7351998172
 30
0
 11
2.8077428052
 21
4.7351998172
 31
0
  0
LINE
  5
12E
100
AcDbEntity
  8
SEMA2D
100
AcDbLine
370
9
 62
7
  6
_SOLID
 10
2.772050558
 20
4.7106298172
 30
0
 11
2.7686795179
 21
4.7106298172
 31
0
  0
LINE
  5
12F
100
AcDbEntity
  8
SEMA2D
100
AcDbLine
370
9
 62
7
  6
_SOLID
 10
2.6158375148
 20
4.7154495057
 30
0
 11
2.6360387495
 21
4.7356507405
 31
0
  0
LINE
  5
130
100
AcDbEntity
  8
SEMA2D
100
AcDbLine
370
9
 62
7
  6
_SOLID
 10
2.5698236104
 20
4.6694356014
 30
0
 11
2.5848031055
 21
4.6844150965
 31
0
  0
LINE
  5
131
100
AcDbEntity
  8
SEMA2D
100
AcDbLine
370
9
 62
7
  6
_SOLID
 10
2.6176999854
 20
4.7106298172
 30
0
 11
2.6266546098
 21
4.7195844417
 31
0
  0
LINE
  5
132
100
AcDbEntity
  8
SEMA2D
100
AcDbLine
370
9
 62
7
  6
_SOLID
 10
2.5694540452
 20
4.6623838771
 30
0
 11
2.5844335403
 21
4.6773633722
 31
0
  0
LINE
  5
133
100
AcDbEntity
  8
SEMA2D
100
AcDbLine
370
9
 62
7
  6
_SOLID
 10
2.5866681078
 20
4.7200014589
 30
0
 11
2.5886418518
 21
4.7210367014
 31
0
  0
LINE
  5
134
100
AcDbEntity
  8
SEMA2D
100
AcDbLine
370
9
 62
7
  6
_SOLID
 10
2.6146661576
 20
4.7209603077
 30
0
 11
2.6315848905
 21
4.7378790405
 31
0
  0
LINE
  5
135
100
AcDbEntity
  8
SEMA2D
100
AcDbLine
370
9
 62
7
  6
_SOLID
 10
2.5818781603
 20
4.6286038172
 30
0
 11
2.5940323292
 21
4.6513838649
 31
0
  0
LINE
  5
136
100
AcDbEntity
  8
SEMA2D
100
AcDbLine
370
9
 62
7
  6
_SOLID
 10
2.6244219712
 20
4.7106298172
 30
0
 11
2.6281919639
 21
4.7257504323
 31
0
  0
LINE
  5
137
100
AcDbEntity
  8
SEMA2D
100
AcDbLine
370
9
 62
7
  6
_SOLID
 10
2.6415712078
 20
4.7211367214
 30
0
 11
2.6528057714
 21
4.7323712851
 31
0
  0
LINE
  5
138
100
AcDbEntity
  8
SEMA2D
100
AcDbLine
370
9
 62
7
  6
_SOLID
 10
2.5687149148
 20
4.6482804285
 30
0
 11
2.5836944099
 21
4.6632599236
 31
0
  0
LINE
  5
139
100
AcDbEntity
  8
SEMA2D
100
AcDbLine
370
9
 62
7
  6
_SOLID
 10
2.6456130985
 20
4.7184964532
 30
0
 11
2.6603177572
 21
4.7332011119
 31
0
  0
LINE
  5
13A
100
AcDbEntity
  8
SEMA2D
100
AcDbLine
370
9
 62
7
  6
_SOLID
 10
2.5683453496
 20
4.6412287042
 30
0
 11
2.5833248447
 21
4.6562081993
 31
0
  0
LINE
  5
13B
100
AcDbEntity
  8
SEMA2D
100
AcDbLine
370
9
 62
7
  6
_SOLID
 10
2.56908448
 20
4.6553321528
 30
0
 11
2.5840639751
 21
4.6703116479
 31
0
  0
LINE
  5
13C
100
AcDbEntity
  8
SEMA2D
100
AcDbLine
370
9
 62
7
  6
_SOLID
 10
2.6313610446
 20
4.7242908765
 30
0
 11
2.6409757431
 21
4.733905575
 31
0
  0
LINE
  5
13D
100
AcDbEntity
  8
SEMA2D
100
AcDbLine
370
9
 62
7
  6
_SOLID
 10
2.6362492851
 20
4.7224969579
 30
0
 11
2.6465050939
 21
4.7327527667
 31
0
  0
LINE
  5
13E
100
AcDbEntity
  8
SEMA2D
100
AcDbLine
370
9
 62
7
  6
_SOLID
 10
2.5953891937
 20
4.7101573172
 30
0
 11
2.5953990003
 21
4.7106298172
 31
0
  0
LINE
  5
13F
100
AcDbEntity
  8
SEMA2D
100
AcDbLine
370
9
 62
7
  6
_SOLID
 10
2.6002788995
 20
4.7333016858
 30
0
 11
2.6135170309
 21
4.7465398172
 31
0
  0
LINE
  5
140
100
AcDbEntity
  8
SEMA2D
100
AcDbLine
370
9
 62
7
  6
_SOLID
 10
2.5713018713
 20
4.6976424986
 30
0
 11
2.5862813664
 21
4.7126219936
 31
0
  0
LINE
  5
141
100
AcDbEntity
  8
SEMA2D
100
AcDbLine
370
9
 62
7
  6
_SOLID
 10
2.5976919184
 20
4.7101573172
 30
0
 11
2.5940323292
 21
4.6513838649
 31
0
  0
LINE
  5
142
100
AcDbEntity
  8
SEMA2D
100
AcDbLine
370
9
 62
7
  6
_SOLID
 10
2.5866681078
 20
4.7200014589
 30
0
 11
2.5818781603
 21
4.6286038172
 31
0
  0
LINE
  5
143
100
AcDbEntity
  8
SEMA2D
100
AcDbLine
370
9
 62
7
  6
_SOLID
 10
2.5886418518
 20
4.7210367014
 30
0
 11
2.5882493292
 21
4.7106298172
 31
0
  0
LINE
  5
144
100
AcDbEntity
  8
SEMA2D
100
AcDbLine
370
9
 62
7
  6
_SOLID
 10
2.5716714365
 20
4.7046942229
 30
0
 11
2.5866509316
 21
4.7196737179
 31
0
  0
LINE
  5
145
100
AcDbEntity
  8
SEMA2D
100
AcDbLine
370
9
 62
7
  6
_SOLID
 10
2.5720410017
 20
4.7117459471
 30
0
 11
2.6068348718
 21
4.7465398172
 31
0
  0
LINE
  5
146
100
AcDbEntity
  8
SEMA2D
100
AcDbLine
370
9
 62
7
  6
_SOLID
 10
2.5705627409
 20
4.68353905
 30
0
 11
2.5855422359
 21
4.6985185451
 31
0
  0
LINE
  5
147
100
AcDbEntity
  8
SEMA2D
100
AcDbLine
370
9
 62
7
  6
_SOLID
 10
2.6152447692
 20
4.7106298172
 30
0
 11
2.6149719712
 21
4.7101573172
 31
0
  0
LINE
  5
148
100
AcDbEntity
  8
SEMA2D
100
AcDbLine
370
9
 62
7
  6
_SOLID
 10
2.5701931757
 20
4.6764873257
 30
0
 11
2.5851726707
 21
4.6914668208
 31
0
  0
LINE
  5
149
100
AcDbEntity
  8
SEMA2D
100
AcDbLine
370
9
 62
7
  6
_SOLID
 10
2.6130055364
 20
4.7259818455
 30
0
 11
2.6275603714
 21
4.7405366805
 31
0
  0
LINE
  5
14A
100
AcDbEntity
  8
SEMA2D
100
AcDbLine
370
9
 62
7
  6
_SOLID
 10
2.5709323061
 20
4.6905907743
 30
0
 11
2.5859118012
 21
4.7055702693
 31
0
  0
LINE
  5
14B
100
AcDbEntity
  8
SEMA2D
100
AcDbLine
370
9
 62
7
  6
_SOLID
 10
2.6059457617
 20
4.7322863889
 30
0
 11
2.62019919
 21
4.7465398172
 31
0
  0
LINE
  5
14C
100
AcDbEntity
  8
SEMA2D
100
AcDbLine
370
9
 62
7
  6
_SOLID
 10
2.5670611387
 20
4.6348079618
 30
0
 11
2.5681120712
 21
4.6367774875
 31
0
  0
LINE
  5
14D
100
AcDbEntity
  8
SEMA2D
100
AcDbLine
370
9
 62
7
  6
_SOLID
 10
2.6100589331
 20
4.7297174013
 30
0
 11
2.6239350265
 21
4.7435934947
 31
0
  0
LINE
  5
14E
100
AcDbEntity
  8
SEMA2D
100
AcDbLine
370
9
 62
7
  6
_SOLID
 10
2.7070278656
 20
4.7264539476
 30
0
 11
2.7171372166
 21
4.7365632985
 31
0
  0
LINE
  5
14F
100
AcDbEntity
  8
SEMA2D
100
AcDbLine
370
9
 62
7
  6
_SOLID
 10
2.7025203731
 20
4.7286286141
 30
0
 11
2.7117174439
 21
4.7378256849
 31
0
  0
LINE
  5
150
100
AcDbEntity
  8
SEMA2D
100
AcDbLine
370
9
 62
7
  6
_SOLID
 10
2.7171836152
 20
4.723245379
 30
0
 11
2.727135277
 21
4.7331970408
 31
0
  0
LINE
  5
151
100
AcDbEntity
  8
SEMA2D
100
AcDbLine
370
9
 62
7
  6
_SOLID
 10
2.7123485826
 20
4.7250925055
 30
0
 11
2.7218745617
 21
4.7346184845
 31
0
  0
LINE
  5
152
100
AcDbEntity
  8
SEMA2D
100
AcDbLine
370
9
 62
7
  6
_SOLID
 10
2.6447394712
 20
4.7106298172
 30
0
 11
2.6448660772
 21
4.7101573172
 31
0
  0
LINE
  5
153
100
AcDbEntity
  8
SEMA2D
100
AcDbLine
370
9
 62
7
  6
_SOLID
 10
2.6318305311
 20
4.7106298172
 30
0
 11
2.6400144712
 21
4.6964548172
 31
0
  0
LINE
  5
154
100
AcDbEntity
  8
SEMA2D
100
AcDbLine
370
9
 62
7
  6
_SOLID
 10
2.6688369712
 20
4.6964548172
 30
0
 11
2.672635151
 21
4.7106298172
 31
0
  0
LINE
  5
155
100
AcDbEntity
  8
SEMA2D
100
AcDbLine
370
9
 62
7
  6
_SOLID
 10
2.645103136
 20
4.7205418013
 30
0
 11
2.6475744712
 21
4.7106298172
 31
0
  0
LINE
  5
156
100
AcDbEntity
  8
SEMA2D
100
AcDbLine
370
9
 62
7
  6
_SOLID
 10
2.7317921813
 20
4.7111253087
 30
0
 11
2.7672066898
 21
4.7465398172
 31
0
  0
LINE
  5
157
100
AcDbEntity
  8
SEMA2D
100
AcDbLine
370
9
 62
7
  6
_SOLID
 10
2.7304586248
 20
4.7164739114
 30
0
 11
2.7484108494
 21
4.7344261359
 31
0
  0
LINE
  5
158
100
AcDbEntity
  8
SEMA2D
100
AcDbLine
370
9
 62
7
  6
_SOLID
 10
2.749209281
 20
4.7218602494
 30
0
 11
2.7738888489
 21
4.7465398172
 31
0
  0
LINE
  5
159
100
AcDbEntity
  8
SEMA2D
100
AcDbLine
370
9
 62
7
  6
_SOLID
 10
2.7379788489
 20
4.7106298172
 30
0
 11
2.74028761
 21
4.7129385784
 31
0
  0
LINE
  5
15A
100
AcDbEntity
  8
SEMA2D
100
AcDbLine
370
9
 62
7
  6
_SOLID
 10
2.7279084286
 20
4.7206058742
 30
0
 11
2.7399107835
 21
4.7326082291
 31
0
  0
LINE
  5
15B
100
AcDbEntity
  8
SEMA2D
100
AcDbLine
370
9
 62
7
  6
_SOLID
 10
2.722311631
 20
4.7216912357
 30
0
 11
2.7330565983
 21
4.732436203
 31
0
  0
LINE
  5
15C
100
AcDbEntity
  8
SEMA2D
100
AcDbLine
370
9
 62
7
  6
_SOLID
 10
2.6613793647
 20
4.7208984011
 30
0
 11
2.6870207808
 21
4.7465398172
 31
0
  0
LINE
  5
15D
100
AcDbEntity
  8
SEMA2D
100
AcDbLine
370
9
 62
7
  6
_SOLID
 10
2.6511107808
 20
4.7106298172
 30
0
 11
2.6561561806
 21
4.7156752171
 31
0
  0
LINE
  5
15E
100
AcDbEntity
  8
SEMA2D
100
AcDbLine
370
9
 62
7
  6
_SOLID
 10
2.6570244712
 20
4.7106298172
 30
0
 11
2.6568978652
 21
4.7101573172
 31
0
  0
LINE
  5
15F
100
AcDbEntity
  8
SEMA2D
100
AcDbLine
370
9
 62
7
  6
_SOLID
 10
2.6548982212
 20
4.7106298172
 30
0
 11
2.6573182386
 21
4.7203359771
 31
0
  0
LINE
  5
160
100
AcDbEntity
  8
SEMA2D
100
AcDbLine
370
9
 62
7
  6
_SOLID
 10
2.5669756558
 20
4.6331768513
 30
0
 11
2.5829552795
 21
4.649156475
 31
0
  0
LINE
  5
161
100
AcDbEntity
  8
SEMA2D
100
AcDbLine
370
9
 62
7
  6
_SOLID
 10
2.6168619712
 20
4.7106298172
 30
0
 11
2.6144013527
 21
4.7222061169
 31
0
  0
LINE
  5
162
100
AcDbEntity
  8
SEMA2D
100
AcDbLine
370
9
 62
7
  6
_SOLID
 10
2.5690847808
 20
4.6286038172
 30
0
 11
2.5825857143
 21
4.6421047507
 31
0
  0
LINE
  5
163
100
AcDbEntity
  8
SEMA2D
100
AcDbLine
370
9
 62
7
  6
_SOLID
 10
2.646946655
 20
4.7131478505
 30
0
 11
2.6705669502
 21
4.7367681457
 31
0
  0
LINE
  5
164
100
AcDbEntity
  8
SEMA2D
100
AcDbLine
370
9
 62
7
  6
_SOLID
 10
2.5670611387
 20
4.6348079618
 30
0
 11
2.5680065731
 21
4.6347644643
 31
0
  0
LINE
  5
165
100
AcDbEntity
  8
SEMA2D
100
AcDbLine
370
9
 62
7
  6
_SOLID
 10
2.5688089514
 20
4.6286038172
 30
0
 11
2.5818781603
 21
4.6286038172
 31
0
  0
LINE
  5
166
100
AcDbEntity
  8
SEMA2D
100
AcDbLine
370
9
 62
7
  6
_SOLID
 10
2.6972119171
 20
4.7300023172
 30
0
 11
2.7073896007
 21
4.7401800008
 31
0
  0
LINE
  5
167
100
AcDbEntity
  8
SEMA2D
100
AcDbLine
370
9
 62
7
  6
_SOLID
 10
2.690529758
 20
4.7300023172
 30
0
 11
2.7042321516
 21
4.7437047108
 31
0
  0
LINE
  5
168
100
AcDbEntity
  8
SEMA2D
100
AcDbLine
370
9
 62
7
  6
_SOLID
 10
2.6705395521
 20
4.7233764294
 30
0
 11
2.6937029399
 21
4.7465398172
 31
0
  0
LINE
  5
169
100
AcDbEntity
  8
SEMA2D
100
AcDbLine
370
9
 62
7
  6
_SOLID
 10
2.5757669399
 20
4.6286038172
 30
0
 11
2.5822161491
 21
4.6350530264
 31
0
  0
LINE
  5
16A
100
AcDbEntity
  8
SEMA2D
100
AcDbLine
370
9
 62
7
  6
_SOLID
 10
2.566859221
 20
4.6309551434
 30
0
 11
2.5684781221
 21
4.6309663172
 31
0
  0
LINE
  5
16B
100
AcDbEntity
  8
SEMA2D
100
AcDbLine
370
9
 62
7
  6
_SOLID
 10
2.6803243263
 20
4.7264790446
 30
0
 11
2.7003850989
 21
4.7465398172
 31
0
  0
LINE
  5
16C
100
AcDbEntity
  8
SEMA2D
100
AcDbLine
370
9
 62
7
  6
_SOLID
 10
2.5680065731
 20
4.6347644643
 30
0
 11
2.5738644712
 21
4.7465398172
 31
0
  0
LINE
  5
16D
100
AcDbEntity
  8
SEMA2D
100
AcDbLine
370
9
 62
7
  6
_SOLID
 10
2.5670611387
 20
4.6348079618
 30
0
 11
2.566859221
 21
4.6309551434
 31
0
  0
LINE
  5
16E
100
AcDbEntity
  8
SEMA2D
100
AcDbLine
370
9
 62
7
  6
_SOLID
 10
2.5724105669
 20
4.7187976714
 30
0
 11
2.6001527127
 21
4.7465398172
 31
0
  0
LINE
  5
16F
100
AcDbEntity
  8
SEMA2D
100
AcDbLine
370
9
 62
7
  6
_SOLID
 10
2.5727801321
 20
4.7258493957
 30
0
 11
2.5934705536
 21
4.7465398172
 31
0
  0
LINE
  5
170
100
AcDbEntity
  8
SEMA2D
100
AcDbLine
370
9
 62
7
  6
_SOLID
 10
2.5735192626
 20
4.7399528443
 30
0
 11
2.5801062355
 21
4.7465398172
 31
0
  0
LINE
  5
171
100
AcDbEntity
  8
SEMA2D
100
AcDbLine
370
9
 62
7
  6
_SOLID
 10
2.5688089514
 20
4.6286038172
 30
0
 11
2.5684781221
 21
4.6309663172
 31
0
  0
LINE
  5
172
100
AcDbEntity
  8
SEMA2D
100
AcDbLine
370
9
 62
7
  6
_SOLID
 10
2.5731496973
 20
4.73290112
 30
0
 11
2.5867883946
 21
4.7465398172
 31
0
  0
LINE
  5
173
100
AcDbEntity
  8
SEMA2D
100
AcDbLine
370
9
 62
7
  6
_SOLID
 10
2.7605437665
 20
4.7265125758
 30
0
 11
2.7645451429
 21
4.7305139522
 31
0
  0
LINE
  5
174
100
AcDbEntity
  8
SEMA2D
100
AcDbLine
370
9
 62
7
  6
_SOLID
 10
2.5882493292
 20
4.7106298172
 30
0
 11
2.7727869712
 21
4.7106298172
 31
0
  0
LINE
  5
175
100
AcDbEntity
  8
SEMA2D
100
AcDbLine
370
9
 62
7
  6
_SOLID
 10
2.8093239624
 20
4.7351998172
 30
0
 11
2.8206639624
 21
4.7465398172
 31
0
  0
LINE
  5
176
100
AcDbEntity
  8
SEMA2D
100
AcDbLine
370
9
 62
7
  6
_SOLID
 10
2.6149719712
 20
4.7101573172
 30
0
 11
2.5953891937
 21
4.7101573172
 31
0
  0
LINE
  5
177
100
AcDbEntity
  8
SEMA2D
100
AcDbLine
370
9
 62
7
  6
_SOLID
 10
2.8026418033
 20
4.7351998172
 30
0
 11
2.8139818033
 21
4.7465398172
 31
0
  0
LINE
  5
178
100
AcDbEntity
  8
SEMA2D
100
AcDbLine
370
9
 62
7
  6
_SOLID
 10
2.7459810772
 20
4.7101573172
 30
0
 11
2.7580128652
 21
4.7101573172
 31
0
  0
LINE
  5
179
100
AcDbEntity
  8
SEMA2D
100
AcDbLine
370
9
 62
7
  6
_SOLID
 10
2.6448660772
 20
4.7101573172
 30
0
 11
2.6568978652
 21
4.7101573172
 31
0
  0
LINE
  5
17A
100
AcDbEntity
  8
SEMA2D
100
AcDbLine
370
9
 62
7
  6
_SOLID
 10
2.7581394712
 20
4.7106298172
 30
0
 11
2.7580128652
 21
4.7101573172
 31
0
  0
LINE
  5
17B
100
AcDbEntity
  8
SEMA2D
100
AcDbLine
370
9
 62
7
  6
_SOLID
 10
2.7294778118
 20
4.7204077378
 30
0
 11
2.7319157212
 21
4.7106298172
 31
0
  0
LINE
  5
17C
100
AcDbEntity
  8
SEMA2D
100
AcDbLine
370
9
 62
7
  6
_SOLID
 10
2.8133743477
 20
4.7258858843
 30
0
 11
2.8207029513
 21
4.733214488
 31
0
  0
LINE
  5
17D
100
AcDbEntity
  8
SEMA2D
100
AcDbLine
370
9
 62
7
  6
_SOLID
 10
2.7600294712
 20
4.6964548172
 30
0
 11
2.7682134112
 21
4.7106298172
 31
0
  0
LINE
  5
17E
100
AcDbEntity
  8
SEMA2D
100
AcDbLine
370
9
 62
7
  6
_SOLID
 10
2.8196538603
 20
4.7257498172
 30
0
 11
2.8134219712
 21
4.7257498172
 31
0
  0
LINE
  5
17F
100
AcDbEntity
  8
SEMA2D
100
AcDbLine
370
9
 62
7
  6
_SOLID
 10
2.8116419361
 20
4.7308356318
 30
0
 11
2.8216631693
 21
4.740856865
 31
0
  0
LINE
  5
180
100
AcDbEntity
  8
SEMA2D
100
AcDbLine
370
9
 62
7
  6
_SOLID
 10
2.7274087914
 20
4.7106298172
 30
0
 11
2.7312069712
 21
4.6964548172
 31
0
  0
LINE
  5
181
100
AcDbEntity
  8
SEMA2D
100
AcDbLine
370
9
 62
7
  6
_SOLID
 10
2.7935769712
 20
4.7257498172
 30
0
 11
2.7978294712
 21
4.7257498172
 31
0
  0
LINE
  5
182
100
AcDbEntity
  8
SEMA2D
100
AcDbLine
370
9
 62
7
  6
_SOLID
 10
2.7312069712
 20
4.6964548172
 30
0
 11
2.7600294712
 21
4.6964548172
 31
0
  0
LINE
  5
183
100
AcDbEntity
  8
SEMA2D
100
AcDbLine
370
9
 62
7
  6
_SOLID
 10
2.6400144712
 20
4.6964548172
 30
0
 11
2.6688369712
 21
4.6964548172
 31
0
  0
LINE
  5
184
100
AcDbEntity
  8
SEMA2D
100
AcDbLine
370
9
 62
7
  6
_SOLID
 10
2.7641679444
 20
4.7167724355
 30
0
 11
2.7746916996
 21
4.7272961907
 31
0
  0
LINE
  5
185
100
AcDbEntity
  8
SEMA2D
100
AcDbLine
370
9
 62
7
  6
_SOLID
 10
2.762834388
 20
4.7221210382
 30
0
 11
2.7645451429
 21
4.7238317931
 31
0
  0
LINE
  5
186
100
AcDbEntity
  8
SEMA2D
100
AcDbLine
370
9
 62
7
  6
_SOLID
 10
2.7646790773
 20
4.7306478866
 30
0
 11
2.7805710079
 21
4.7465398172
 31
0
  0
LINE
  5
187
100
AcDbEntity
  8
SEMA2D
100
AcDbLine
370
9
 62
7
  6
_SOLID
 10
2.776149417
 20
4.7354360672
 30
0
 11
2.787253167
 21
4.7465398172
 31
0
  0
LINE
  5
188
100
AcDbEntity
  8
SEMA2D
100
AcDbLine
370
9
 62
7
  6
_SOLID
 10
2.764545143
 20
4.723831793
 30
0
 11
2.7755539136
 21
4.7348405639
 31
0
  0
LINE
  5
189
100
AcDbEntity
  8
SEMA2D
100
AcDbLine
370
9
 62
7
  6
_SOLID
 10
2.7713896443
 20
4.7106298172
 30
0
 11
2.7729672714
 21
4.7122074444
 31
0
  0
LINE
  5
18A
100
AcDbEntity
  8
SEMA2D
100
AcDbLine
370
9
 62
7
  6
_SOLID
 10
2.7397119712
 20
4.7106298172
 30
0
 11
2.7421729097
 21
4.7205001025
 31
0
  0
LINE
  5
18B
100
AcDbEntity
  8
SEMA2D
100
AcDbLine
370
9
 62
7
  6
_SOLID
 10
2.7934688539
 20
4.7260268678
 30
0
 11
2.7993753604
 21
4.7319333743
 31
0
  0
LINE
  5
18C
100
AcDbEntity
  8
SEMA2D
100
AcDbLine
370
9
 62
7
  6
_SOLID
 10
2.7915931601
 20
4.7308333331
 30
0
 11
2.8072996443
 21
4.7465398172
 31
0
  0
LINE
  5
18D
100
AcDbEntity
  8
SEMA2D
100
AcDbLine
370
9
 62
7
  6
_SOLID
 10
2.7828315761
 20
4.7354360672
 30
0
 11
2.7939353261
 21
4.7465398172
 31
0
  0
LINE
  5
18E
100
AcDbEntity
  8
SEMA2D
100
AcDbLine
370
9
 62
7
  6
_SOLID
 10
2.7895137352
 20
4.7354360672
 30
0
 11
2.8006174852
 21
4.7465398172
 31
0
  0
LINE
  5
18F
100
AcDbEntity
  8
SEMA2D
100
AcDbLine
370
9
 62
7
  6
_SOLID
 10
2.7655015009
 20
4.7114238329
 30
0
 11
2.7738294855
 21
4.7197518175
 31
0
  0
LINE
  5
190
100
AcDbEntity
  8
SEMA2D
100
AcDbLine
370
9
 62
7
  6
_SOLID
 10
2.8219269712
 20
4.7389798172
 30
0
 11
2.8208644825
 21
4.7465398172
 31
0
  0
LINE
  5
191
100
AcDbEntity
  8
SEMA2D
100
AcDbLine
370
9
 62
7
  6
_SOLID
 10
2.7756219712
 20
4.7354360672
 30
0
 11
2.7897969712
 21
4.7354360672
 31
0
  0
LINE
  5
192
100
AcDbEntity
  8
SEMA2D
100
AcDbLine
370
9
 62
7
  6
_SOLID
 10
2.8209819712
 20
4.7351998172
 30
0
 11
2.8219269712
 21
4.7351998172
 31
0
  0
LINE
  5
193
100
AcDbEntity
  8
SEMA2D
100
AcDbLine
370
9
 62
7
  6
_SOLID
 10
2.7458544712
 20
4.7106298172
 30
0
 11
2.7459810772
 21
4.7101573172
 31
0
  0
LINE
  5
194
100
AcDbEntity
  8
SEMA2D
100
AcDbLine
370
9
 62
7
  6
_SOLID
 10
2.5738644712
 20
4.7465398172
 30
0
 11
2.8208644825
 21
4.7465398172
 31
0
  0
LINE
  5
195
100
AcDbEntity
  8
SEMA2D
100
AcDbLine
370
9
 62
7
  6
_SOLID
 10
2.7985382212
 20
4.7285848172
 30
0
 11
2.8124297212
 21
4.7285848172
 31
0
  0
LINE
  5
196
100
AcDbEntity
  8
SEMA2D
100
AcDbLine
370
9
 62
7
  6
_SOLID
 10
2.7748389712
 20
4.7285848172
 30
0
 11
2.7924706297
 21
4.7285848172
 31
0
  0
LINE
  5
197
100
AcDbEntity
  8
SEMA2D
100
AcDbLine
370
9
 62
7
  6
_SOLID
 10
2.8001919712
 20
4.7351998172
 30
0
 11
2.8101144712
 21
4.7351998172
 31
0
  0
LINE
  5
198
100
AcDbEntity
  8
SEMA2D
100
AcDbLine
370
9
 62
7
  6
_SOLID
 10
2.6868149909
 20
4.7300023172
 30
0
 11
2.7004714406
 21
4.7300023172
 31
0
  0
LINE
  5
199
100
AcDbEntity
  8
SEMA2D
100
AcDbLine
370
9
 62
7
  6
_SOLID
 10
2.8196538603
 20
4.7257498172
 30
0
 11
2.8209819712
 21
4.7351998172
 31
0
  0
LINE
  5
19A
100
AcDbEntity
  8
SEMA2D
100
AcDbLine
370
9
 62
7
  6
_SOLID
 10
2.7935769712
 20
4.7257498172
 30
0
 11
2.7897969712
 21
4.7354360672
 31
0
  0
LINE
  5
19B
100
AcDbEntity
  8
SEMA2D
100
AcDbLine
370
9
 62
7
  6
_SOLID
 10
2.8134219712
 20
4.7257498172
 30
0
 11
2.8101144712
 21
4.7351998172
 31
0
  0
LINE
  5
19C
100
AcDbEntity
  8
SEMA2D
100
AcDbLine
370
9
 62
7
  6
_SOLID
 10
2.8219269712
 20
4.7389798172
 30
0
 11
2.8219269712
 21
4.7351998172
 31
0
  0
LINE
  5
19D
100
AcDbEntity
  8
SEMA2D
100
AcDbLine
370
9
 62
7
  6
_SOLID
 10
2.7588310793
 20
4.7256826406
 30
0
 11
2.7628644712
 21
4.7106298172
 31
0
  0
LINE
  5
19E
100
AcDbEntity
  8
SEMA2D
100
AcDbLine
370
9
 62
7
  6
_SOLID
 10
2.7756219712
 20
4.7354360672
 30
0
 11
2.7727869712
 21
4.7106298172
 31
0
  0
LINE
  5
19F
100
AcDbEntity
  8
SEMA2D
100
AcDbLine
370
9
 62
7
  6
_SOLID
 10
2.8001919712
 20
4.7351998172
 30
0
 11
2.7978294712
 21
4.7257498172
 31
0
  0
LINE
  5
1A0
100
AcDbEntity
  8
SEMA2D
100
AcDbLine
370
9
 62
7
  6
_SOLID
 10
2.7656994712
 20
4.7106298172
 30
0
 11
2.7615937291
 21
4.7270970489
 31
0
  0
ARC
  5
1A1
100
AcDbEntity
  8
SEMA2D
100
AcDbCircle
370
9
 62
7
  6
_SOLID
 10
2.6006908134
 20
4.7192906483
 30
0
 40
0.0140170911999999
100
AcDbArc
 50
12.0048119148664
 51
91.6839675128783
  0
ARC
  5
1A2
100
AcDbEntity
  8
SEMA2D
100
AcDbCircle
370
9
 62
7
  6
_SOLID
 10
2.599590339
 20
4.7203919068
 30
0
 40
0.0129281286000003
100
AcDbArc
 50
86.9469450961911
 51
181.73067732653
  0
ARC
  5
1A3
100
AcDbEntity
  8
SEMA2D
100
AcDbCircle
370
9
 62
7
  6
_SOLID
 10
2.6711924273
 20
4.7512641787
 30
0
 40
0.0141749999999998
100
AcDbArc
 50
270
 51
340.531516746474
  0
ARC
  5
1A4
100
AcDbEntity
  8
SEMA2D
100
AcDbCircle
370
9
 62
7
  6
_SOLID
 10
2.7351846716
 20
4.773322255
 30
0
 40
0.0409574377000002
100
AcDbArc
 50
242.206802124178
 51
319.163022746669
  0
ARC
  5
1A5
100
AcDbEntity
  8
SEMA2D
100
AcDbCircle
370
9
 62
7
  6
_SOLID
 10
2.6710649164
 20
4.7512641787
 30
0
 40
0.0264599999999997
100
AcDbArc
 50
277.429343677891
 51
306.529807954004
  0
ARC
  5
1A6
100
AcDbEntity
  8
SEMA2D
100
AcDbCircle
370
9
 62
7
  6
_SOLID
 10
2.7348166135
 20
4.773322255
 30
0
 40
0.0532424377
100
AcDbArc
 50
245.094557403392
 51
264.377382816743
  0
ARC
  5
1A7
100
AcDbEntity
  8
SEMA2D
100
AcDbCircle
370
9
 62
7
  6
_SOLID
 10
2.7351742749
 20
4.773322255
 30
0
 40
0.0532424376999998
100
AcDbArc
 50
277.553299514549
 51
299.749598073432
  0
LINE
  5
1A8
100
AcDbEntity
  8
SEMA2D
100
AcDbLine
370
9
 62
7
  6
_SOLID
 10
2.8219269712
 20
4.6856298172
 30
0
 11
2.6368305311
 21
4.6856298172
 31
0
  0
LINE
  5
1A9
100
AcDbEntity
  8
SEMA2D
100
AcDbLine
370
9
 62
7
  6
_SOLID
 10
2.6118305311
 20
4.7106298172
 30
0
 11
2.6118305311
 21
4.617182855
 31
0
  0
LINE
  5
1AA
100
AcDbEntity
  8
SEMA2D
100
AcDbLine
370
9
 62
7
  6
_SOLID
 10
2.6368305311
 20
4.617182855
 30
0
 11
2.6368305311
 21
4.7106298172
 31
0
  0
LINE
  5
1AB
100
AcDbEntity
  8
SEMA2D
100
AcDbLine
370
9
 62
7
  6
_SOLID
 10
2.6118305311
 20
4.617182855
 30
0
 11
2.6368305311
 21
4.617182855
 31
0
  0
CIRCLE
  5
1AC
100
AcDbEntity
  8
SEMA2D
100
AcDbCircle
370
9
 62
7
  6
_SOLID
 10
2.6939217776
 20
4.502706653
 30
0
 40
0.00500000000000012
  0
LINE
  5
1AD
100
AcDbEntity
  8
SEMA2D
100
AcDbLine
370
9
 62
7
  6
_DOT
 10
2.8578164677
 20
4.1154611117
 30
0
 11
2.8219269712
 21
4.1154611117
 31
0
  0
LINE
  5
1AE
100
AcDbEntity
  8
SEMA2D
100
AcDbLine
370
9
 62
7
  6
_DOT
 10
2.8219269712
 20
4.0756435117
 30
0
 11
2.8219269712
 21
4.1154611117
 31
0
  0
LINE
  5
1AF
100
AcDbEntity
  8
SEMA2D
100
AcDbLine
370
9
 62
7
  6
_DOT
 10
2.5539269712
 20
4.0756435117
 30
0
 11
2.5539269712
 21
4.1306435117
 31
0
  0
LINE
  5
1B0
100
AcDbEntity
  8
SEMA2D
100
AcDbLine
370
9
 62
7
  6
_DOT
 10
2.8578164677
 20
4.5464611117
 30
0
 11
2.7945219712
 21
4.5464611117
 31
0
  0
LINE
  5
1B1
100
AcDbEntity
  8
SEMA2D
100
AcDbLine
370
9
 62
7
  6
_DOT
 10
2.297642325
 20
4.5713305952
 30
0
 11
2.297642325
 21
4.543318623
 31
0
  0
LINE
  5
1B2
100
AcDbEntity
  8
SEMA2D
100
AcDbLine
370
9
 62
7
  6
_DOT
 10
2.281202325
 20
4.5163811117
 30
0
 11
2.339552325
 21
4.5163811117
 31
0
  0
LINE
  5
1B3
100
AcDbEntity
  8
SEMA2D
100
AcDbLine
370
9
 62
7
  6
_DOT
 10
2.3987982773
 20
4.5713305952
 30
0
 11
2.3987982773
 21
4.5288372977
 31
0
  0
LINE
  5
1B4
100
AcDbEntity
  8
SEMA2D
100
AcDbLine
370
9
 62
7
  6
_DOT
 10
2.566859221
 20
4.598039655
 30
0
 11
2.566859221
 21
4.6286038172
 31
0
  0
LINE
  5
1B5
100
AcDbEntity
  8
SEMA2D
100
AcDbLine
370
9
 62
7
  6
_DOT
 10
2.6118305311
 20
4.598039655
 30
0
 11
2.6118305311
 21
4.617182855
 31
0
  0
LINE
  5
1B6
100
AcDbEntity
  8
SEMA2D
100
AcDbLine
370
9
 62
7
  6
_DOT
 10
2.7818305311
 20
4.598039655
 30
0
 11
2.7818305311
 21
4.7257498172
 31
0
  0
LINE
  5
1B7
100
AcDbEntity
  8
SEMA2D
100
AcDbLine
370
9
 62
7
  6
_DOT
 10
2.8219269712
 20
4.5613305952
 30
0
 11
2.8219269712
 21
4.5235911117
 31
0
  0
LINE
  5
1B8
100
AcDbEntity
  8
SEMA2D
100
AcDbLine
370
9
 62
7
  6
_DOT
 10
2.6939217776
 20
4.5613305952
 30
0
 11
2.6939217776
 21
4.502706653
 31
0
  0
LINE
  5
1B9
100
AcDbEntity
  8
SEMA2D
100
AcDbLine
370
9
 62
7
  6
_DOT
 10
2.339552325
 20
4.5554217915
 30
0
 11
2.339552325
 21
4.5354217915
 31
0
  0
LINE
  5
1BA
100
AcDbEntity
  8
SEMA2D
100
AcDbLine
370
9
 62
7
  6
_DOT
 10
2.355552325
 20
4.5554217915
 30
0
 11
2.355552325
 21
4.5316236117
 31
0
  0
LINE
  5
1BB
100
AcDbEntity
  8
SEMA2D
100
AcDbLine
370
9
 62
7
  6
_DOT
 10
2.281202325
 20
4.5443811117
 30
0
 11
2.311202325
 21
4.5443811117
 31
0
  0
LINE
  5
1BC
100
AcDbEntity
  8
SEMA2D
100
AcDbLine
370
9
 62
7
  6
_DOT
 10
2.315
 20
4.071
 30
0
 11
2.3025250463
 21
4.1419110396
 31
0
  0
LINE
  5
1BD
100
AcDbEntity
  8
SEMA2D
100
AcDbLine
370
9
 62
7
  6
_DOT
 10
2.4509128258
 20
4.0949103279
 30
0
 11
2.443982296
 21
4.1343053499
 31
0
  0
LINE
  5
1BE
100
AcDbEntity
  8
SEMA2D
100
AcDbLine
370
9
 62
7
  6
_DOT
 10
2.344500714
 20
4.099543088
 30
0
 11
2.3394197624
 21
4.128424603
 31
0
  0
LINE
  5
1BF
100
AcDbEntity
  8
SEMA2D
100
AcDbLine
370
9
 62
7
  6
_DOT
 10
2.4286053915
 20
4.5322337585
 30
0
 11
2.3987982773
 21
4.5288372977
 31
0
  0
LINE
  5
1C0
100
AcDbEntity
  8
SEMA2D
100
AcDbLine
370
9
 62
7
  6
_DOT
 10
2.4735644357
 20
4.1376761753
 30
0
 11
2.443982296
 21
4.1343053499
 31
0
  0
ENDSEC
  0
SECTION
  2
OBJECTS
  0
DICTIONARY
  5
1D1
100
AcDbDictionary
  3
ACAD_GROUP
350
1D2
  3
ACAD_MATERIAL
350
1D3
  3
ACAD_WIPEOUT_VARS
350
1D4
  3
ACAD_MLINESTYLE
350
1D5
  3
ACAD_LAYOUT
350
1D6
  0
DICTIONARY
  5
1D2
330
1D1
100
AcDbDictionary
  0
DICTIONARY
  5
1D3
330
1D1
100
AcDbDictionary
  0
WIPEOUTVARIABLES
  5
1D4
330
1D1
100
AcDbWipeoutVariables
 70
1
  0
DICTIONARY
  5
1D5
330
1D1
100
AcDbDictionary
  3
STANDARD
350
1D7
  0
MLINESTYLE
  5
1D7
100
AcDbMlineStyle
  2
STANDARD
 70
0
  3

 62
256
 51
90
 52
90
 71
2
 49
0.5
 62
256
  6
ByLayer
 49
-0.5
 62
256
  6
ByLayer
  0
DICTIONARY
  5
1D6
100
AcDbDictionary
281
1
  3
Model
350
1C1
  0
LAYOUT
  5
1C1
102
{ACAD_REACTORS
330
1D6
102
}
330
1D6
100
AcDbPlotSettings
  1

  2
none_device
  4

  6

 40
0
 41
0
 42
0
 43
0
 44
0
 45
0
 46
0
 47
0
 48
0
 49
0
 70
1712
 72
1
 73
0
 74
5
 75
16
 76
0
 77
0
 78
100
140
0
141
0
142
1
143
1
147
1
148
0
149
0
100
AcDbLayout
  1
Model
 70
1
 71
1
 10
2.272802325
 20
4.0627270454116
 11
2.8662164677
 21
4.74653981732116
 12
0
 22
0
 32
0
 14
2.272802325
 24
4.0627270454116
 34
0
 15
2.8662164677
 25
4.74653981732116
 35
0
146
0
 13
0
 23
0
 33
0
 16
1
 26
0
 36
0
 17
0
 27
1
 37
0
 76
0
330
2A
  0
DICTIONARY
  5
1D8
100
AcDbDictionary
280
1
  3
XINFO
360
1D9
  0
XRECORD
  5
1D9
102
{ACAD_REACTORS
330
1D8
102
}
330
1D8
100
AcDbXrecord
280
0
310
0000000002001400
311
101D229AAACBA2AB
  0
ENDSEC
  0
EOF
