999
Created by Soft Gold Ltd. www.cadsofttools.com
999

  0
SECTION
  2
HEADER
  9
$ACADVER
  1
AC1021
  9
$DWGCODEPAGE
  3
ANSI_1252
  9
$CLAYER
  8
0
  9
$CELTYPE
  6
BYLAYER
  9
$CELTSCALE
 40
1
  9
$CELWEIGHT
370
-1
  9
$DIMALT
 70
0
  9
$DIMALTF
 40
1
  9
$DIMPOST
  1

  9
$DIMAPOST
  1

  9
$DIMSCALE
 40
1
  9
$DIMASZ
 40
0.18
  9
$DIMCLRD
 70
0
  9
$DIMCLRE
 70
0
  9
$DIMCLRT
 70
0
  9
$DIMEXE
 40
0.18
  9
$DIMEXO
 40
0.0625
  9
$DIMGAP
 40
0.0625
  9
$DIMLFAC
 40
1
  9
$DIMDEC
 70
4
  9
$DIMTAD
 70
0
  9
$DIMCEN
 40
0.09
  9
$DIMTIH
 70
1
  9
$DIMTIX
 70
0
  9
$DIMTOH
 70
1
  9
$DIMSE1
 70
0
  9
$DIMSE2
 70
0
  9
$DIMSD1
 70
0
  9
$DIMSD2
 70
0
  9
$DIMLWD
 70
-1
  9
$DIMLWE
 70
-1
  9
$DIMSAH
 70
0
  9
$DIMBLK
  1

  9
$DIMBLK1
  1

  9
$DIMBLK2
  1

  9
$DIMLDRBLK
  1

  9
$DIMSTYLE
  2
STANDARD
  9
$DIMTP
 40
0
  9
$DIMTM
 40
0
  9
$DIMTXT
 40
0.18
  9
$DIMLUNIT
 70
2
  9
$DIMDSEP
 70
46
  9
$DIMTXSTY
  7
STANDARD
  9
$TEXTSIZE
 40
0.18
  9
$TEXTSTYLE
  7
STANDARD
  9
$HANDSEED
  5
000000000000020C
  9
$FILLETRAD
 40
0.5
  9
$INSUNITS
 70
4
  9
$LIMMIN
 10
2.95656948597061
 20
4.51946359551402
  9
$LIMMAX
 10
3.70687462626452
 20
5.37636931528858
  9
$FILLMODE
 70
1
  9
$LTSCALE
 40
1
  9
$MEASUREMENT
 70
0
  9
$ATTMODE
 70
1
  9
$PDMODE
 70
0
  9
$PDSIZE
 40
0
  9
$TILEMODE
 70
1
  9
$UCSORG
 10
0
 20
0
 30
0
  9
$UCSXDIR
 10
1
 20
0
 30
0
  9
$UCSYDIR
 10
0
 20
1
 30
0
  9
$INSBASE
 10
0
 20
0
 30
0
  9
$XCLIPFRAME
290
1
  9
$DIMASSOC
280
2
  9
$TDCREATE
 40
2459012.61471248
  9
$TDINDWG
 40
1.50462962962963E-6
  9
$TDUPDATE
 40
2459012.61471398
  0
ENDSEC
  0
SECTION
  2
CLASSES
  0
CLASS
  1
IMAGE
  2
AcDbRasterImage
  3
ISM
 90
2175
 91
1
280
0
281
1
  0
CLASS
  1
IMAGEDEF
  2
AcDbRasterImageDef
  3
ISM
 90
0
 91
1
280
0
281
0
  0
CLASS
  1
WIPEOUT
  2
AcDbWipeout
  3
"WipeOut"
 90
2175
 91
1
280
0
281
1
  0
CLASS
  1
WIPEOUTVARIABLES
  2
AcDbWipeoutVariables
  3
"WipeOut"
 90
0
 91
1
280
0
281
0
  0
CLASS
  1
MPOLYGON
  2
AcDbMPolygon
  3
"AcMPolygonObj15"
 90
3071
 91
1
280
0
281
1
  0
ENDSEC
  0
SECTION
  2
TABLES
  0
TABLE
  2
APPID
  5
1F4
100
AcDbSymbolTable
  0
APPID
  5
1F5
100
AcDbSymbolTableRecord
100
AcDbRegAppTableRecord
  2
ACAD
 70
0
  0
APPID
  5
12
100
AcDbSymbolTableRecord
100
AcDbRegAppTableRecord
  2
CSTINVENTORY
 70
0
  0
APPID
  5
1F6
100
AcDbSymbolTableRecord
100
AcDbRegAppTableRecord
  2
PE_URL
 70
0
  0
ENDTAB
  0
TABLE
  2
BLOCK_RECORD
  5
1F7
100
AcDbSymbolTable
  0
BLOCK_RECORD
  5
2A
100
AcDbSymbolTableRecord
100
AcDbBlockTableRecord
  2
*MODEL_SPACE
  0
BLOCK_RECORD
  5
1F8
100
AcDbSymbolTableRecord
100
AcDbBlockTableRecord
  2
*PAPER_SPACE
  0
BLOCK_RECORD
  5
10
100
AcDbSymbolTableRecord
100
AcDbBlockTableRecord
  2
_CLOSEDFILLED
  0
ENDTAB
  0
TABLE
  2
STYLE
  5
3
100
AcDbSymbolTable
  0
STYLE
  5
A
100
AcDbSymbolTableRecord
100
AcDbTextStyleTableRecord
  2
STANDARD
 70
0
 40
0
 41
1
 50
0
 71
0
 42
2.5
  3
txt
  4

1001
ACAD
1000
txt
1071
0
  0
ENDTAB
  0
TABLE
  2
LTYPE
  5
1
100
AcDbSymbolTable
  0
LTYPE
  5
9
100
AcDbSymbolTableRecord
100
AcDbLinetypeTableRecord
  2
CONTINUOUS
 70
0
  3

 72
65
 73
0
 40
0
  0
LTYPE
  5
7
100
AcDbSymbolTableRecord
100
AcDbLinetypeTableRecord
  2
BYLAYER
 70
0
  3

 72
65
 73
0
 40
0
  0
LTYPE
  5
8
100
AcDbSymbolTableRecord
100
AcDbLinetypeTableRecord
  2
BYBLOCK
 70
0
  3

 72
65
 73
0
 40
0
  0
LTYPE
  5
13
100
AcDbSymbolTableRecord
100
AcDbLinetypeTableRecord
  2
_SOLID
 70
0
  3
_.
 72
65
 73
2
 40
5
 49
5
 74
0
 49
0
 74
0
  0
LTYPE
  5
14
100
AcDbSymbolTableRecord
100
AcDbLinetypeTableRecord
  2
_DASH
 70
0
  3
_ 
 72
65
 73
2
 40
7
 49
5
 74
0
 49
-2
 74
0
  0
LTYPE
  5
15
100
AcDbSymbolTableRecord
100
AcDbLinetypeTableRecord
  2
_DOT
 70
0
  3
_ 
 72
65
 73
2
 40
4
 49
2
 74
0
 49
-2
 74
0
  0
LTYPE
  5
16
100
AcDbSymbolTableRecord
100
AcDbLinetypeTableRecord
  2
_DASHDOT
 70
0
  3
_ _ 
 72
65
 73
4
 40
11
 49
5
 74
0
 49
-2
 74
0
 49
2
 74
0
 49
-2
 74
0
  0
LTYPE
  5
17
100
AcDbSymbolTableRecord
100
AcDbLinetypeTableRecord
  2
_DASHDOTDOT
 70
0
  3
_ _ _ 
 72
65
 73
6
 40
15
 49
5
 74
0
 49
-2
 74
0
 49
2
 74
0
 49
-2
 74
0
 49
2
 74
0
 49
-2
 74
0
  0
LTYPE
  5
18
100
AcDbSymbolTableRecord
100
AcDbLinetypeTableRecord
  2
ISO128-20-02
 70
0
  3
_ 
 72
65
 73
2
 40
5
 49
4
 74
0
 49
-1
 74
0
  0
LTYPE
  5
19
100
AcDbSymbolTableRecord
100
AcDbLinetypeTableRecord
  2
ISO128-20-03
 70
0
  3
_ 
 72
65
 73
2
 40
10
 49
4
 74
0
 49
-6
 74
0
  0
LTYPE
  5
1A
100
AcDbSymbolTableRecord
100
AcDbLinetypeTableRecord
  2
ISO128-20-04
 70
0
  3
_ . 
 72
65
 73
4
 40
10
 49
8
 74
0
 49
-1
 74
0
 49
0
 74
0
 49
-1
 74
0
  0
LTYPE
  5
1B
100
AcDbSymbolTableRecord
100
AcDbLinetypeTableRecord
  2
ISO128-20-05
 70
0
  3
_ . . 
 72
65
 73
6
 40
11
 49
8
 74
0
 49
-1
 74
0
 49
0
 74
0
 49
-1
 74
0
 49
0
 74
0
 49
-1
 74
0
  0
LTYPE
  5
1C
100
AcDbSymbolTableRecord
100
AcDbLinetypeTableRecord
  2
ISO128-20-06
 70
0
  3
_ . . . 
 72
65
 73
8
 40
12
 49
8
 74
0
 49
-1
 74
0
 49
0
 74
0
 49
-1
 74
0
 49
0
 74
0
 49
-1
 74
0
 49
0
 74
0
 49
-1
 74
0
  0
LTYPE
  5
1D
100
AcDbSymbolTableRecord
100
AcDbLinetypeTableRecord
  2
ISO128-20-07
 70
0
  3
. 
 72
65
 73
2
 40
1
 49
0
 74
0
 49
-1
 74
0
  0
LTYPE
  5
1E
100
AcDbSymbolTableRecord
100
AcDbLinetypeTableRecord
  2
ISO128-20-08
 70
0
  3
_ _ 
 72
65
 73
4
 40
12
 49
8
 74
0
 49
-1
 74
0
 49
2
 74
0
 49
-1
 74
0
  0
LTYPE
  5
1F
100
AcDbSymbolTableRecord
100
AcDbLinetypeTableRecord
  2
ISO128-20-09
 70
0
  3
_ _ _ 
 72
65
 73
6
 40
15
 49
8
 74
0
 49
-1
 74
0
 49
2
 74
0
 49
-1
 74
0
 49
2
 74
0
 49
-1
 74
0
  0
LTYPE
  5
20
100
AcDbSymbolTableRecord
100
AcDbLinetypeTableRecord
  2
ISO128-20-10
 70
0
  3
_ . 
 72
65
 73
4
 40
10
 49
8
 74
0
 49
-1
 74
0
 49
0
 74
0
 49
-1
 74
0
  0
LTYPE
  5
21
100
AcDbSymbolTableRecord
100
AcDbLinetypeTableRecord
  2
ISO128-20-11
 70
0
  3
_ _ . 
 72
65
 73
6
 40
11
 49
4
 74
0
 49
-1
 74
0
 49
4
 74
0
 49
-1
 74
0
 49
0
 74
0
 49
-1
 74
0
  0
LTYPE
  5
22
100
AcDbSymbolTableRecord
100
AcDbLinetypeTableRecord
  2
ISO128-20-12
 70
0
  3
_ . . 
 72
65
 73
6
 40
7
 49
4
 74
0
 49
-1
 74
0
 49
0
 74
0
 49
-1
 74
0
 49
0
 74
0
 49
-1
 74
0
  0
LTYPE
  5
23
100
AcDbSymbolTableRecord
100
AcDbLinetypeTableRecord
  2
ISO128-20-13
 70
0
  3
_ _ . . 
 72
65
 73
8
 40
12
 49
4
 74
0
 49
-1
 74
0
 49
4
 74
0
 49
-1
 74
0
 49
0
 74
0
 49
-1
 74
0
 49
0
 74
0
 49
-1
 74
0
  0
LTYPE
  5
24
100
AcDbSymbolTableRecord
100
AcDbLinetypeTableRecord
  2
ISO128-20-14
 70
0
  3
_ . . . 
 72
65
 73
8
 40
8
 49
4
 74
0
 49
-1
 74
0
 49
0
 74
0
 49
-1
 74
0
 49
0
 74
0
 49
-1
 74
0
 49
0
 74
0
 49
-1
 74
0
  0
LTYPE
  5
25
100
AcDbSymbolTableRecord
100
AcDbLinetypeTableRecord
  2
ISO128-20-15
 70
0
  3
_ _ . . . 
 72
65
 73
10
 40
13
 49
4
 74
0
 49
-1
 74
0
 49
4
 74
0
 49
-1
 74
0
 49
0
 74
0
 49
-1
 74
0
 49
0
 74
0
 49
-1
 74
0
 49
0
 74
0
 49
-1
 74
0
  0
LTYPE
  5
26
100
AcDbSymbolTableRecord
100
AcDbLinetypeTableRecord
  2
kurzgestrichelt
 70
0
  3
_ 
 72
65
 73
2
 40
3
 49
2
 74
0
 49
-1
 74
0
  0
ENDTAB
  0
TABLE
  2
LAYER
  5
2
100
AcDbSymbolTable
  0
LAYER
  5
E
100
AcDbSymbolTableRecord
100
AcDbLayerTableRecord
  2
0
 70
0
 62
7
  6
CONTINUOUS
290
1
370
-3
390
0
  0
LAYER
  5
27
100
AcDbSymbolTableRecord
100
AcDbLayerTableRecord
  2
SEMA2D
 70
0
 62
7
290
1
370
-3
390
0
  0
LAYER
  5
2B
100
AcDbSymbolTableRecord
100
AcDbLayerTableRecord
  2
SEMATEXT
 70
0
 62
7
290
1
370
-3
390
0
  0
ENDTAB
  0
TABLE
  2
VPORT
  5
1F9
100
AcDbSymbolTable
  0
VPORT
  5
1FB
100
AcDbSymbolTableRecord
100
AcDbViewportTableRecord
  2
*ACTIVE
 70
0
 10
0
 20
0
 11
1
 21
1
 12
3.33172205611756
 22
4.9479164554013
 32
0
 13
0
 23
0
 14
1
 24
1
 15
1
 25
1
 16
0
 26
0
 36
1
 17
0
 27
0
 37
0
 40
0.685524575819649
 41
0.875598240249004
 42
50
 43
0
 44
0
 50
0
 51
0
 71
0
 72
100
 73
1
 74
1
 75
0
 76
0
 77
0
 78
0
  0
ENDTAB
  0
TABLE
  2
VIEW
  5
1FC
100
AcDbSymbolTable
  0
ENDTAB
  0
TABLE
  2
UCS
  5
1FD
100
AcDbSymbolTable
  0
ENDTAB
  0
TABLE
  2
DIMSTYLE
  5
4
100
AcDbSymbolTable
 70
1
100
AcDbDimStyleTable
 71
0
  0
DIMSTYLE
105
B
100
AcDbSymbolTableRecord
100
AcDbDimStyleTableRecord
  2
STANDARD
 70
0
  3

 40
1
 41
0.18
 42
0.0625
 44
0.18
 47
0
 48
0
 73
1
 74
1
 75
0
 76
0
 77
0
140
0.18
141
0.09
144
1
147
0.0625
173
0
174
0
176
0
177
0
178
0
277
2
278
46
281
0
282
0
271
4
340
A
371
-1
372
-1
  0
ENDTAB
  0
ENDSEC
  0
SECTION
  2
BLOCKS
  0
BLOCK
  5
1FE
100
AcDbEntity
  8
0
100
AcDbBlockBegin
  2
*MODEL_SPACE
 70
0
 10
0
 20
0
  0
ENDBLK
  5
1FF
100
AcDbEntity
  8
0
100
AcDbBlockEnd
  0
BLOCK
  5
200
100
AcDbEntity
  8
0
100
AcDbBlockBegin
  2
*PAPER_SPACE
 70
0
 10
0
 20
0
  0
ENDBLK
  5
201
100
AcDbEntity
  8
0
100
AcDbBlockEnd
  0
BLOCK
  5
F
100
AcDbEntity
  8
0
100
AcDbBlockBegin
  2
_CLOSEDFILLED
 70
0
 10
0
 20
0
 30
0
  3
_CLOSEDFILLED
  1

  0
SOLID
  5
C
100
AcDbEntity
  8
0
100
AcDbTrace
370
-2
 62
0
 10
-1
 20
0.166666666666667
 30
0
 11
0
 21
0
 31
0
 12
-1
 22
0.166666666666667
 32
0
 13
-1
 23
-0.166666666666667
 33
0
  0
LINE
  5
D
100
AcDbEntity
  8
0
100
AcDbLine
370
-2
 62
0
 10
-1
 20
0
 30
0
 11
-2
 21
0
 31
0
  0
ENDBLK
  5
202
100
AcDbEntity
  8
0
100
AcDbBlockEnd
  0
ENDSEC
  0
SECTION
  2
ENTITIES
  0
LINE
  5
28
100
AcDbEntity
  8
SEMA2D
100
AcDbLine
370
9
 62
7
  6
_SOLID
 10
3.09
 20
5.1423961433
 30
0
 11
3.300922841
 21
5.1423961433
 31
0
  0
MTEXT
  5
2C
100
AcDbEntity
  8
SEMATEXT
100
AcDbMText
370
9
 62
7
 10
3.18436881989024
 20
5.16035672008049
 30
0
 40
0.010476
  1
{\fHelveticaNeueLT Com 55 Roman;211}
 50
0
 41
0
  7
STANDARD
 71
0
 73
1
 44
1
  0
LINE
  5
31
100
AcDbEntity
  8
SEMA2D
100
AcDbLine
370
9
 62
7
  6
_SOLID
 10
3.09
 20
5.1423961433
 30
0
 11
3.09
 21
5.1507961433
 31
0
  0
LINE
  5
32
100
AcDbEntity
  8
SEMA2D
100
AcDbLine
370
9
 62
7
  6
_SOLID
 10
3.09
 20
5.1423961433
 30
0
 11
3.09
 21
5.1339961433
 31
0
  0
LINE
  5
33
100
AcDbEntity
  8
SEMA2D
100
AcDbLine
370
9
 62
7
  6
_SOLID
 10
3.300922841
 20
5.1423961433
 30
0
 11
3.300922841
 21
5.1507961433
 31
0
  0
LINE
  5
34
100
AcDbEntity
  8
SEMA2D
100
AcDbLine
370
9
 62
7
  6
_SOLID
 10
3.300922841
 20
5.1423961433
 30
0
 11
3.300922841
 21
5.1339961433
 31
0
  0
LINE
  5
35
100
AcDbEntity
  8
SEMA2D
100
AcDbLine
370
9
 62
7
  6
_SOLID
 10
3.300922841
 20
5.1423961433
 30
0
 11
3.3459538877
 21
5.1423961433
 31
0
  0
MTEXT
  5
36
100
AcDbEntity
  8
SEMATEXT
100
AcDbMText
370
9
 62
7
 10
3.31630512545627
 20
5.16035672008049
 30
0
 40
0.010476
  1
{\fHelveticaNeueLT Com 55 Roman;45}
 50
0
 41
0
  7
STANDARD
 71
0
 73
1
 44
1
  0
LINE
  5
3B
100
AcDbEntity
  8
SEMA2D
100
AcDbLine
370
9
 62
7
  6
_SOLID
 10
3.300922841
 20
5.1423961433
 30
0
 11
3.300922841
 21
5.1507961433
 31
0
  0
LINE
  5
3C
100
AcDbEntity
  8
SEMA2D
100
AcDbLine
370
9
 62
7
  6
_SOLID
 10
3.300922841
 20
5.1423961433
 30
0
 11
3.300922841
 21
5.1339961433
 31
0
  0
LINE
  5
3D
100
AcDbEntity
  8
SEMA2D
100
AcDbLine
370
9
 62
7
  6
_SOLID
 10
3.3459538877
 20
5.1423961433
 30
0
 11
3.3459538877
 21
5.1507961433
 31
0
  0
LINE
  5
3E
100
AcDbEntity
  8
SEMA2D
100
AcDbLine
370
9
 62
7
  6
_SOLID
 10
3.3459538877
 20
5.1423961433
 30
0
 11
3.3459538877
 21
5.1339961433
 31
0
  0
LINE
  5
3F
100
AcDbEntity
  8
SEMA2D
100
AcDbLine
370
9
 62
7
  6
_SOLID
 10
3.04
 20
5.0907376
 30
0
 11
3.04
 21
4.66
 31
0
  0
MTEXT
  5
40
100
AcDbEntity
  8
SEMATEXT
100
AcDbMText
370
9
 62
7
 10
3.0419243475122
 20
4.86427619939024
 30
0
 40
0.010476
  1
{\fHelveticaNeueLT Com 55 Roman;431}
 50
90
 41
0
  7
STANDARD
 71
0
 73
1
 44
1
  0
LINE
  5
45
100
AcDbEntity
  8
SEMA2D
100
AcDbLine
370
9
 62
7
  6
_SOLID
 10
3.04
 20
5.0907376
 30
0
 11
3.0484
 21
5.0907376
 31
0
  0
LINE
  5
46
100
AcDbEntity
  8
SEMA2D
100
AcDbLine
370
9
 62
7
  6
_SOLID
 10
3.04
 20
5.0907376
 30
0
 11
3.0316
 21
5.0907376
 31
0
  0
LINE
  5
47
100
AcDbEntity
  8
SEMA2D
100
AcDbLine
370
9
 62
7
  6
_SOLID
 10
3.04
 20
4.66
 30
0
 11
3.0484
 21
4.66
 31
0
  0
LINE
  5
48
100
AcDbEntity
  8
SEMA2D
100
AcDbLine
370
9
 62
7
  6
_SOLID
 10
3.04
 20
4.66
 30
0
 11
3.0316
 21
4.66
 31
0
  0
LINE
  5
49
100
AcDbEntity
  8
SEMA2D
100
AcDbLine
370
9
 62
7
  6
_SOLID
 10
3.3578737738
 20
4.62
 30
0
 11
3.09
 21
4.62
 31
0
  0
MTEXT
  5
4A
100
AcDbEntity
  8
SEMATEXT
100
AcDbMText
370
9
 62
7
 10
3.21280144744007
 20
4.63603622926829
 30
0
 40
0.010476
  1
{\fHelveticaNeueLT Com 55 Roman;268}
 50
0
 41
0
  7
STANDARD
 71
0
 73
1
 44
1
  0
LINE
  5
4F
100
AcDbEntity
  8
SEMA2D
100
AcDbLine
370
9
 62
7
  6
_SOLID
 10
3.3578737738
 20
4.62
 30
0
 11
3.3578737738
 21
4.6116
 31
0
  0
LINE
  5
50
100
AcDbEntity
  8
SEMA2D
100
AcDbLine
370
9
 62
7
  6
_SOLID
 10
3.3578737738
 20
4.62
 30
0
 11
3.3578737738
 21
4.6284
 31
0
  0
LINE
  5
51
100
AcDbEntity
  8
SEMA2D
100
AcDbLine
370
9
 62
7
  6
_SOLID
 10
3.09
 20
4.62
 30
0
 11
3.09
 21
4.6116
 31
0
  0
LINE
  5
52
100
AcDbEntity
  8
SEMA2D
100
AcDbLine
370
9
 62
7
  6
_SOLID
 10
3.09
 20
4.62
 30
0
 11
3.09
 21
4.6284
 31
0
  0
LINE
  5
53
100
AcDbEntity
  8
SEMA2D
100
AcDbLine
370
9
 62
7
  6
_SOLID
 10
3.5055717665
 20
5.1156870835
 30
0
 11
3.6065717665
 21
5.1156870835
 31
0
  0
MTEXT
  5
54
100
AcDbEntity
  8
SEMATEXT
100
AcDbMText
370
9
 62
7
 10
3.54497916589024
 20
5.13364766028049
 30
0
 40
0.010476
  1
{\fHelveticaNeueLT Com 55 Roman;101}
 50
0
 41
0
  7
STANDARD
 71
0
 73
1
 44
1
  0
LINE
  5
59
100
AcDbEntity
  8
SEMA2D
100
AcDbLine
370
9
 62
7
  6
_SOLID
 10
3.5055717665
 20
5.1156870835
 30
0
 11
3.5055717665
 21
5.1240870835
 31
0
  0
LINE
  5
5A
100
AcDbEntity
  8
SEMA2D
100
AcDbLine
370
9
 62
7
  6
_SOLID
 10
3.5055717665
 20
5.1156870835
 30
0
 11
3.5055717665
 21
5.1072870835
 31
0
  0
LINE
  5
5B
100
AcDbEntity
  8
SEMA2D
100
AcDbLine
370
9
 62
7
  6
_SOLID
 10
3.6065717665
 20
5.1156870835
 30
0
 11
3.6065717665
 21
5.1240870835
 31
0
  0
LINE
  5
5C
100
AcDbEntity
  8
SEMA2D
100
AcDbLine
370
9
 62
7
  6
_SOLID
 10
3.6065717665
 20
5.1156870835
 30
0
 11
3.6065717665
 21
5.1072870835
 31
0
  0
LINE
  5
5D
100
AcDbEntity
  8
SEMA2D
100
AcDbLine
370
9
 62
7
  6
_SOLID
 10
3.5648855049
 20
5.0927782798
 30
0
 11
3.5488855049
 21
5.0927782798
 31
0
  0
MTEXT
  5
5E
100
AcDbEntity
  8
SEMATEXT
100
AcDbMText
370
9
 62
7
 10
3.54968737402021
 20
5.09085393228781
 30
0
 40
0.010476
  1
{\fHelveticaNeueLT Com 55 Roman;16}
 50
0
 41
0
  7
STANDARD
 71
0
 73
1
 44
1
  0
LINE
  5
63
100
AcDbEntity
  8
SEMA2D
100
AcDbLine
370
9
 62
7
  6
_SOLID
 10
3.5648855049
 20
5.0927782798
 30
0
 11
3.5648855049
 21
5.0843782798
 31
0
  0
LINE
  5
64
100
AcDbEntity
  8
SEMA2D
100
AcDbLine
370
9
 62
7
  6
_SOLID
 10
3.5648855049
 20
5.0927782798
 30
0
 11
3.5648855049
 21
5.1011782798
 31
0
  0
LINE
  5
65
100
AcDbEntity
  8
SEMA2D
100
AcDbLine
370
9
 62
7
  6
_SOLID
 10
3.5488855049
 20
5.0927782798
 30
0
 11
3.5488855049
 21
5.0843782798
 31
0
  0
LINE
  5
66
100
AcDbEntity
  8
SEMA2D
100
AcDbLine
370
9
 62
7
  6
_SOLID
 10
3.5488855049
 20
5.0927782798
 30
0
 11
3.5488855049
 21
5.1011782798
 31
0
  0
LINE
  5
67
100
AcDbEntity
  8
SEMA2D
100
AcDbLine
370
9
 62
7
  6
_SOLID
 10
3.45330421152481
 20
4.63768058681243
 30
0
 11
3.58952537812481
 21
4.61342407991243
 31
0
  0
MTEXT
  5
68
100
AcDbEntity
  8
SEMATEXT
100
AcDbMText
370
9
 62
7
 10
3.51360046420398
 20
4.6451869091715
 30
0
 40
0.010476
  1
{\fHelveticaNeueLT Com 55 Roman;138}
 50
349.903334221271
 41
0
  7
STANDARD
 71
0
 73
1
 44
1
  0
LINE
  5
6D
100
AcDbEntity
  8
SEMA2D
100
AcDbLine
370
9
 62
7
  6
_SOLID
 10
3.45330421152481
 20
4.63768058681243
 30
0
 11
3.45477681077432
 21
4.6459504992334
 31
0
  0
LINE
  5
6E
100
AcDbEntity
  8
SEMA2D
100
AcDbLine
370
9
 62
7
  6
_SOLID
 10
3.45330421152481
 20
4.63768058681243
 30
0
 11
3.45183161227531
 21
4.62941067439147
 31
0
  0
LINE
  5
6F
100
AcDbEntity
  8
SEMA2D
100
AcDbLine
370
9
 62
7
  6
_SOLID
 10
3.58952537812481
 20
4.61342407991243
 30
0
 11
3.59099797737431
 21
4.6216939923334
 31
0
  0
LINE
  5
70
100
AcDbEntity
  8
SEMA2D
100
AcDbLine
370
9
 62
7
  6
_SOLID
 10
3.58952537812481
 20
4.61342407991243
 30
0
 11
3.58805277887531
 21
4.60515416749147
 31
0
  0
LINE
  5
71
100
AcDbEntity
  8
SEMA2D
100
AcDbLine
370
9
 62
7
  6
_SOLID
 10
3.45770724019873
 20
4.66028630101828
 30
0
 11
3.56023566089873
 21
4.64285291481828
 31
0
  0
MTEXT
  5
72
100
AcDbEntity
  8
SEMATEXT
100
AcDbMText
370
9
 62
7
 10
3.50100428372159
 20
4.67114266549756
 30
0
 40
0.010476
  1
{\fHelveticaNeueLT Com 55 Roman;104}
 50
350.350024034822
 41
0
  7
STANDARD
 71
0
 73
1
 44
1
  0
LINE
  5
77
100
AcDbEntity
  8
SEMA2D
100
AcDbLine
370
9
 62
7
  6
_SOLID
 10
3.45770724019873
 20
4.66028630101828
 30
0
 11
3.45911532139144
 21
4.66856744268804
 31
0
  0
LINE
  5
78
100
AcDbEntity
  8
SEMA2D
100
AcDbLine
370
9
 62
7
  6
_SOLID
 10
3.45770724019873
 20
4.66028630101828
 30
0
 11
3.45629915900602
 21
4.65200515934851
 31
0
  0
LINE
  5
79
100
AcDbEntity
  8
SEMA2D
100
AcDbLine
370
9
 62
7
  6
_SOLID
 10
3.56023566089873
 20
4.64285291481828
 30
0
 11
3.56164374209144
 21
4.65113405648804
 31
0
  0
LINE
  5
7A
100
AcDbEntity
  8
SEMA2D
100
AcDbLine
370
9
 62
7
  6
_SOLID
 10
3.56023566089873
 20
4.64285291481828
 30
0
 11
3.55882757970602
 21
4.63457177314851
 31
0
  0
LINE
  5
7B
100
AcDbEntity
  8
SEMA2D
100
AcDbLine
370
9
 62
7
  6
_SOLID
 10
3.6192728675
 20
5.0887376
 30
0
 11
3.6192728675
 21
5.0607376
 31
0
  0
MTEXT
  5
7C
100
AcDbEntity
  8
SEMATEXT
100
AcDbMText
370
9
 62
7
 10
3.6211972150122
 20
5.06756380361498
 30
0
 40
0.010476
  1
{\fHelveticaNeueLT Com 55 Roman;28}
 50
90
 41
0
  7
STANDARD
 71
0
 73
1
 44
1
  0
LINE
  5
81
100
AcDbEntity
  8
SEMA2D
100
AcDbLine
370
9
 62
7
  6
_SOLID
 10
3.6192728675
 20
5.0887376
 30
0
 11
3.6276728675
 21
5.0887376
 31
0
  0
LINE
  5
82
100
AcDbEntity
  8
SEMA2D
100
AcDbLine
370
9
 62
7
  6
_SOLID
 10
3.6192728675
 20
5.0887376
 30
0
 11
3.6108728675
 21
5.0887376
 31
0
  0
LINE
  5
83
100
AcDbEntity
  8
SEMA2D
100
AcDbLine
370
9
 62
7
  6
_SOLID
 10
3.6192728675
 20
5.0607376
 30
0
 11
3.6276728675
 21
5.0607376
 31
0
  0
LINE
  5
84
100
AcDbEntity
  8
SEMA2D
100
AcDbLine
370
9
 62
7
  6
_SOLID
 10
3.6192728675
 20
5.0607376
 30
0
 11
3.6108728675
 21
5.0607376
 31
0
  0
LINE
  5
85
100
AcDbEntity
  8
SEMA2D
100
AcDbLine
370
9
 62
7
  6
_SOLID
 10
3.50731163289703
 20
5.06367705193177
 30
0
 11
3.56662537129703
 21
5.07398650823177
 31
0
  0
MTEXT
  5
86
100
AcDbEntity
  8
SEMATEXT
100
AcDbMText
370
9
 62
7
 10
3.52990699635847
 20
5.08583426264435
 30
0
 40
0.010476
  1
{\fHelveticaNeueLT Com 55 Roman;6}
 50
9.86020319908699
 41
0
  7
STANDARD
 71
0
 73
1
 44
1
  0
LINE
  5
8B
100
AcDbEntity
  8
SEMA2D
100
AcDbLine
370
9
 62
7
  6
_SOLID
 10
3.50731163289703
 20
5.06367705193177
 30
0
 11
3.50587317643847
 21
5.07195297139832
 31
0
  0
LINE
  5
8C
100
AcDbEntity
  8
SEMA2D
100
AcDbLine
370
9
 62
7
  6
_SOLID
 10
3.50731163289703
 20
5.06367705193177
 30
0
 11
3.50875008935558
 21
5.05540113246522
 31
0
  0
LINE
  5
8D
100
AcDbEntity
  8
SEMA2D
100
AcDbLine
370
9
 62
7
  6
_SOLID
 10
3.56662537129703
 20
5.07398650823177
 30
0
 11
3.56518691483847
 21
5.08226242769832
 31
0
  0
LINE
  5
8E
100
AcDbEntity
  8
SEMA2D
100
AcDbLine
370
9
 62
7
  6
_SOLID
 10
3.56662537129703
 20
5.07398650823177
 30
0
 11
3.56806382775558
 21
5.06571058876522
 31
0
  0
LINE
  5
8F
100
AcDbEntity
  8
SEMA2D
100
AcDbLine
370
9
 62
7
  6
_SOLID
 10
3.48073044233422
 20
5.07649930891022
 30
0
 11
3.43605086163422
 21
4.68182968021022
 31
0
  0
MTEXT
  5
90
100
AcDbEntity
  8
SEMATEXT
100
AcDbMText
370
9
 62
7
 10
3.45905473325187
 20
4.86792356420211
 30
0
 40
0.010476
  1
{\fHelveticaNeueLT Com 55 Roman;397}
 50
83.5411836080294
 41
0
  7
STANDARD
 71
0
 73
1
 44
1
  0
LINE
  5
95
100
AcDbEntity
  8
SEMA2D
100
AcDbLine
370
9
 62
7
  6
_SOLID
 10
3.48073044233422
 20
5.07649930891022
 30
0
 11
3.48907712726785
 21
5.07555440117993
 31
0
  0
LINE
  5
96
100
AcDbEntity
  8
SEMA2D
100
AcDbLine
370
9
 62
7
  6
_SOLID
 10
3.48073044233422
 20
5.07649930891022
 30
0
 11
3.47238375740059
 21
5.07744421664051
 31
0
  0
LINE
  5
97
100
AcDbEntity
  8
SEMA2D
100
AcDbLine
370
9
 62
7
  6
_SOLID
 10
3.43605086163422
 20
4.68182968021022
 30
0
 11
3.44439754656785
 21
4.68088477247993
 31
0
  0
LINE
  5
98
100
AcDbEntity
  8
SEMA2D
100
AcDbLine
370
9
 62
7
  6
_SOLID
 10
3.43605086163422
 20
4.68182968021022
 30
0
 11
3.42770417670059
 21
4.68277458794051
 31
0
  0
LINE
  5
99
100
AcDbEntity
  8
SEMA2D
100
AcDbLine
370
9
 62
7
  6
_SOLID
 10
3.2205862327
 20
5.1161275606
 30
0
 11
3.09
 21
5.1161275606
 31
0
  0
MTEXT
  5
9A
100
AcDbEntity
  8
SEMATEXT
100
AcDbMText
370
9
 62
7
 10
3.14420051574024
 20
5.11420321308781
 30
0
 40
0.010476
  1
{\fHelveticaNeueLT Com 55 Roman;131}
 50
0
 41
0
  7
STANDARD
 71
0
 73
1
 44
1
  0
LINE
  5
9F
100
AcDbEntity
  8
SEMA2D
100
AcDbLine
370
9
 62
7
  6
_SOLID
 10
3.2205862327
 20
5.1161275606
 30
0
 11
3.2205862327
 21
5.1077275606
 31
0
  0
LINE
  5
A0
100
AcDbEntity
  8
SEMA2D
100
AcDbLine
370
9
 62
7
  6
_SOLID
 10
3.2205862327
 20
5.1161275606
 30
0
 11
3.2205862327
 21
5.1245275606
 31
0
  0
LINE
  5
A1
100
AcDbEntity
  8
SEMA2D
100
AcDbLine
370
9
 62
7
  6
_SOLID
 10
3.09
 20
5.1161275606
 30
0
 11
3.09
 21
5.1077275606
 31
0
  0
LINE
  5
A2
100
AcDbEntity
  8
SEMA2D
100
AcDbLine
370
9
 62
7
  6
_SOLID
 10
3.09
 20
5.1161275606
 30
0
 11
3.09
 21
5.1245275606
 31
0
  0
LINE
  5
A3
100
AcDbEntity
  8
SEMA2D
100
AcDbLine
370
9
 62
7
  6
_SOLID
 10
3.3440049531
 20
5.1718480633
 30
0
 11
3.3443356735
 21
5.1742095633
 31
0
  0
LINE
  5
A4
100
AcDbEntity
  8
SEMA2D
100
AcDbLine
370
9
 62
7
  6
_SOLID
 10
3.3376803626
 20
5.1718480633
 30
0
 11
3.3447587875
 21
5.1789264882
 31
0
  0
LINE
  5
A5
100
AcDbEntity
  8
SEMA2D
100
AcDbLine
370
9
 62
7
  6
_SOLID
 10
3.331001032
 20
5.1718480633
 30
0
 11
3.3444261703
 21
5.1852732017
 31
0
  0
LINE
  5
A6
100
AcDbEntity
  8
SEMA2D
100
AcDbLine
370
9
 62
7
  6
_SOLID
 10
3.3306116643
 20
5.1781380262
 30
0
 11
3.3440935532
 21
5.1916199151
 31
0
  0
LINE
  5
A7
100
AcDbEntity
  8
SEMA2D
100
AcDbLine
370
9
 62
7
  6
_SOLID
 10
3.3457530058
 20
5.17803148
 30
0
 11
3.3459538877
 21
5.1741984252
 31
0
  0
LINE
  5
A8
100
AcDbEntity
  8
SEMA2D
100
AcDbLine
370
9
 62
7
  6
_SOLID
 10
3.3389021
 20
5.2906787433
 30
0
 11
3.3448079735
 21
5.1779879633
 31
0
  0
LINE
  5
A9
100
AcDbEntity
  8
SEMA2D
100
AcDbLine
370
9
 62
7
  6
_SOLID
 10
3.2685294
 20
5.2538393433
 30
0
 11
3.2684028476
 21
5.2533670433
 31
0
  0
LINE
  5
AA
100
AcDbEntity
  8
SEMA2D
100
AcDbLine
370
9
 62
7
  6
_SOLID
 10
3.2680571
 20
5.2538393433
 30
0
 11
3.2701622496
 21
5.2637432937
 31
0
  0
LINE
  5
AB
100
AcDbEntity
  8
SEMA2D
100
AcDbLine
370
9
 62
7
  6
_SOLID
 10
3.3243410407
 20
5.2720573625
 30
0
 11
3.3391042958
 21
5.2868206176
 31
0
  0
LINE
  5
AC
100
AcDbEntity
  8
SEMA2D
100
AcDbLine
370
9
 62
7
  6
_SOLID
 10
3.274197
 20
5.2387257433
 30
0
 11
3.282922841
 21
5.2538393433
 31
0
  0
LINE
  5
AD
100
AcDbEntity
  8
SEMA2D
100
AcDbLine
370
9
 62
7
  6
_SOLID
 10
3.2994436908
 20
5.2538393433
 30
0
 11
3.3009702883
 21
5.2553659407
 31
0
  0
LINE
  5
AE
100
AcDbEntity
  8
SEMA2D
100
AcDbLine
370
9
 62
7
  6
_SOLID
 10
3.3162728236
 20
5.2773478067
 30
0
 11
3.3296037602
 21
5.2906787433
 31
0
  0
LINE
  5
AF
100
AcDbEntity
  8
SEMA2D
100
AcDbLine
370
9
 62
7
  6
_SOLID
 10
3.2418093231
 20
5.2538393433
 30
0
 11
3.245859
 21
5.2387257433
 31
0
  0
LINE
  5
B0
100
AcDbEntity
  8
SEMA2D
100
AcDbLine
370
9
 62
7
  6
_SOLID
 10
3.3210928867
 20
5.2754885392
 30
0
 11
3.3362830908
 21
5.2906787433
 31
0
  0
LINE
  5
B1
100
AcDbEntity
  8
SEMA2D
100
AcDbLine
370
9
 62
7
  6
_SOLID
 10
3.0909446
 20
5.2613961433
 30
0
 11
3.09
 21
5.2613961433
 31
0
  0
LINE
  5
B2
100
AcDbEntity
  8
SEMA2D
100
AcDbLine
370
9
 62
7
  6
_SOLID
 10
3.092006639
 20
5.2538393433
 30
0
 11
3.3245728351
 21
5.2538393433
 31
0
  0
LINE
  5
B3
100
AcDbEntity
  8
SEMA2D
100
AcDbLine
370
9
 62
7
  6
_SOLID
 10
3.1352404095
 20
5.2533670433
 30
0
 11
3.1465756095
 21
5.2533670433
 31
0
  0
LINE
  5
B4
100
AcDbEntity
  8
SEMA2D
100
AcDbLine
370
9
 62
7
  6
_SOLID
 10
3.3259512506
 20
5.2669882417
 30
0
 11
3.3394369129
 21
5.2804739041
 31
0
  0
LINE
  5
B5
100
AcDbEntity
  8
SEMA2D
100
AcDbLine
370
9
 62
7
  6
_SOLID
 10
3.2968674
 20
5.2533670433
 30
0
 11
3.3174359929
 21
5.2533670433
 31
0
  0
LINE
  5
B6
100
AcDbEntity
  8
SEMA2D
100
AcDbLine
370
9
 62
7
  6
_SOLID
 10
3.2573207524
 20
5.2533670433
 30
0
 11
3.2684028476
 21
5.2533670433
 31
0
  0
LINE
  5
B7
100
AcDbEntity
  8
SEMA2D
100
AcDbLine
370
9
 62
7
  6
_SOLID
 10
3.2588494462
 20
5.2600004133
 30
0
 11
3.2767792164
 21
5.2779301835
 31
0
  0
LINE
  5
B8
100
AcDbEntity
  8
SEMA2D
100
AcDbLine
370
9
 62
7
  6
_SOLID
 10
3.2559728579
 20
5.2638031556
 30
0
 11
3.2680201344
 21
5.2758504321
 31
0
  0
LINE
  5
B9
100
AcDbEntity
  8
SEMA2D
100
AcDbLine
370
9
 62
7
  6
_SOLID
 10
3.2602609549
 20
5.2547325913
 30
0
 11
3.2962071069
 21
5.2906787433
 31
0
  0
LINE
  5
BA
100
AcDbEntity
  8
SEMA2D
100
AcDbLine
370
9
 62
7
  6
_SOLID
 10
3.245296547
 20
5.266485506
 30
0
 11
3.2552049834
 21
5.2763939424
 31
0
  0
LINE
  5
BB
100
AcDbEntity
  8
SEMA2D
100
AcDbLine
370
9
 62
7
  6
_SOLID
 10
3.2406060477
 20
5.2684743373
 30
0
 11
3.249982729
 21
5.2778510186
 31
0
  0
LINE
  5
BC
100
AcDbEntity
  8
SEMA2D
100
AcDbLine
370
9
 62
7
  6
_SOLID
 10
3.22200785
 20
5.2538393433
 30
0
 11
3.22200785
 21
5.2741482433
 31
0
  0
LINE
  5
BD
100
AcDbEntity
  8
SEMA2D
100
AcDbLine
370
9
 62
7
  6
_SOLID
 10
3.2503956346
 20
5.264905263
 30
0
 11
3.2611185429
 21
5.2756281712
 31
0
  0
LINE
  5
BE
100
AcDbEntity
  8
SEMA2D
100
AcDbLine
370
9
 62
7
  6
_SOLID
 10
3.1362854
 20
5.2387257433
 30
0
 11
3.1646234
 21
5.2387257433
 31
0
  0
LINE
  5
BF
100
AcDbEntity
  8
SEMA2D
100
AcDbLine
370
9
 62
7
  6
_SOLID
 10
3.2916912198
 20
5.2594455335
 30
0
 11
3.3229244295
 21
5.2906787433
 31
0
  0
LINE
  5
C0
100
AcDbEntity
  8
SEMA2D
100
AcDbLine
370
9
 62
7
  6
_SOLID
 10
3.2930242117
 20
5.2540991948
 30
0
 11
3.3027732566
 21
5.2638482397
 31
0
  0
LINE
  5
C1
100
AcDbEntity
  8
SEMA2D
100
AcDbLine
370
9
 62
7
  6
_SOLID
 10
3.245859
 20
5.2387257433
 30
0
 11
3.274197
 21
5.2387257433
 31
0
  0
LINE
  5
C2
100
AcDbEntity
  8
SEMA2D
100
AcDbLine
370
9
 62
7
  6
_SOLID
 10
3.2774681813
 20
5.265260487
 30
0
 11
3.3028864375
 21
5.2906787433
 31
0
  0
LINE
  5
C3
100
AcDbEntity
  8
SEMA2D
100
AcDbLine
370
9
 62
7
  6
_SOLID
 10
3.2660470375
 20
5.2538393433
 30
0
 11
3.2685996811
 21
5.2563919868
 31
0
  0
LINE
  5
C4
100
AcDbEntity
  8
SEMA2D
100
AcDbLine
370
9
 62
7
  6
_SOLID
 10
3.2903582278
 20
5.2647918722
 30
0
 11
3.3162450989
 21
5.2906787433
 31
0
  0
LINE
  5
C5
100
AcDbEntity
  8
SEMA2D
100
AcDbLine
370
9
 62
7
  6
_SOLID
 10
3.2889283536
 20
5.2700413286
 30
0
 11
3.3095657682
 21
5.2906787433
 31
0
  0
LINE
  5
C6
100
AcDbEntity
  8
SEMA2D
100
AcDbLine
370
9
 62
7
  6
_SOLID
 10
3.2571942
 20
5.2538393433
 30
0
 11
3.2573207524
 21
5.2533670433
 31
0
  0
LINE
  5
C7
100
AcDbEntity
  8
SEMA2D
100
AcDbLine
370
9
 62
7
  6
_SOLID
 10
3.293089
 20
5.2538393433
 30
0
 11
3.2892599736
 21
5.2691967291
 31
0
  0
LINE
  5
C8
100
AcDbEntity
  8
SEMA2D
100
AcDbLine
370
9
 62
7
  6
_SOLID
 10
3.2967408476
 20
5.2538393433
 30
0
 11
3.2968674
 21
5.2533670433
 31
0
  0
LINE
  5
C9
100
AcDbEntity
  8
SEMA2D
100
AcDbLine
370
9
 62
7
  6
_SOLID
 10
3.3296138128
 20
5.1971781667
 30
0
 11
3.3430957017
 21
5.2106600556
 31
0
  0
LINE
  5
CA
100
AcDbEntity
  8
SEMA2D
100
AcDbLine
370
9
 62
7
  6
_SOLID
 10
3.3292811956
 20
5.2035248802
 30
0
 11
3.3427630845
 21
5.2170067691
 31
0
  0
LINE
  5
CB
100
AcDbEntity
  8
SEMA2D
100
AcDbLine
370
9
 62
7
  6
_SOLID
 10
3.3282833442
 20
5.2225650207
 30
0
 11
3.3417652331
 21
5.2360469096
 31
0
  0
LINE
  5
CC
100
AcDbEntity
  8
SEMA2D
100
AcDbLine
370
9
 62
7
  6
_SOLID
 10
3.3309413073
 20
5.1718480633
 30
0
 11
3.3187704656
 21
5.1945256048
 31
0
  0
LINE
  5
CD
100
AcDbEntity
  8
SEMA2D
100
AcDbLine
370
9
 62
7
  6
_SOLID
 10
3.3289485785
 20
5.2098715937
 30
0
 11
3.3424304674
 21
5.2233534826
 31
0
  0
LINE
  5
CE
100
AcDbEntity
  8
SEMA2D
100
AcDbLine
370
9
 62
7
  6
_SOLID
 10
3.3286159613
 20
5.2162183072
 30
0
 11
3.3420978502
 21
5.2297001961
 31
0
  0
LINE
  5
CF
100
AcDbEntity
  8
SEMA2D
100
AcDbLine
370
9
 62
7
  6
_SOLID
 10
3.32994643
 20
5.1908314532
 30
0
 11
3.3434283189
 21
5.2043133421
 31
0
  0
LINE
  5
D0
100
AcDbEntity
  8
SEMA2D
100
AcDbLine
370
9
 62
7
  6
_SOLID
 10
3.3174261904
 20
5.2538393433
 30
0
 11
3.3174359929
 21
5.2533670433
 31
0
  0
LINE
  5
D1
100
AcDbEntity
  8
SEMA2D
100
AcDbLine
370
9
 62
7
  6
_SOLID
 10
3.3259647112
 20
5.2668071722
 30
0
 11
3.3309413073
 21
5.1718480633
 31
0
  0
LINE
  5
D2
100
AcDbEntity
  8
SEMA2D
100
AcDbLine
370
9
 62
7
  6
_SOLID
 10
3.3302790471
 20
5.1844847397
 30
0
 11
3.343760936
 21
5.1979666286
 31
0
  0
LINE
  5
D3
100
AcDbEntity
  8
SEMA2D
100
AcDbLine
370
9
 62
7
  6
_SOLID
 10
3.3457530058
 20
5.17803148
 30
0
 11
3.3447031774
 21
5.1799875918
 31
0
  0
LINE
  5
D4
100
AcDbEntity
  8
SEMA2D
100
AcDbLine
370
9
 62
7
  6
_SOLID
 10
3.324045757
 20
5.2678136771
 30
0
 11
3.3259647112
 21
5.2668071722
 31
0
  0
LINE
  5
D5
100
AcDbEntity
  8
SEMA2D
100
AcDbLine
370
9
 62
7
  6
_SOLID
 10
3.324045757
 20
5.2678136771
 30
0
 11
3.3245728351
 21
5.2538393433
 31
0
  0
LINE
  5
D6
100
AcDbEntity
  8
SEMA2D
100
AcDbLine
370
9
 62
7
  6
_SOLID
 10
3.3151260057
 20
5.2533670433
 30
0
 11
3.3187704656
 21
5.1945256048
 31
0
  0
LINE
  5
D7
100
AcDbEntity
  8
SEMA2D
100
AcDbLine
370
9
 62
7
  6
_SOLID
 10
3.1013352
 20
5.2717867433
 30
0
 11
3.1120390393
 21
5.2717867433
 31
0
  0
LINE
  5
D8
100
AcDbEntity
  8
SEMA2D
100
AcDbLine
370
9
 62
7
  6
_SOLID
 10
3.0909292841
 20
5.2717867433
 30
0
 11
3.0928338
 21
5.2717867433
 31
0
  0
LINE
  5
D9
100
AcDbEntity
  8
SEMA2D
100
AcDbLine
370
9
 62
7
  6
_SOLID
 10
3.3269528755
 20
5.2479518747
 30
0
 11
3.3404347644
 21
5.2614337636
 31
0
  0
LINE
  5
DA
100
AcDbEntity
  8
SEMA2D
100
AcDbLine
370
9
 62
7
  6
_SOLID
 10
3.2578947724
 20
5.2635633047
 30
0
 11
3.2605003
 21
5.2538393433
 31
0
  0
LINE
  5
DB
100
AcDbEntity
  8
SEMA2D
100
AcDbLine
370
9
 62
7
  6
_SOLID
 10
3.3266202584
 20
5.2542985882
 30
0
 11
3.3401021473
 21
5.2677804771
 31
0
  0
LINE
  5
DC
100
AcDbEntity
  8
SEMA2D
100
AcDbLine
370
9
 62
7
  6
_SOLID
 10
3.3262876412
 20
5.2606453017
 30
0
 11
3.3397695301
 21
5.2741271906
 31
0
  0
LINE
  5
DD
100
AcDbEntity
  8
SEMA2D
100
AcDbLine
370
9
 62
7
  6
_SOLID
 10
3.1225887
 20
5.2668275933
 30
0
 11
3.1367577
 21
5.2668275933
 31
0
  0
LINE
  5
DE
100
AcDbEntity
  8
SEMA2D
100
AcDbLine
370
9
 62
7
  6
_SOLID
 10
3.1032244
 20
5.2668275933
 30
0
 11
3.11290655
 21
5.2668275933
 31
0
  0
LINE
  5
DF
100
AcDbEntity
  8
SEMA2D
100
AcDbLine
370
9
 62
7
  6
_SOLID
 10
3.3276181098
 20
5.2352584477
 30
0
 11
3.3410999987
 21
5.2487403366
 31
0
  0
LINE
  5
E0
100
AcDbEntity
  8
SEMA2D
100
AcDbLine
370
9
 62
7
  6
_SOLID
 10
3.3006458
 20
5.2538393433
 30
0
 11
3.3037771058
 21
5.2685709789
 31
0
  0
LINE
  5
E1
100
AcDbEntity
  8
SEMA2D
100
AcDbLine
370
9
 62
7
  6
_SOLID
 10
3.1153702086
 20
5.2906787433
 30
0
 11
3.3389021
 21
5.2906787433
 31
0
  0
LINE
  5
E2
100
AcDbEntity
  8
SEMA2D
100
AcDbLine
370
9
 62
7
  6
_SOLID
 10
3.327950727
 20
5.2289117342
 30
0
 11
3.3414326159
 21
5.2423936231
 31
0
  0
LINE
  5
E3
100
AcDbEntity
  8
SEMA2D
100
AcDbLine
370
9
 62
7
  6
_SOLID
 10
3.21400176
 20
5.2741482433
 30
0
 11
3.2271801291
 21
5.2741482433
 31
0
  0
LINE
  5
E4
100
AcDbEntity
  8
SEMA2D
100
AcDbLine
370
9
 62
7
  6
_SOLID
 10
3.3272854927
 20
5.2416051612
 30
0
 11
3.3407673816
 21
5.2550870501
 31
0
  0
LINE
  5
E5
100
AcDbEntity
  8
SEMA2D
100
AcDbLine
370
9
 62
7
  6
_SOLID
 10
3.1150319
 20
5.2767458933
 30
0
 11
3.11904645
 21
5.2767458933
 31
0
  0
LINE
  5
E6
100
AcDbEntity
  8
SEMA2D
100
AcDbLine
370
9
 62
7
  6
_SOLID
 10
3.0941626002
 20
5.2767458933
 30
0
 11
3.099446
 21
5.2767458933
 31
0
  0
LINE
  5
E7
100
AcDbEntity
  8
SEMA2D
100
AcDbLine
370
9
 62
7
  6
_SOLID
 10
3.0912301458
 20
5.2593643792
 30
0
 11
3.1019744579
 21
5.2701086913
 31
0
  0
LINE
  5
E8
100
AcDbEntity
  8
SEMA2D
100
AcDbLine
370
9
 62
7
  6
_SOLID
 10
3.09
 20
5.264813564
 30
0
 11
3.1001318839
 21
5.274945448
 31
0
  0
LINE
  5
E9
100
AcDbEntity
  8
SEMA2D
100
AcDbLine
370
9
 62
7
  6
_SOLID
 10
3.1153702086
 20
5.2906787433
 30
0
 11
3.1120390393
 21
5.2717867433
 31
0
  0
LINE
  5
EA
100
AcDbEntity
  8
SEMA2D
100
AcDbLine
370
9
 62
7
  6
_SOLID
 10
3.092006639
 20
5.2538393433
 30
0
 11
3.0909446
 21
5.2613961433
 31
0
  0
LINE
  5
EB
100
AcDbEntity
  8
SEMA2D
100
AcDbLine
370
9
 62
7
  6
_SOLID
 10
3.09
 20
5.2613961433
 30
0
 11
3.09
 21
5.2651745433
 31
0
  0
LINE
  5
EC
100
AcDbEntity
  8
SEMA2D
100
AcDbLine
370
9
 62
7
  6
_SOLID
 10
3.0928338
 20
5.2717867433
 30
0
 11
3.0941626002
 21
5.2767458933
 31
0
  0
LINE
  5
ED
100
AcDbEntity
  8
SEMA2D
100
AcDbLine
370
9
 62
7
  6
_SOLID
 10
3.0937634867
 20
5.2752563815
 30
0
 11
3.0952529985
 21
5.2767458933
 31
0
  0
LINE
  5
EE
100
AcDbEntity
  8
SEMA2D
100
AcDbLine
370
9
 62
7
  6
_SOLID
 10
3.0909292841
 20
5.2717867433
 30
0
 11
3.09
 21
5.2651745433
 31
0
  0
LINE
  5
EF
100
AcDbEntity
  8
SEMA2D
100
AcDbLine
370
9
 62
7
  6
_SOLID
 10
3.1057431018
 20
5.2538393433
 30
0
 11
3.1215736084
 21
5.2696698498
 31
0
  0
LINE
  5
F0
100
AcDbEntity
  8
SEMA2D
100
AcDbLine
370
9
 62
7
  6
_SOLID
 10
3.1131396033
 20
5.2679151754
 30
0
 11
3.1198158898
 21
5.2745914619
 31
0
  0
LINE
  5
F1
100
AcDbEntity
  8
SEMA2D
100
AcDbLine
370
9
 62
7
  6
_SOLID
 10
3.1124224325
 20
5.2538393433
 30
0
 11
3.1254106825
 21
5.2668275933
 31
0
  0
LINE
  5
F2
100
AcDbEntity
  8
SEMA2D
100
AcDbLine
370
9
 62
7
  6
_SOLID
 10
3.1396584916
 20
5.2877547331
 30
0
 11
3.1425825018
 21
5.2906787433
 31
0
  0
LINE
  5
F3
100
AcDbEntity
  8
SEMA2D
100
AcDbLine
370
9
 62
7
  6
_SOLID
 10
3.0923844405
 20
5.2538393433
 30
0
 11
3.1053726905
 21
5.2668275933
 31
0
  0
LINE
  5
F4
100
AcDbEntity
  8
SEMA2D
100
AcDbLine
370
9
 62
7
  6
_SOLID
 10
3.11290655
 20
5.2668275933
 30
0
 11
3.1150319
 21
5.2767458933
 31
0
  0
LINE
  5
F5
100
AcDbEntity
  8
SEMA2D
100
AcDbLine
370
9
 62
7
  6
_SOLID
 10
3.0990637712
 20
5.2538393433
 30
0
 11
3.1120520212
 21
5.2668275933
 31
0
  0
LINE
  5
F6
100
AcDbEntity
  8
SEMA2D
100
AcDbLine
370
9
 62
7
  6
_SOLID
 10
3.1149612389
 20
5.2764161417
 30
0
 11
3.1152909905
 21
5.2767458933
 31
0
  0
LINE
  5
F7
100
AcDbEntity
  8
SEMA2D
100
AcDbLine
370
9
 62
7
  6
_SOLID
 10
3.1385836568
 20
5.2800005676
 30
0
 11
3.1483462126
 21
5.2897631234
 31
0
  0
LINE
  5
F8
100
AcDbEntity
  8
SEMA2D
100
AcDbLine
370
9
 62
7
  6
_SOLID
 10
3.2004326007
 20
5.2683768742
 30
0
 11
3.2227344697
 21
5.2906787433
 31
0
  0
LINE
  5
F9
100
AcDbEntity
  8
SEMA2D
100
AcDbLine
370
9
 62
7
  6
_SOLID
 10
3.1900509634
 20
5.2646745677
 30
0
 11
3.216055139
 21
5.2906787433
 31
0
  0
LINE
  5
FA
100
AcDbEntity
  8
SEMA2D
100
AcDbLine
370
9
 62
7
  6
_SOLID
 10
3.2109168579
 20
5.2721818009
 30
0
 11
3.2294138003
 21
5.2906787433
 31
0
  0
LINE
  5
FB
100
AcDbEntity
  8
SEMA2D
100
AcDbLine
370
9
 62
7
  6
_SOLID
 10
3.1835154
 20
5.2538393433
 30
0
 11
3.1862142208
 21
5.2639114797
 31
0
  0
LINE
  5
FC
100
AcDbEntity
  8
SEMA2D
100
AcDbLine
370
9
 62
7
  6
_SOLID
 10
3.1752756343
 20
5.2565785692
 30
0
 11
3.2000434486
 21
5.2813463835
 31
0
  0
LINE
  5
FD
100
AcDbEntity
  8
SEMA2D
100
AcDbLine
370
9
 62
7
  6
_SOLID
 10
3.1739426423
 20
5.2619249079
 30
0
 11
3.1891577535
 21
5.2771400191
 31
0
  0
LINE
  5
FE
100
AcDbEntity
  8
SEMA2D
100
AcDbLine
370
9
 62
7
  6
_SOLID
 10
3.179215739
 20
5.2538393433
 30
0
 11
3.1850891851
 21
5.2597127894
 31
0
  0
LINE
  5
FF
100
AcDbEntity
  8
SEMA2D
100
AcDbLine
370
9
 62
7
  6
_SOLID
 10
3.127559559
 20
5.2538393433
 30
0
 11
3.1362854
 21
5.2387257433
 31
0
  0
LINE
  5
100
100
AcDbEntity
  8
SEMA2D
100
AcDbLine
370
9
 62
7
  6
_SOLID
 10
3.2307158091
 20
5.2719427601
 30
0
 11
3.240260552
 21
5.281487503
 31
0
  0
LINE
  5
101
100
AcDbEntity
  8
SEMA2D
100
AcDbLine
370
9
 62
7
  6
_SOLID
 10
3.2262419617
 20
5.2741482433
 30
0
 11
3.2354564379
 21
5.2833627195
 31
0
  0
LINE
  5
102
100
AcDbEntity
  8
SEMA2D
100
AcDbLine
370
9
 62
7
  6
_SOLID
 10
3.2354752981
 20
5.2700229184
 30
0
 11
3.2453034526
 21
5.2798510729
 31
0
  0
LINE
  5
103
100
AcDbEntity
  8
SEMA2D
100
AcDbLine
370
9
 62
7
  6
_SOLID
 10
3.1735490501
 20
5.2635035199
 30
0
 11
3.1759586
 21
5.2538393433
 31
0
  0
LINE
  5
104
100
AcDbEntity
  8
SEMA2D
100
AcDbLine
370
9
 62
7
  6
_SOLID
 10
3.3457530058
 20
5.17803148
 30
0
 11
3.3448079735
 21
5.1779879633
 31
0
  0
LINE
  5
105
100
AcDbEntity
  8
SEMA2D
100
AcDbLine
370
9
 62
7
  6
_SOLID
 10
3.219562631
 20
5.2741482433
 30
0
 11
3.2319080318
 21
5.2864936441
 31
0
  0
LINE
  5
106
100
AcDbEntity
  8
SEMA2D
100
AcDbLine
370
9
 62
7
  6
_SOLID
 10
3.3443356735
 20
5.1742095633
 30
0
 11
3.3459538877
 21
5.1741984252
 31
0
  0
LINE
  5
107
100
AcDbEntity
  8
SEMA2D
100
AcDbLine
370
9
 62
7
  6
_SOLID
 10
3.3309413073
 20
5.1718480633
 30
0
 11
3.3440049531
 21
5.1718480633
 31
0
  0
LINE
  5
108
100
AcDbEntity
  8
SEMA2D
100
AcDbLine
370
9
 62
7
  6
_SOLID
 10
3.1465756095
 20
5.2533670433
 30
0
 11
3.1504424935
 21
5.271559302
 31
0
  0
LINE
  5
109
100
AcDbEntity
  8
SEMA2D
100
AcDbLine
370
9
 62
7
  6
_SOLID
 10
3.099446
 20
5.2767458933
 30
0
 11
3.1032244
 21
5.2668275933
 31
0
  0
LINE
  5
10A
100
AcDbEntity
  8
SEMA2D
100
AcDbLine
370
9
 62
7
  6
_SOLID
 10
3.1391397551
 20
5.2538393433
 30
0
 11
3.1487102773
 21
5.2634098654
 31
0
  0
LINE
  5
10B
100
AcDbEntity
  8
SEMA2D
100
AcDbLine
370
9
 62
7
  6
_SOLID
 10
3.1324604244
 20
5.2538393433
 30
0
 11
3.1592144184
 21
5.2805933373
 31
0
  0
LINE
  5
10C
100
AcDbEntity
  8
SEMA2D
100
AcDbLine
370
9
 62
7
  6
_SOLID
 10
3.1191017631
 20
5.2538393433
 30
0
 11
3.1320900131
 21
5.2668275933
 31
0
  0
LINE
  5
10D
100
AcDbEntity
  8
SEMA2D
100
AcDbLine
370
9
 62
7
  6
_SOLID
 10
3.1367577
 20
5.2668275933
 30
0
 11
3.1400638
 21
5.2906787433
 31
0
  0
LINE
  5
10E
100
AcDbEntity
  8
SEMA2D
100
AcDbLine
370
9
 62
7
  6
_SOLID
 10
3.1257810938
 20
5.2538393433
 30
0
 11
3.1551732373
 21
5.2832314868
 31
0
  0
LINE
  5
10F
100
AcDbEntity
  8
SEMA2D
100
AcDbLine
370
9
 62
7
  6
_SOLID
 10
3.137508822
 20
5.2722464021
 30
0
 11
3.1515548544
 21
5.2862924346
 31
0
  0
LINE
  5
110
100
AcDbEntity
  8
SEMA2D
100
AcDbLine
370
9
 62
7
  6
_SOLID
 10
3.1694010396
 20
5.2640626358
 30
0
 11
3.1810014664
 21
5.2756630626
 31
0
  0
LINE
  5
111
100
AcDbEntity
  8
SEMA2D
100
AcDbLine
370
9
 62
7
  6
_SOLID
 10
3.1639875926
 20
5.2653285195
 30
0
 11
3.1744197879
 21
5.2757607148
 31
0
  0
LINE
  5
112
100
AcDbEntity
  8
SEMA2D
100
AcDbLine
370
9
 62
7
  6
_SOLID
 10
3.1646234
 20
5.2387257433
 30
0
 11
3.1686730769
 21
5.2538393433
 31
0
  0
LINE
  5
113
100
AcDbEntity
  8
SEMA2D
100
AcDbLine
370
9
 62
7
  6
_SOLID
 10
3.1351138571
 20
5.2538393433
 30
0
 11
3.1352404095
 21
5.2533670433
 31
0
  0
LINE
  5
114
100
AcDbEntity
  8
SEMA2D
100
AcDbLine
370
9
 62
7
  6
_SOLID
 10
3.11904645
 20
5.2767458933
 30
0
 11
3.1225887
 21
5.2668275933
 31
0
  0
LINE
  5
115
100
AcDbEntity
  8
SEMA2D
100
AcDbLine
370
9
 62
7
  6
_SOLID
 10
3.1544846269
 20
5.269184215
 30
0
 11
3.1637139748
 21
5.278413563
 31
0
  0
LINE
  5
116
100
AcDbEntity
  8
SEMA2D
100
AcDbLine
370
9
 62
7
  6
_SOLID
 10
3.1590359646
 20
5.2670562221
 30
0
 11
3.168737608
 21
5.2767578655
 31
0
  0
LINE
  5
117
100
AcDbEntity
  8
SEMA2D
100
AcDbLine
370
9
 62
7
  6
_SOLID
 10
3.1458190858
 20
5.2538393433
 30
0
 11
3.146907309
 21
5.2549275665
 31
0
  0
ARC
  5
118
100
AcDbEntity
  8
SEMA2D
100
AcDbCircle
370
9
 62
7
  6
_SOLID
 10
3.1782561372
 20
5.3141713339
 30
0
 40
0.0508859905999997
100
AcDbArc
 50
278.997447417001
 51
297.992845218893
  0
ARC
  5
119
100
AcDbEntity
  8
SEMA2D
100
AcDbCircle
370
9
 62
7
  6
_SOLID
 10
3.2429235369
 20
5.295401105
 30
0
 40
0.0264487999999998
100
AcDbArc
 50
233.470191960055
 51
261.67862604336
  0
ARC
  5
11A
100
AcDbEntity
  8
SEMA2D
100
AcDbCircle
370
9
 62
7
  6
_SOLID
 10
3.2429235369
 20
5.295401105
 30
0
 40
0.0141689999999999
100
AcDbArc
 50
199.468482918225
 51
270
  0
ARC
  5
11B
100
AcDbEntity
  8
SEMA2D
100
AcDbCircle
370
9
 62
7
  6
_SOLID
 10
3.1782561372
 20
5.3141713339
 30
0
 40
0.0508859905999997
100
AcDbArc
 50
236.866788885791
 51
264.69240296676
  0
ARC
  5
11C
100
AcDbEntity
  8
SEMA2D
100
AcDbCircle
370
9
 62
7
  6
_SOLID
 10
3.1782561372
 20
5.3141713339
 30
0
 40
0.0386061905999997
100
AcDbArc
 50
217.482475376615
 51
301.439157175623
  0
LINE
  5
11D
100
AcDbEntity
  8
SEMA2D
100
AcDbLine
370
9
 62
7
  6
_SOLID
 10
3.3398717534
 20
5.2721766539
 30
0
 11
3.3400726598
 21
5.2683431305
 31
0
  0
ARC
  5
11E
100
AcDbEntity
  8
SEMA2D
100
AcDbCircle
370
9
 62
7
  6
_SOLID
 10
3.2629796404
 20
5.3141713339
 30
0
 40
0.0508859905999999
100
AcDbArc
 50
242.007154781107
 51
264.272305735501
  0
ARC
  5
11F
100
AcDbEntity
  8
SEMA2D
100
AcDbCircle
370
9
 62
7
  6
_SOLID
 10
3.1982583522
 20
5.295401105
 30
0
 40
0.0264487999999998
100
AcDbArc
 50
278.32137395664
 51
306.529808039945
  0
ARC
  5
120
100
AcDbEntity
  8
SEMA2D
100
AcDbCircle
370
9
 62
7
  6
_SOLID
 10
3.198258363
 20
5.295401105
 30
0
 40
0.0141689999999999
100
AcDbArc
 50
270
 51
340.531517081775
  0
ARC
  5
121
100
AcDbEntity
  8
SEMA2D
100
AcDbCircle
370
9
 62
7
  6
_SOLID
 10
3.2629257627
 20
5.3141713339
 30
0
 40
0.0386061905999997
100
AcDbArc
 50
238.560842824377
 51
322.517524623385
  0
ARC
  5
122
100
AcDbEntity
  8
SEMA2D
100
AcDbCircle
370
9
 62
7
  6
_SOLID
 10
3.2654551625
 20
5.3141713339
 30
0
 40
0.0508859905999997
100
AcDbArc
 50
275.30759703324
 51
297.892019951234
  0
ARC
  5
123
100
AcDbEntity
  8
SEMA2D
100
AcDbCircle
370
9
 62
7
  6
_SOLID
 10
3.3147394076
 20
5.2662118048
 30
0
 40
0.0112410811000001
100
AcDbArc
 50
3.03600760720779
 51
82.1597351426163
  0
ARC
  5
124
100
AcDbEntity
  8
SEMA2D
100
AcDbCircle
370
9
 62
7
  6
_SOLID
 10
3.3157084223
 20
5.2648677583
 30
0
 40
0.0124928041999999
100
AcDbArc
 50
87.4106035275847
 51
162.756796234578
  0
LINE
  5
125
100
AcDbEntity
  8
SEMA2D
100
AcDbLine
370
9
 62
7
  6
_SOLID
 10
3.09
 20
5.2538393433
 30
0
 11
3.300922841
 21
5.2538393433
 31
0
  0
LINE
  5
126
100
AcDbEntity
  8
SEMA2D
100
AcDbLine
370
9
 62
7
  6
_SOLID
 10
3.09
 20
5.2288393433
 30
0
 11
3.275922841
 21
5.2288393433
 31
0
  0
LINE
  5
127
100
AcDbEntity
  8
SEMA2D
100
AcDbLine
370
9
 62
7
  6
_SOLID
 10
3.300922841
 20
5.2538393433
 30
0
 11
3.300922841
 21
5.1615393433
 31
0
  0
LINE
  5
128
100
AcDbEntity
  8
SEMA2D
100
AcDbLine
370
9
 62
7
  6
_SOLID
 10
3.275922841
 20
5.1615393433
 30
0
 11
3.275922841
 21
5.2538393433
 31
0
  0
LINE
  5
129
100
AcDbEntity
  8
SEMA2D
100
AcDbLine
370
9
 62
7
  6
_SOLID
 10
3.300922841
 20
5.1615393433
 30
0
 11
3.275922841
 21
5.1615393433
 31
0
  0
LINE
  5
12A
100
AcDbEntity
  8
SEMA2D
100
AcDbLine
370
9
 62
7
  6
_DOT
 10
3.09
 20
4.66
 30
0
 11
3.09
 21
4.61
 31
0
  0
LINE
  5
12B
100
AcDbEntity
  8
SEMA2D
100
AcDbLine
370
9
 62
7
  6
_DOT
 10
3.3578737738
 20
4.66
 30
0
 11
3.3578737738
 21
4.61
 31
0
  0
LINE
  5
12C
100
AcDbEntity
  8
SEMA2D
100
AcDbLine
370
9
 62
7
  6
_DOT
 10
3.09
 20
4.66
 30
0
 11
3.04
 21
4.66
 31
0
  0
LINE
  5
12D
100
AcDbEntity
  8
SEMA2D
100
AcDbLine
370
9
 62
7
  6
_DOT
 10
3.09
 20
5.0907376
 30
0
 11
3.04
 21
5.0907376
 31
0
  0
LINE
  5
12E
100
AcDbEntity
  8
SEMA2D
100
AcDbLine
370
9
 62
7
  6
_DOT
 10
3.300922841
 20
5.1615393433
 30
0
 11
3.300922841
 21
5.1423961433
 31
0
  0
LINE
  5
12F
100
AcDbEntity
  8
SEMA2D
100
AcDbLine
370
9
 62
7
  6
_DOT
 10
3.3459538877
 20
5.1423961433
 30
0
 11
3.3459538877
 21
5.1741984252
 31
0
  0
LINE
  5
130
100
AcDbEntity
  8
SEMA2D
100
AcDbLine
370
9
 62
7
  6
_SOLID
 10
3.3516361876
 20
4.6612328028
 30
0
 11
3.14322821
 21
4.6612328028
 31
0
  0
ARC
  5
131
100
AcDbEntity
  8
SEMA2D
100
AcDbCircle
370
9
 62
7
  6
_SOLID
 10
3.132507
 20
4.6826704
 30
0
 40
0.00401072100000022
100
AcDbArc
 50
0
 51
90
  0
ARC
  5
132
100
AcDbEntity
  8
SEMA2D
100
AcDbCircle
370
9
 62
7
  6
_SOLID
 10
3.132507
 20
4.6826704
 30
0
 40
0.00377840000000029
100
AcDbArc
 50
0
 51
90
  0
LINE
  5
133
100
AcDbEntity
  8
SEMA2D
100
AcDbLine
370
9
 62
7
  6
_SOLID
 10
3.1153702086
 20
5.0774024
 30
0
 11
3.1120390393
 21
5.0726920953
 31
0
  0
LINE
  5
134
100
AcDbEntity
  8
SEMA2D
100
AcDbLine
370
9
 62
7
  6
_SOLID
 10
3.11290655
 20
5.0714556404
 30
0
 11
3.113969225
 21
5.0726920953
 31
0
  0
LINE
  5
135
100
AcDbEntity
  8
SEMA2D
100
AcDbLine
370
9
 62
7
  6
_SOLID
 10
3.1362854
 20
4.66
 30
0
 11
3.353587584
 21
4.66
 31
0
  0
LINE
  5
136
100
AcDbEntity
  8
SEMA2D
100
AcDbLine
370
9
 62
7
  6
_SOLID
 10
3.0998030009
 20
4.6879433425
 30
0
 11
3.1032244
 21
4.686681121
 31
0
  0
LINE
  5
137
100
AcDbEntity
  8
SEMA2D
100
AcDbLine
370
9
 62
7
  6
_SOLID
 10
3.3522174968
 20
4.664099564
 30
0
 11
3.3531593916
 21
4.6641512029
 31
0
  0
LINE
  5
138
100
AcDbEntity
  8
SEMA2D
100
AcDbLine
370
9
 62
7
  6
_SOLID
 10
3.14322821
 20
4.66
 30
0
 11
3.1388652895
 21
4.6606611343
 31
0
  0
LINE
  5
139
100
AcDbEntity
  8
SEMA2D
100
AcDbLine
370
9
 62
7
  6
_SOLID
 10
3.0941626002
 20
4.9848022334
 30
0
 11
3.099446
 21
4.9848022334
 31
0
  0
LINE
  5
13A
100
AcDbEntity
  8
SEMA2D
100
AcDbLine
370
9
 62
7
  6
_SOLID
 10
3.1150319
 20
4.9848022334
 30
0
 11
3.11904645
 21
4.9848022334
 31
0
  0
LINE
  5
13B
100
AcDbEntity
  8
SEMA2D
100
AcDbLine
370
9
 62
7
  6
_SOLID
 10
3.120817575
 20
4.9876654
 30
0
 11
3.113969225
 21
4.9876654
 31
0
  0
LINE
  5
13C
100
AcDbEntity
  8
SEMA2D
100
AcDbLine
370
9
 62
7
  6
_SOLID
 10
3.0928338
 20
4.6873780841
 30
0
 11
3.0939114977
 21
4.6879433425
 31
0
  0
LINE
  5
13D
100
AcDbEntity
  8
SEMA2D
100
AcDbLine
370
9
 62
7
  6
_SOLID
 10
3.3524422536
 20
4.66
 30
0
 11
3.3522174968
 21
4.664099564
 31
0
  0
LINE
  5
13E
100
AcDbEntity
  8
SEMA2D
100
AcDbLine
370
9
 62
7
  6
_SOLID
 10
3.3533869795
 20
4.66
 30
0
 11
3.3531593916
 21
4.6641512029
 31
0
  0
LINE
  5
13F
100
AcDbEntity
  8
SEMA2D
100
AcDbLine
370
9
 62
7
  6
_SOLID
 10
3.353587584
 20
4.66
 30
0
 11
3.3535294811
 21
4.6610597981
 31
0
  0
LINE
  5
140
100
AcDbEntity
  8
SEMA2D
100
AcDbLine
370
9
 62
7
  6
_SOLID
 10
3.1013352
 20
4.9876654
 30
0
 11
3.0928338
 21
4.9876654
 31
0
  0
LINE
  5
141
100
AcDbEntity
  8
SEMA2D
100
AcDbLine
370
9
 62
7
  6
_SOLID
 10
3.1367577
 20
4.6608057574
 30
0
 11
3.1374342952
 21
4.6612328028
 31
0
  0
LINE
  5
142
100
AcDbEntity
  8
SEMA2D
100
AcDbLine
370
9
 62
7
  6
_SOLID
 10
3.136517721
 20
4.6608057574
 30
0
 11
3.1362854
 21
4.6606611343
 31
0
  0
LINE
  5
143
100
AcDbEntity
  8
SEMA2D
100
AcDbLine
370
9
 62
7
  6
_SOLID
 10
3.3277160474
 20
5.0774024
 30
0
 11
3.328121754
 21
5.0758715509
 31
0
  0
LINE
  5
144
100
AcDbEntity
  8
SEMA2D
100
AcDbLine
370
9
 62
7
  6
_SOLID
 10
3.3577524826
 20
4.6791769677
 30
0
 11
3.3337823146
 21
5.0736994415
 31
0
  0
LINE
  5
145
100
AcDbEntity
  8
SEMA2D
100
AcDbLine
370
9
 62
7
  6
_SOLID
 10
3.120817575
 20
5.0726920953
 30
0
 11
3.1225887
 21
5.0714556404
 31
0
  0
LINE
  5
146
100
AcDbEntity
  8
SEMA2D
100
AcDbLine
370
9
 62
7
  6
_SOLID
 10
3.3564080528
 20
4.6824446182
 30
0
 11
3.3328663151
 21
5.0699149867
 31
0
  0
LINE
  5
147
100
AcDbEntity
  8
SEMA2D
100
AcDbLine
370
9
 62
7
  6
_SOLID
 10
3.3573499477
 20
4.6824962571
 30
0
 11
3.33380821
 21
5.0699666257
 31
0
  0
LINE
  5
148
100
AcDbEntity
  8
SEMA2D
100
AcDbLine
370
9
 62
7
  6
_SOLID
 10
3.3287348065
 20
5.0878377015
 30
0
 11
3.32868547
 21
5.0887376
 31
0
  0
LINE
  5
149
100
AcDbEntity
  8
SEMA2D
100
AcDbLine
370
9
 62
7
  6
_SOLID
 10
3.0909292841
 20
5.0878083158
 30
0
 11
3.09
 21
5.0887376
 31
0
  0
LINE
  5
14A
100
AcDbEntity
  8
SEMA2D
100
AcDbLine
370
9
 62
7
  6
_SOLID
 10
3.2945059
 20
5.0468906201
 30
0
 11
3.2945059
 21
4.681934924
 31
0
  0
LINE
  5
14B
100
AcDbEntity
  8
SEMA2D
100
AcDbLine
370
9
 62
7
  6
_SOLID
 10
3.2946449671
 20
5.0758715509
 30
0
 11
3.2946449671
 21
5.0535398683
 31
0
  0
LINE
  5
14C
100
AcDbEntity
  8
SEMA2D
100
AcDbLine
370
9
 62
7
  6
_SOLID
 10
3.289463999
 20
5.0551221738
 30
0
 11
3.289463999
 21
5.0736341562
 31
0
  0
LINE
  5
14D
100
AcDbEntity
  8
SEMA2D
100
AcDbLine
370
9
 62
7
  6
_SOLID
 10
3.3293460787
 20
5.0535398683
 30
0
 11
3.3290836549
 21
5.0524572383
 31
0
  0
LINE
  5
14E
100
AcDbEntity
  8
SEMA2D
100
AcDbLine
370
9
 62
7
  6
_SOLID
 10
3.11290655
 20
4.686681121
 30
0
 11
3.114831087
 21
4.6879433425
 31
0
  0
LINE
  5
14F
100
AcDbEntity
  8
SEMA2D
100
AcDbLine
370
9
 62
7
  6
_SOLID
 10
3.328121754
 20
5.0758715509
 30
0
 11
3.3293460787
 21
5.0535398683
 31
0
  0
LINE
  5
150
100
AcDbEntity
  8
SEMA2D
100
AcDbLine
370
9
 62
7
  6
_SOLID
 10
3.3275401395
 20
5.0887376
 30
0
 11
3.3277654141
 21
5.08462859
 31
0
  0
LINE
  5
151
100
AcDbEntity
  8
SEMA2D
100
AcDbLine
370
9
 62
7
  6
_SOLID
 10
3.3284848654
 20
5.0887376
 30
0
 11
3.328707309
 21
5.0846802289
 31
0
  0
LINE
  5
152
100
AcDbEntity
  8
SEMA2D
100
AcDbLine
370
9
 62
7
  6
_SOLID
 10
3.3277160474
 20
5.0774024
 30
0
 11
3.327160104
 21
5.0875428061
 31
0
  0
LINE
  5
153
100
AcDbEntity
  8
SEMA2D
100
AcDbLine
370
9
 62
7
  6
_SOLID
 10
3.1013352
 20
5.0726920953
 30
0
 11
3.1032244
 21
5.0714556404
 31
0
  0
LINE
  5
154
100
AcDbEntity
  8
SEMA2D
100
AcDbLine
370
9
 62
7
  6
_SOLID
 10
3.1147039747
 20
5.0880738256
 30
0
 11
3.1153702086
 21
5.0875428061
 31
0
  0
LINE
  5
155
100
AcDbEntity
  8
SEMA2D
100
AcDbLine
370
9
 62
7
  6
_SOLID
 10
3.3493975427
 20
4.681931925
 30
0
 11
3.3290836549
 21
5.0524572383
 31
0
  0
LINE
  5
156
100
AcDbEntity
  8
SEMA2D
100
AcDbLine
370
9
 62
7
  6
_SOLID
 10
3.289463999
 20
5.0551221738
 30
0
 11
3.2946449671
 21
5.0535398683
 31
0
  0
LINE
  5
157
100
AcDbEntity
  8
SEMA2D
100
AcDbLine
370
9
 62
7
  6
_SOLID
 10
3.3277654141
 20
5.08462859
 30
0
 11
3.328707309
 21
5.0846802289
 31
0
  0
LINE
  5
158
100
AcDbEntity
  8
SEMA2D
100
AcDbLine
370
9
 62
7
  6
_SOLID
 10
3.1153702086
 20
5.0875428061
 30
0
 11
3.327160104
 21
5.0875428061
 31
0
  0
LINE
  5
159
100
AcDbEntity
  8
SEMA2D
100
AcDbLine
370
9
 62
7
  6
_SOLID
 10
3.1153702086
 20
5.0774024
 30
0
 11
3.3277160474
 21
5.0774024
 31
0
  0
LINE
  5
15A
100
AcDbEntity
  8
SEMA2D
100
AcDbLine
370
9
 62
7
  6
_SOLID
 10
3.1013352
 20
5.0726920953
 30
0
 11
3.1120390393
 21
5.0726920953
 31
0
  0
LINE
  5
15B
100
AcDbEntity
  8
SEMA2D
100
AcDbLine
370
9
 62
7
  6
_SOLID
 10
3.289463999
 20
5.0736341562
 30
0
 11
3.1379688455
 21
5.0736341562
 31
0
  0
LINE
  5
15C
100
AcDbEntity
  8
SEMA2D
100
AcDbLine
370
9
 62
7
  6
_SOLID
 10
3.2946449671
 20
5.0758715509
 30
0
 11
3.328121754
 21
5.0758715509
 31
0
  0
LINE
  5
15D
100
AcDbEntity
  8
SEMA2D
100
AcDbLine
370
9
 62
7
  6
_SOLID
 10
3.0909292841
 20
5.0878083158
 30
0
 11
3.1101206953
 21
5.0878083158
 31
0
  0
LINE
  5
15E
100
AcDbEntity
  8
SEMA2D
100
AcDbLine
370
9
 62
7
  6
_SOLID
 10
3.1101206953
 20
5.0878083158
 30
0
 11
3.1120390393
 21
5.0880738256
 31
0
  0
LINE
  5
15F
100
AcDbEntity
  8
SEMA2D
100
AcDbLine
370
9
 62
7
  6
_SOLID
 10
3.1101206953
 20
5.0878083158
 30
0
 11
3.1156689899
 21
5.0887376
 31
0
  0
LINE
  5
160
100
AcDbEntity
  8
SEMA2D
100
AcDbLine
370
9
 62
7
  6
_SOLID
 10
3.1120390393
 20
5.0880738256
 30
0
 11
3.1147039747
 21
5.0880738256
 31
0
  0
LINE
  5
161
100
AcDbEntity
  8
SEMA2D
100
AcDbLine
370
9
 62
7
  6
_SOLID
 10
3.09
 20
5.0907376
 30
0
 11
3.32868547
 21
5.0907376
 31
0
  0
LINE
  5
162
100
AcDbEntity
  8
SEMA2D
100
AcDbLine
370
9
 62
7
  6
_SOLID
 10
3.1147039747
 20
5.0880738256
 30
0
 11
3.1186670423
 21
5.0887376
 31
0
  0
LINE
  5
163
100
AcDbEntity
  8
SEMA2D
100
AcDbLine
370
9
 62
7
  6
_SOLID
 10
3.120817575
 20
5.0726920953
 30
0
 11
3.113969225
 21
5.0726920953
 31
0
  0
LINE
  5
164
100
AcDbEntity
  8
SEMA2D
100
AcDbLine
370
9
 62
7
  6
_SOLID
 10
3.3531593916
 20
4.6641512029
 30
0
 11
3.3574712391
 21
4.6824999384
 31
0
  0
LINE
  5
165
100
AcDbEntity
  8
SEMA2D
100
AcDbLine
370
9
 62
7
  6
_SOLID
 10
3.3578737738
 20
4.679180649
 30
0
 11
3.3535294811
 21
4.6610597981
 31
0
  0
LINE
  5
166
100
AcDbEntity
  8
SEMA2D
100
AcDbLine
370
9
 62
7
  6
_SOLID
 10
3.2945059
 20
5.0468906201
 30
0
 11
3.22956465
 21
5.0468906201
 31
0
  0
LINE
  5
167
100
AcDbEntity
  8
SEMA2D
100
AcDbLine
370
9
 62
7
  6
_SOLID
 10
3.3522174968
 20
4.664099564
 30
0
 11
3.3565293442
 21
4.6824482995
 31
0
  0
LINE
  5
168
100
AcDbEntity
  8
SEMA2D
100
AcDbLine
370
9
 62
7
  6
_SOLID
 10
3.3288068904
 20
5.0876691729
 30
0
 11
3.3337823146
 21
5.0736994415
 31
0
  0
LINE
  5
169
100
AcDbEntity
  8
SEMA2D
100
AcDbLine
370
9
 62
7
  6
_SOLID
 10
3.3328663151
 20
5.0699149867
 30
0
 11
3.3277654141
 21
5.08462859
 31
0
  0
LINE
  5
16A
100
AcDbEntity
  8
SEMA2D
100
AcDbLine
370
9
 62
7
  6
_SOLID
 10
3.33380821
 20
5.0699666257
 30
0
 11
3.328707309
 21
5.0846802289
 31
0
  0
LINE
  5
16B
100
AcDbEntity
  8
SEMA2D
100
AcDbLine
370
9
 62
7
  6
_SOLID
 10
3.21161725
 20
5.0468906201
 30
0
 11
3.1476206
 21
5.0468906201
 31
0
  0
LINE
  5
16C
100
AcDbEntity
  8
SEMA2D
100
AcDbLine
370
9
 62
7
  6
_SOLID
 10
3.3328663151
 20
5.0699149867
 30
0
 11
3.33380821
 21
5.0699666257
 31
0
  0
LINE
  5
16D
100
AcDbEntity
  8
SEMA2D
100
AcDbLine
370
9
 62
7
  6
_SOLID
 10
3.1032244
 20
5.0714556404
 30
0
 11
3.11290655
 21
5.0714556404
 31
0
  0
LINE
  5
16E
100
AcDbEntity
  8
SEMA2D
100
AcDbLine
370
9
 62
7
  6
_SOLID
 10
3.1225887
 20
5.0714556404
 30
0
 11
3.1367577
 21
5.0714556404
 31
0
  0
LINE
  5
16F
100
AcDbEntity
  8
SEMA2D
100
AcDbLine
370
9
 62
7
  6
_SOLID
 10
3.3288068904
 20
5.0876691729
 30
0
 11
3.3287348065
 21
5.0878377015
 31
0
  0
LINE
  5
170
100
AcDbEntity
  8
SEMA2D
100
AcDbLine
370
9
 62
7
  6
_SOLID
 10
3.3290836549
 20
5.0524572383
 30
0
 11
3.1400638
 21
5.0524572383
 31
0
  0
LINE
  5
171
100
AcDbEntity
  8
SEMA2D
100
AcDbLine
370
9
 62
7
  6
_SOLID
 10
3.2946449671
 20
5.0535398683
 30
0
 11
3.3293460787
 21
5.0535398683
 31
0
  0
LINE
  5
172
100
AcDbEntity
  8
SEMA2D
100
AcDbLine
370
9
 62
7
  6
_SOLID
 10
3.1379688455
 20
5.0551221738
 30
0
 11
3.289463999
 21
5.0551221738
 31
0
  0
LINE
  5
173
100
AcDbEntity
  8
SEMA2D
100
AcDbLine
370
9
 62
7
  6
_SOLID
 10
3.099446
 20
4.8753688
 30
0
 11
3.0997991914
 21
4.6899433389
 31
0
  0
LINE
  5
174
100
AcDbEntity
  8
SEMA2D
100
AcDbLine
370
9
 62
7
  6
_SOLID
 10
3.0928338
 20
4.9876654
 30
0
 11
3.0928338
 21
4.6873780841
 31
0
  0
LINE
  5
175
100
AcDbEntity
  8
SEMA2D
100
AcDbLine
370
9
 62
7
  6
_SOLID
 10
3.0941626002
 20
4.9848022334
 30
0
 11
3.0941626002
 21
4.8733688
 31
0
  0
LINE
  5
176
100
AcDbEntity
  8
SEMA2D
100
AcDbLine
370
9
 62
7
  6
_SOLID
 10
3.120817575
 20
4.9876654
 30
0
 11
3.11904645
 21
4.9848022334
 31
0
  0
LINE
  5
177
100
AcDbEntity
  8
SEMA2D
100
AcDbLine
370
9
 62
7
  6
_SOLID
 10
3.289463999
 20
5.0736341562
 30
0
 11
3.2946449671
 21
5.0758715509
 31
0
  0
LINE
  5
178
100
AcDbEntity
  8
SEMA2D
100
AcDbLine
370
9
 62
7
  6
_SOLID
 10
3.09
 20
4.6864488
 30
0
 11
3.09
 21
5.0887376
 31
0
  0
LINE
  5
179
100
AcDbEntity
  8
SEMA2D
100
AcDbLine
370
9
 62
7
  6
_SOLID
 10
3.0909292841
 20
4.6873780841
 30
0
 11
3.0909292841
 21
5.0878083158
 31
0
  0
LINE
  5
17A
100
AcDbEntity
  8
SEMA2D
100
AcDbLine
370
9
 62
7
  6
_SOLID
 10
3.099446
 20
4.8733688
 30
0
 11
3.099446
 21
4.9848022334
 31
0
  0
LINE
  5
17B
100
AcDbEntity
  8
SEMA2D
100
AcDbLine
370
9
 62
7
  6
_SOLID
 10
3.1120390393
 20
5.0726920953
 30
0
 11
3.1120390393
 21
5.0880738256
 31
0
  0
LINE
  5
17C
100
AcDbEntity
  8
SEMA2D
100
AcDbLine
370
9
 62
7
  6
_SOLID
 10
3.11290655
 20
4.686681121
 30
0
 11
3.11290655
 21
5.0714556404
 31
0
  0
LINE
  5
17D
100
AcDbEntity
  8
SEMA2D
100
AcDbLine
370
9
 62
7
  6
_SOLID
 10
3.113969225
 20
4.9876654
 30
0
 11
3.113969225
 21
5.0726920953
 31
0
  0
LINE
  5
17E
100
AcDbEntity
  8
SEMA2D
100
AcDbLine
370
9
 62
7
  6
_SOLID
 10
3.1193775669
 20
4.6899433393
 30
0
 11
3.11904645
 21
4.8753688
 31
0
  0
LINE
  5
17F
100
AcDbEntity
  8
SEMA2D
100
AcDbLine
370
9
 62
7
  6
_SOLID
 10
3.1013352
 20
4.9876654
 30
0
 11
3.1013352
 21
5.0726920953
 31
0
  0
LINE
  5
180
100
AcDbEntity
  8
SEMA2D
100
AcDbLine
370
9
 62
7
  6
_SOLID
 10
3.1032244
 20
4.686681121
 30
0
 11
3.1032244
 21
5.0714556404
 31
0
  0
LINE
  5
181
100
AcDbEntity
  8
SEMA2D
100
AcDbLine
370
9
 62
7
  6
_SOLID
 10
3.0939141772
 20
4.6899433407
 30
0
 11
3.0941626002
 21
4.8753688
 31
0
  0
LINE
  5
182
100
AcDbEntity
  8
SEMA2D
100
AcDbLine
370
9
 62
7
  6
_SOLID
 10
3.1013352
 20
4.9876654
 30
0
 11
3.099446
 21
4.9848022334
 31
0
  0
LINE
  5
183
100
AcDbEntity
  8
SEMA2D
100
AcDbLine
370
9
 62
7
  6
_SOLID
 10
3.3495070274
 20
4.681934924
 30
0
 11
3.2945059
 21
4.681934924
 31
0
  0
LINE
  5
184
100
AcDbEntity
  8
SEMA2D
100
AcDbLine
370
9
 62
7
  6
_SOLID
 10
3.22956465
 20
4.681934924
 30
0
 11
3.21161725
 21
4.681934924
 31
0
  0
LINE
  5
185
100
AcDbEntity
  8
SEMA2D
100
AcDbLine
370
9
 62
7
  6
_SOLID
 10
3.1476206
 20
4.681934924
 30
0
 11
3.1400638
 21
4.681934924
 31
0
  0
LINE
  5
186
100
AcDbEntity
  8
SEMA2D
100
AcDbLine
370
9
 62
7
  6
_SOLID
 10
3.3565293442
 20
4.6824482995
 30
0
 11
3.3574712391
 21
4.6824999384
 31
0
  0
LINE
  5
187
100
AcDbEntity
  8
SEMA2D
100
AcDbLine
370
9
 62
7
  6
_SOLID
 10
3.1362854
 20
4.6606611343
 30
0
 11
3.1388652895
 21
4.6606611343
 31
0
  0
LINE
  5
188
100
AcDbEntity
  8
SEMA2D
100
AcDbLine
370
9
 62
7
  6
_SOLID
 10
3.1367577
 20
4.6608057574
 30
0
 11
3.136517721
 21
4.6608057574
 31
0
  0
LINE
  5
189
100
AcDbEntity
  8
SEMA2D
100
AcDbLine
370
9
 62
7
  6
_SOLID
 10
3.1193811383
 20
4.6879433425
 30
0
 11
3.1225887
 21
4.686681121
 31
0
  0
LINE
  5
18A
100
AcDbEntity
  8
SEMA2D
100
AcDbLine
370
9
 62
7
  6
_SOLID
 10
3.136517721
 20
4.6826704
 30
0
 11
3.1362854
 21
4.6826704
 31
0
  0
LINE
  5
18B
100
AcDbEntity
  8
SEMA2D
100
AcDbLine
370
9
 62
7
  6
_SOLID
 10
3.0939114977
 20
4.6879433425
 30
0
 11
3.0998030009
 21
4.6879433425
 31
0
  0
LINE
  5
18C
100
AcDbEntity
  8
SEMA2D
100
AcDbLine
370
9
 62
7
  6
_SOLID
 10
3.114831087
 20
4.6879433425
 30
0
 11
3.1193811383
 21
4.6879433425
 31
0
  0
LINE
  5
18D
100
AcDbEntity
  8
SEMA2D
100
AcDbLine
370
9
 62
7
  6
_SOLID
 10
3.1367577
 20
5.0714556404
 30
0
 11
3.1379688455
 21
5.0736341562
 31
0
  0
LINE
  5
18E
100
AcDbEntity
  8
SEMA2D
100
AcDbLine
370
9
 62
7
  6
_SOLID
 10
3.0909292841
 20
4.6873780841
 30
0
 11
3.0928338
 21
4.6873780841
 31
0
  0
LINE
  5
18F
100
AcDbEntity
  8
SEMA2D
100
AcDbLine
370
9
 62
7
  6
_SOLID
 10
3.132507
 20
4.6864488
 30
0
 11
3.09
 21
4.6864488
 31
0
  0
LINE
  5
190
100
AcDbEntity
  8
SEMA2D
100
AcDbLine
370
9
 62
7
  6
_SOLID
 10
3.1032244
 20
4.686681121
 30
0
 11
3.11290655
 21
4.686681121
 31
0
  0
LINE
  5
191
100
AcDbEntity
  8
SEMA2D
100
AcDbLine
370
9
 62
7
  6
_SOLID
 10
3.1225887
 20
4.686681121
 30
0
 11
3.132507
 21
4.686681121
 31
0
  0
LINE
  5
192
100
AcDbEntity
  8
SEMA2D
100
AcDbLine
370
9
 62
7
  6
_SOLID
 10
3.099446
 20
4.8753688
 30
0
 11
3.0941626002
 21
4.8753688
 31
0
  0
LINE
  5
193
100
AcDbEntity
  8
SEMA2D
100
AcDbLine
370
9
 62
7
  6
_SOLID
 10
3.1150319
 20
4.9848022334
 30
0
 11
3.113969225
 21
4.9876654
 31
0
  0
LINE
  5
194
100
AcDbEntity
  8
SEMA2D
100
AcDbLine
370
9
 62
7
  6
_SOLID
 10
3.19839285
 20
4.6612328028
 30
0
 11
3.19839285
 21
5.0443595721
 31
0
  0
LINE
  5
195
100
AcDbEntity
  8
SEMA2D
100
AcDbLine
370
9
 62
7
  6
_SOLID
 10
3.21161725
 20
5.0468906201
 30
0
 11
3.21161725
 21
4.681934924
 31
0
  0
LINE
  5
196
100
AcDbEntity
  8
SEMA2D
100
AcDbLine
370
9
 62
7
  6
_SOLID
 10
3.1150319
 20
4.8753688
 30
0
 11
3.11904645
 21
4.8753688
 31
0
  0
LINE
  5
197
100
AcDbEntity
  8
SEMA2D
100
AcDbLine
370
9
 62
7
  6
_SOLID
 10
3.327160104
 20
5.0875428061
 30
0
 11
3.3275401395
 21
5.0887376
 31
0
  0
LINE
  5
198
100
AcDbEntity
  8
SEMA2D
100
AcDbLine
370
9
 62
7
  6
_SOLID
 10
3.0909292841
 20
4.6873780841
 30
0
 11
3.09
 21
4.6864488
 31
0
  0
LINE
  5
199
100
AcDbEntity
  8
SEMA2D
100
AcDbLine
370
9
 62
7
  6
_SOLID
 10
3.1400638
 20
5.0524572383
 30
0
 11
3.1379688455
 21
5.0551221738
 31
0
  0
LINE
  5
19A
100
AcDbEntity
  8
SEMA2D
100
AcDbLine
370
9
 62
7
  6
_SOLID
 10
3.24278905
 20
4.6612328028
 30
0
 11
3.24278905
 21
5.0443595721
 31
0
  0
LINE
  5
19B
100
AcDbEntity
  8
SEMA2D
100
AcDbLine
370
9
 62
7
  6
_SOLID
 10
3.3524422536
 20
4.66
 30
0
 11
3.3516361876
 21
4.6612328028
 31
0
  0
LINE
  5
19C
100
AcDbEntity
  8
SEMA2D
100
AcDbLine
370
9
 62
7
  6
_SOLID
 10
3.22956465
 20
5.0468906201
 30
0
 11
3.22956465
 21
4.681934924
 31
0
  0
LINE
  5
19D
100
AcDbEntity
  8
SEMA2D
100
AcDbLine
370
9
 62
7
  6
_SOLID
 10
3.0928338
 20
4.9876654
 30
0
 11
3.0941626002
 21
4.9848022334
 31
0
  0
LINE
  5
19E
100
AcDbEntity
  8
SEMA2D
100
AcDbLine
370
9
 62
7
  6
_SOLID
 10
3.1225887
 20
4.686681121
 30
0
 11
3.1225887
 21
5.0714556404
 31
0
  0
LINE
  5
19F
100
AcDbEntity
  8
SEMA2D
100
AcDbLine
370
9
 62
7
  6
_SOLID
 10
3.1148332299
 20
4.6899433414
 30
0
 11
3.1150319
 21
4.8753688
 31
0
  0
LINE
  5
1A0
100
AcDbEntity
  8
SEMA2D
100
AcDbLine
370
9
 62
7
  6
_SOLID
 10
3.132507
 20
4.686681121
 30
0
 11
3.132507
 21
4.6864488
 31
0
  0
LINE
  5
1A1
100
AcDbEntity
  8
SEMA2D
100
AcDbLine
370
9
 62
7
  6
_SOLID
 10
3.120817575
 20
4.9876654
 30
0
 11
3.120817575
 21
5.0726920953
 31
0
  0
LINE
  5
1A2
100
AcDbEntity
  8
SEMA2D
100
AcDbLine
370
9
 62
7
  6
_SOLID
 10
3.1150319
 20
4.8733688
 30
0
 11
3.1150319
 21
4.9848022334
 31
0
  0
LINE
  5
1A3
100
AcDbEntity
  8
SEMA2D
100
AcDbLine
370
9
 62
7
  6
_SOLID
 10
3.1153702086
 20
5.0875428061
 30
0
 11
3.1153702086
 21
5.0774024
 31
0
  0
LINE
  5
1A4
100
AcDbEntity
  8
SEMA2D
100
AcDbLine
370
9
 62
7
  6
_SOLID
 10
3.11904645
 20
4.8733688
 30
0
 11
3.11904645
 21
4.9848022334
 31
0
  0
LINE
  5
1A5
100
AcDbEntity
  8
SEMA2D
100
AcDbLine
370
9
 62
7
  6
_SOLID
 10
3.1362854
 20
4.66
 30
0
 11
3.1362854
 21
4.6826704
 31
0
  0
LINE
  5
1A6
100
AcDbEntity
  8
SEMA2D
100
AcDbLine
370
9
 62
7
  6
_SOLID
 10
3.1400638
 20
4.681934924
 30
0
 11
3.1400638
 21
5.0524572383
 31
0
  0
LINE
  5
1A7
100
AcDbEntity
  8
SEMA2D
100
AcDbLine
370
9
 62
7
  6
_SOLID
 10
3.14322821
 20
4.681934924
 30
0
 11
3.14322821
 21
4.6612328028
 31
0
  0
LINE
  5
1A8
100
AcDbEntity
  8
SEMA2D
100
AcDbLine
370
9
 62
7
  6
_SOLID
 10
3.1476206
 20
4.681934924
 30
0
 11
3.1476206
 21
5.0468906201
 31
0
  0
LINE
  5
1A9
100
AcDbEntity
  8
SEMA2D
100
AcDbLine
370
9
 62
7
  6
_SOLID
 10
3.1388652895
 20
4.66
 30
0
 11
3.1388652895
 21
4.6606611343
 31
0
  0
LINE
  5
1AA
100
AcDbEntity
  8
SEMA2D
100
AcDbLine
370
9
 62
7
  6
_SOLID
 10
3.136517721
 20
4.6608057574
 30
0
 11
3.136517721
 21
4.6826704
 31
0
  0
LINE
  5
1AB
100
AcDbEntity
  8
SEMA2D
100
AcDbLine
370
9
 62
7
  6
_SOLID
 10
3.1367577
 20
4.6608057574
 30
0
 11
3.1367577
 21
5.0714556404
 31
0
  0
LINE
  5
1AC
100
AcDbEntity
  8
SEMA2D
100
AcDbLine
370
9
 62
7
  6
_SOLID
 10
3.1379688455
 20
5.0551221738
 30
0
 11
3.1379688455
 21
5.0736341562
 31
0
  0
ARC
  5
1AD
100
AcDbEntity
  8
SEMA2D
100
AcDbCircle
370
9
 62
7
  6
_SOLID
 10
3.173006725
 20
4.685386125
 30
0
 40
0.0256196434999998
100
AcDbArc
 50
187.741803154684
 51
352.258196845316
  0
ARC
  5
1AE
100
AcDbEntity
  8
SEMA2D
100
AcDbCircle
370
9
 62
7
  6
_SOLID
 10
3.268647475
 20
4.685858425
 30
0
 40
0.0261543878000001
100
AcDbArc
 50
188.627686169741
 51
351.372313830259
  0
LINE
  5
1AF
100
AcDbEntity
  8
SEMA2D
100
AcDbLine
370
9
 62
7
  6
_DOT
 10
3.09
 20
5.1423961433
 30
0
 11
3.09
 21
5.2613961433
 31
0
  0
LINE
  5
1B0
100
AcDbEntity
  8
SEMA2D
100
AcDbLine
370
9
 62
7
  6
_DOT
 10
3.3284848654
 20
5.0887376
 30
0
 11
3.32868547
 21
5.0907376
 31
0
  0
LINE
  5
1B1
100
AcDbEntity
  8
SEMA2D
100
AcDbLine
370
9
 62
7
  6
_SOLID
 10
3.09
 20
5.0907376
 30
0
 11
3.09
 21
5.0878083158
 31
0
  0
LINE
  5
1B2
100
AcDbEntity
  8
SEMA2D
100
AcDbLine
370
9
 62
7
  6
_SOLID
 10
3.5828329049
 20
5.0878083158
 30
0
 11
3.5762207049
 21
5.0887376
 31
0
  0
LINE
  5
1B3
100
AcDbEntity
  8
SEMA2D
100
AcDbLine
370
9
 62
7
  6
_SOLID
 10
3.5932218482
 20
5.0886597005
 30
0
 11
3.6043959237
 21
5.0876805697
 31
0
  0
ARC
  5
1B4
100
AcDbEntity
  8
SEMA2D
100
AcDbCircle
370
9
 62
7
  6
_SOLID
 10
3.604187828
 20
5.0853057309
 30
0
 40
0.00238393849999974
100
AcDbArc
 50
0
 51
84.992235526398
  0
LINE
  5
1B5
100
AcDbEntity
  8
SEMA2D
100
AcDbLine
370
9
 62
7
  6
_SOLID
 10
3.5724423049
 20
5.0887376
 30
0
 11
3.5932728675
 21
5.0887376
 31
0
  0
LINE
  5
1B6
100
AcDbEntity
  8
SEMA2D
100
AcDbLine
370
9
 62
7
  6
_SOLID
 10
3.5648855049
 20
5.0839965398
 30
0
 11
3.5055717665
 21
5.0736870835
 31
0
  0
LINE
  5
1B7
100
AcDbEntity
  8
SEMA2D
100
AcDbLine
370
9
 62
7
  6
_SOLID
 10
3.5648855049
 20
5.086730961
 30
0
 11
3.5724423049
 21
5.087793
 31
0
  0
LINE
  5
1B8
100
AcDbEntity
  8
SEMA2D
100
AcDbLine
370
9
 62
7
  6
_SOLID
 10
3.5828329049
 20
5.0880738256
 30
0
 11
3.5979465049
 21
5.0880738256
 31
0
  0
LINE
  5
1B9
100
AcDbEntity
  8
SEMA2D
100
AcDbLine
370
9
 62
7
  6
_SOLID
 10
3.5724423049
 20
4.6609446
 30
0
 11
3.5648855049
 21
4.6609446
 31
0
  0
LINE
  5
1BA
100
AcDbEntity
  8
SEMA2D
100
AcDbLine
370
9
 62
7
  6
_SOLID
 10
3.5644132049
 20
4.6614152924
 30
0
 11
3.5719407254
 21
4.6610150924
 31
0
  0
LINE
  5
1BB
100
AcDbEntity
  8
SEMA2D
100
AcDbLine
370
9
 62
7
  6
_SOLID
 10
3.5644132049
 20
4.6609777887
 30
0
 11
3.5648855049
 21
4.6609446
 31
0
  0
LINE
  5
1BC
100
AcDbEntity
  8
SEMA2D
100
AcDbLine
370
9
 62
7
  6
_SOLID
 10
3.5762207049
 20
4.66
 30
0
 11
3.5648855049
 21
4.66
 31
0
  0
LINE
  5
1BD
100
AcDbEntity
  8
SEMA2D
100
AcDbLine
370
9
 62
7
  6
_SOLID
 10
3.5762207049
 20
4.6606611343
 30
0
 11
3.5827549058
 21
4.6612328028
 31
0
  0
LINE
  5
1BE
100
AcDbEntity
  8
SEMA2D
100
AcDbLine
370
9
 62
7
  6
_SOLID
 10
3.5644132049
 20
4.6610109774
 30
0
 11
3.550244214
 21
4.6630022992
 31
0
  0
LINE
  5
1BF
100
AcDbEntity
  8
SEMA2D
100
AcDbLine
370
9
 62
7
  6
_SOLID
 10
3.5724423049
 20
4.6864488
 30
0
 11
3.5762207049
 21
4.6864488
 31
0
  0
LINE
  5
1C0
100
AcDbEntity
  8
SEMA2D
100
AcDbLine
370
9
 62
7
  6
_SOLID
 10
3.5648855049
 20
4.6884554389
 30
0
 11
3.5724423049
 21
4.6873934
 31
0
  0
LINE
  5
1C1
100
AcDbEntity
  8
SEMA2D
100
AcDbLine
370
9
 62
7
  6
_SOLID
 10
3.5644132049
 20
5.0568938825
 30
0
 11
3.5648855049
 21
5.0570657856
 31
0
  0
LINE
  5
1C2
100
AcDbEntity
  8
SEMA2D
100
AcDbLine
370
9
 62
7
  6
_SOLID
 10
3.5648855049
 20
4.6826704
 30
0
 11
3.5778737549
 21
4.6826704
 31
0
  0
LINE
  5
1C3
100
AcDbEntity
  8
SEMA2D
100
AcDbLine
370
9
 62
7
  6
_SOLID
 10
3.5724423049
 20
4.6609446
 30
0
 11
3.5719407254
 21
4.6610150924
 31
0
  0
LINE
  5
1C4
100
AcDbEntity
  8
SEMA2D
100
AcDbLine
370
9
 62
7
  6
_SOLID
 10
3.4606672078
 20
4.6790301489
 30
0
 11
3.5502442049
 21
4.6630794336
 31
0
  0
LINE
  5
1C5
100
AcDbEntity
  8
SEMA2D
100
AcDbLine
370
9
 62
7
  6
_SOLID
 10
3.5762207049
 20
4.6864488
 30
0
 11
3.5868549276
 21
4.6879433425
 31
0
  0
LINE
  5
1C6
100
AcDbEntity
  8
SEMA2D
100
AcDbLine
370
9
 62
7
  6
_SOLID
 10
3.5955850049
 20
5.0758715509
 30
0
 11
3.5955850049
 21
5.0535398683
 31
0
  0
LINE
  5
1C7
100
AcDbEntity
  8
SEMA2D
100
AcDbLine
370
9
 62
7
  6
_SOLID
 10
3.6065717665
 20
5.0853057309
 30
0
 11
3.6065717665
 21
5.07935412
 31
0
  0
ARC
  5
1C8
100
AcDbEntity
  8
SEMA2D
100
AcDbCircle
370
9
 62
7
  6
_SOLID
 10
3.6041947331
 20
5.07935412
 30
0
 40
0.00237703340000017
100
AcDbArc
 50
281.222952954034
 51
0
  0
LINE
  5
1C9
100
AcDbEntity
  8
SEMA2D
100
AcDbLine
370
9
 62
7
  6
_SOLID
 10
3.6017249049
 20
4.681934924
 30
0
 11
3.6017249049
 21
5.0524572383
 31
0
  0
LINE
  5
1CA
100
AcDbEntity
  8
SEMA2D
100
AcDbLine
370
9
 62
7
  6
_SOLID
 10
3.5868649275
 20
4.6899433175
 30
0
 11
3.5877920549
 21
4.8753688
 31
0
  0
LINE
  5
1CB
100
AcDbEntity
  8
SEMA2D
100
AcDbLine
370
9
 62
7
  6
_SOLID
 10
3.5866113049
 20
5.0551221738
 30
0
 11
3.5866113049
 21
5.0736341562
 31
0
  0
LINE
  5
1CC
100
AcDbEntity
  8
SEMA2D
100
AcDbLine
370
9
 62
7
  6
_SOLID
 10
3.5877920549
 20
4.9848022334
 30
0
 11
3.5877920549
 21
4.8733688
 31
0
  0
LINE
  5
1CD
100
AcDbEntity
  8
SEMA2D
100
AcDbLine
370
9
 62
7
  6
_SOLID
 10
3.5648855049
 20
5.0293543524
 30
0
 11
3.5644132049
 21
5.0301724
 31
0
  0
LINE
  5
1CE
100
AcDbEntity
  8
SEMA2D
100
AcDbLine
370
9
 62
7
  6
_SOLID
 10
3.6017249049
 20
5.0524572383
 30
0
 11
3.5866113049
 21
5.0551221738
 31
0
  0
LINE
  5
1CF
100
AcDbEntity
  8
SEMA2D
100
AcDbLine
370
9
 62
7
  6
_SOLID
 10
3.5648855049
 20
5.0615130645
 30
0
 11
3.5489122331
 21
5.0643295833
 31
0
  0
LINE
  5
1D0
100
AcDbEntity
  8
SEMA2D
100
AcDbLine
370
9
 62
7
  6
_SOLID
 10
3.5648855049
 20
4.6771471966
 30
0
 11
3.5502442061
 21
4.6726709023
 31
0
  0
LINE
  5
1D1
100
AcDbEntity
  8
SEMA2D
100
AcDbLine
370
9
 62
7
  6
_SOLID
 10
3.5648855049
 20
5.0767290769
 30
0
 11
3.5489287158
 21
5.0724534682
 31
0
  0
LINE
  5
1D2
100
AcDbEntity
  8
SEMA2D
100
AcDbLine
370
9
 62
7
  6
_SOLID
 10
3.5828329049
 20
4.9876654
 30
0
 11
3.5877920549
 21
4.9848022334
 31
0
  0
LINE
  5
1D3
100
AcDbEntity
  8
SEMA2D
100
AcDbLine
370
9
 62
7
  6
_SOLID
 10
3.6046573687
 20
5.077022542
 30
0
 11
3.5828329049
 21
5.0726920953
 31
0
  0
LINE
  5
1D4
100
AcDbEntity
  8
SEMA2D
100
AcDbLine
370
9
 62
7
  6
_SOLID
 10
3.5644132049
 20
4.6831486464
 30
0
 11
3.5648855049
 21
4.683293043
 31
0
  0
LINE
  5
1D5
100
AcDbEntity
  8
SEMA2D
100
AcDbLine
370
9
 62
7
  6
_SOLID
 10
3.5828329049
 20
4.6873780841
 30
0
 11
3.5828329049
 21
5.0880738256
 31
0
  0
LINE
  5
1D6
100
AcDbEntity
  8
SEMA2D
100
AcDbLine
370
9
 62
7
  6
_SOLID
 10
3.5502442049
 20
4.6726730128
 30
0
 11
3.5502442049
 21
4.6630002105
 31
0
  0
LINE
  5
1D7
100
AcDbEntity
  8
SEMA2D
100
AcDbLine
370
9
 62
7
  6
_SOLID
 10
3.5644132049
 20
4.6609777887
 30
0
 11
3.5644132049
 21
4.6831486464
 31
0
  0
LINE
  5
1D8
100
AcDbEntity
  8
SEMA2D
100
AcDbLine
370
9
 62
7
  6
_SOLID
 10
3.5644132049
 20
5.0301724
 30
0
 11
3.5644132049
 21
5.0568938825
 31
0
  0
LINE
  5
1D9
100
AcDbEntity
  8
SEMA2D
100
AcDbLine
370
9
 62
7
  6
_SOLID
 10
3.5488855049
 20
5.0726794
 30
0
 11
3.5488855049
 21
5.064178
 31
0
  0
LINE
  5
1DA
100
AcDbEntity
  8
SEMA2D
100
AcDbLine
370
9
 62
7
  6
_SOLID
 10
3.5648855049
 20
5.0517716475
 30
0
 11
3.5644132049
 21
5.0509536
 31
0
  0
LINE
  5
1DB
100
AcDbEntity
  8
SEMA2D
100
AcDbLine
370
9
 62
7
  6
_SOLID
 10
3.4608921858
 20
4.6790174548
 30
0
 11
3.5055717665
 21
5.0736870835
 31
0
  0
LINE
  5
1DC
100
AcDbEntity
  8
SEMA2D
100
AcDbLine
370
9
 62
7
  6
_SOLID
 10
3.5648855049
 20
4.6609446
 30
0
 11
3.5648855049
 21
4.66
 31
0
  0
LINE
  5
1DD
100
AcDbEntity
  8
SEMA2D
100
AcDbLine
370
9
 62
7
  6
_SOLID
 10
3.5724423049
 20
4.66
 30
0
 11
3.5724423049
 21
5.0887376
 31
0
  0
LINE
  5
1DE
100
AcDbEntity
  8
SEMA2D
100
AcDbLine
370
9
 62
7
  6
_SOLID
 10
3.5762207049
 20
4.66
 30
0
 11
3.5762207049
 21
5.0887376
 31
0
  0
LINE
  5
1DF
100
AcDbEntity
  8
SEMA2D
100
AcDbLine
370
9
 62
7
  6
_SOLID
 10
3.5778737549
 20
4.6608057574
 30
0
 11
3.5778737549
 21
4.686681121
 31
0
  0
LINE
  5
1E0
100
AcDbEntity
  8
SEMA2D
100
AcDbLine
370
9
 62
7
  6
_SOLID
 10
3.5648855049
 20
4.6771471966
 30
0
 11
3.5648855049
 21
5.086730961
 31
0
  0
ARC
  5
1E1
100
AcDbEntity
  8
SEMA2D
100
AcDbCircle
370
9
 62
7
  6
_SOLID
 10
3.5821919888
 20
4.6807910826
 30
0
 40
0.0195663789
100
AcDbArc
 50
271.648604443376
 51
3.35139534783718
  0
LINE
  5
1E2
100
AcDbEntity
  8
SEMA2D
100
AcDbLine
370
9
 62
7
  6
_SOLID
 10
3.4999473157
 20
5.0240044351
 30
0
 11
3.5007347388
 21
5.0309600059
 31
0
  0
LINE
  5
1E3
100
AcDbEntity
  8
SEMA2D
100
AcDbLine
370
9
 62
7
  6
_SOLID
 10
3.4999473157
 20
5.0240044351
 30
0
 11
3.4991598926
 21
5.0170488643
 31
0
  0
LINE
  5
1E4
100
AcDbEntity
  8
SEMA2D
100
AcDbLine
370
9
 62
7
  6
_DOT
 10
3.5055717665
 20
5.0736870835
 30
0
 11
3.4999473157
 21
5.0240044351
 31
0
  0
LINE
  5
1E5
100
AcDbEntity
  8
SEMA2D
100
AcDbLine
370
9
 62
7
  6
_DOT
 10
3.6065717665
 20
5.1096870835
 30
0
 11
3.6065717665
 21
5.0875428061
 31
0
  0
LINE
  5
1E6
100
AcDbEntity
  8
SEMA2D
100
AcDbLine
370
9
 62
7
  6
_DOT
 10
3.5055717665
 20
5.1096870835
 30
0
 11
3.5055717665
 21
5.0736870835
 31
0
  0
LINE
  5
1E7
100
AcDbEntity
  8
SEMA2D
100
AcDbLine
370
9
 62
7
  6
_DOT
 10
3.5488855049
 20
5.0887376
 30
0
 11
3.5488855049
 21
5.0726794
 31
0
  0
LINE
  5
1E8
100
AcDbEntity
  8
SEMA2D
100
AcDbLine
370
9
 62
7
  6
_DOT
 10
3.4577072402
 20
4.660286301
 30
0
 11
3.4608921858
 21
4.6790174548
 31
0
  0
LINE
  5
1E9
100
AcDbEntity
  8
SEMA2D
100
AcDbLine
370
9
 62
7
  6
_DOT
 10
3.5602356609
 20
4.6428529148
 30
0
 11
3.5633486017
 21
4.6611605976
 31
0
  0
LINE
  5
1EA
100
AcDbEntity
  8
SEMA2D
100
AcDbLine
370
9
 62
7
  6
_DOT
 10
3.5895253782
 20
4.6134240799
 30
0
 11
3.6014464197
 21
4.68037099
 31
0
  0
LINE
  5
1EB
100
AcDbEntity
  8
SEMA2D
100
AcDbLine
370
9
 62
7
  6
_DOT
 10
3.4533042116
 20
4.6376805868
 30
0
 11
3.4577072402
 21
4.660286301
 31
0
  0
LINE
  5
1EC
100
AcDbEntity
  8
SEMA2D
100
AcDbLine
370
9
 62
7
  6
_DOT
 10
3.6192728675
 20
5.0887376
 30
0
 11
3.5979465049
 21
5.0880738256
 31
0
  0
LINE
  5
1ED
100
AcDbEntity
  8
SEMA2D
100
AcDbLine
370
9
 62
7
  6
_DOT
 10
3.6192728675
 20
5.0607376
 30
0
 11
3.5648855049
 21
5.0607376
 31
0
  0
LINE
  5
1EE
100
AcDbEntity
  8
SEMA2D
100
AcDbLine
370
9
 62
7
  6
_DOT
 10
3.4807304423
 20
5.0764993089
 30
0
 11
3.5055717665
 21
5.0736870835
 31
0
  0
LINE
  5
1EF
100
AcDbEntity
  8
SEMA2D
100
AcDbLine
370
9
 62
7
  6
_DOT
 10
3.4360508616
 20
4.6818296802
 30
0
 11
3.4606686357
 21
4.6790427624
 31
0
  0
CIRCLE
  5
1F0
100
AcDbEntity
  8
SEMA2D
100
AcDbCircle
370
9
 62
7
  6
_SOLID
 10
3.2205862327
 20
5.0458631413
 30
0
 40
0.00499999999999989
  0
LINE
  5
1F1
100
AcDbEntity
  8
SEMA2D
100
AcDbLine
370
9
 62
7
  6
_DOT
 10
3.09
 20
5.1056870835
 30
0
 11
3.09
 21
5.0907376
 31
0
  0
LINE
  5
1F2
100
AcDbEntity
  8
SEMA2D
100
AcDbLine
370
9
 62
7
  6
_DOT
 10
3.2205862327
 20
5.1056870835
 30
0
 11
3.2205862327
 21
5.0458631413
 31
0
  0
ENDSEC
  0
SECTION
  2
OBJECTS
  0
DICTIONARY
  5
203
100
AcDbDictionary
  3
ACAD_GROUP
350
204
  3
ACAD_MATERIAL
350
205
  3
ACAD_WIPEOUT_VARS
350
206
  3
ACAD_MLINESTYLE
350
207
  3
ACAD_LAYOUT
350
208
  0
DICTIONARY
  5
204
330
203
100
AcDbDictionary
  0
DICTIONARY
  5
205
330
203
100
AcDbDictionary
  0
WIPEOUTVARIABLES
  5
206
330
203
100
AcDbWipeoutVariables
 70
1
  0
DICTIONARY
  5
207
330
203
100
AcDbDictionary
  3
STANDARD
350
209
  0
MLINESTYLE
  5
209
100
AcDbMlineStyle
  2
STANDARD
 70
0
  3

 62
256
 51
90
 52
90
 71
2
 49
0.5
 62
256
  6
ByLayer
 49
-0.5
 62
256
  6
ByLayer
  0
DICTIONARY
  5
208
100
AcDbDictionary
281
1
  3
Model
350
1F3
  0
LAYOUT
  5
1F3
102
{ACAD_REACTORS
330
208
102
}
330
208
100
AcDbPlotSettings
  1

  2
none_device
  4

  6

 40
0
 41
0
 42
0
 43
0
 44
0
 45
0
 46
0
 47
0
 48
0
 49
0
 70
1712
 72
1
 73
0
 74
5
 75
16
 76
0
 77
0
 78
100
140
0
141
0
142
1
143
1
147
1
148
0
149
0
100
AcDbLayout
  1
Model
 70
1
 71
1
 10
3.0316
 20
4.60515416749147
 11
3.63184411223513
 21
5.29067874331112
 12
0
 22
0
 32
0
 14
3.0316
 24
4.60515416749147
 34
0
 15
3.63184411223513
 25
5.29067874331112
 35
0
146
0
 13
0
 23
0
 33
0
 16
1
 26
0
 36
0
 17
0
 27
1
 37
0
 76
0
330
2A
  0
DICTIONARY
  5
20A
100
AcDbDictionary
280
1
  3
XINFO
360
20B
  0
XRECORD
  5
20B
102
{ACAD_REACTORS
330
20A
102
}
330
20A
100
AcDbXrecord
280
0
310
0000000002001400
311
7ABB6421C4B37047
  0
ENDSEC
  0
EOF
