999
Created by Soft Gold Ltd. www.cadsofttools.com
999

  0
SECTION
  2
HEADER
  9
$ACADVER
  1
AC1015
  9
$CLAYER
  8
0
  9
$CELTYPE
  6
BYLAYER
  9
$CELTSCALE
 40
1
  9
$CELWEIGHT
370
-1
  9
$DIMSTYLE
  2
STANDARD
  9
$DIMALT
 70
0
  9
$DIMALTF
 40
1
  9
$DIMAPOST
  1

  9
$DIMASZ
 40
0.18
  9
$DIMCLRD
 70
0
  9
$DIMCLRE
 70
0
  9
$DIMCLRT
 70
0
  9
$DIMEXE
 40
0.18
  9
$DIMEXO
 40
0.0625
  9
$DIMGAP
 40
0.0625
  9
$DIMLFAC
 40
1
  9
$DIMDEC
 70
4
  9
$DIMTAD
 70
0
  9
$DIMTIH
 70
1
  9
$DIMTIX
 70
0
  9
$DIMTOH
 70
1
  9
$DIMPOST
  1

  9
$DIMBLK
  1
_CLOSEDFILLED
  9
$DIMBLK1
  1

  9
$DIMBLK2
  1

  9
$DIMLDRBLK
  1

  9
$DIMTXT
 40
0.18
  9
$DIMTXSTY
  7
STANDARD
  9
$TEXTSIZE
 40
0.18
  9
$TEXTSTYLE
  7
STANDARD
  9
$HANDSEED
  5
0000000000000125
  9
$FILLETRAD
 40
0.5
  9
$INSUNITS
 70
4
  9
$LIMMIN
 10
0.0443317405
 20
0.3589128316
  9
$LIMMAX
 10
0.5755817405
 20
0.5676628316
  9
$LTSCALE
 40
1
  9
$MEASUREMENT
 70
0
  9
$PDMODE
 70
0
  9
$PDSIZE
 40
0
  9
$TILEMODE
 70
1
  9
$UCSORG
 10
0
 20
0
 30
0
  9
$UCSXDIR
 10
1
 20
0
 30
0
  9
$UCSYDIR
 10
0
 20
1
 30
0
  0
ENDSEC
  0
SECTION
  2
CLASSES
  0
CLASS
  1
IMAGE
  2
AcDbRasterImage
  3
ISM
 90
2175
280
0
281
1
  0
CLASS
  1
IMAGEDEF
  2
AcDbRasterImageDef
  3
ISM
 90
0
280
0
281
0
  0
CLASS
  1
WIPEOUT
  2
AcDbWipeout
  3
"WipeOut"
 90
2175
280
0
281
1
  0
CLASS
  1
WIPEOUTVARIABLES
  2
AcDbWipeoutVariables
  3
"WipeOut"
 90
0
280
0
281
0
  0
CLASS
  1
MPOLYGON
  2
AcDbMPolygon
  3
"AcMPolygonObj15"
 90
3071
280
0
281
1
  0
ENDSEC
  0
SECTION
  2
TABLES
  0
TABLE
  2
APPID
  5
106
100
AcDbSymbolTable
  0
APPID
  5
107
100
AcDbSymbolTableRecord
100
AcDbRegAppTableRecord
  2
ACAD
 70
0
  0
ENDTAB
  0
TABLE
  2
BLOCK_RECORD
  5
108
100
AcDbSymbolTable
  0
BLOCK_RECORD
  5
109
100
AcDbSymbolTableRecord
100
AcDbBlockTableRecord
  2
*MODEL_SPACE
  0
BLOCK_RECORD
  5
10A
100
AcDbSymbolTableRecord
100
AcDbBlockTableRecord
  2
*PAPER_SPACE
  0
ENDTAB
  0
TABLE
  2
STYLE
  5
10B
100
AcDbSymbolTable
  0
STYLE
  5
10C
100
AcDbSymbolTableRecord
100
AcDbTextStyleTableRecord
  2
STANDARD
 70
0
 40
0
 41
1
 50
0
 71
0
 42
10
  3
simplex.shx
  4

  0
ENDTAB
  0
TABLE
  2
LTYPE
  5
10D
100
AcDbSymbolTable
  0
LTYPE
  5
1
100
AcDbSymbolTableRecord
100
AcDbLinetypeTableRecord
  2
_SOLID
 70
0
  3
_.
 72
65
 73
2
 40
5
 49
5
 74
0
 49
0
 74
0
  0
LTYPE
  5
2
100
AcDbSymbolTableRecord
100
AcDbLinetypeTableRecord
  2
_DASH
 70
0
  3
_ 
 72
65
 73
2
 40
7
 49
5
 74
0
 49
-2
 74
0
  0
LTYPE
  5
3
100
AcDbSymbolTableRecord
100
AcDbLinetypeTableRecord
  2
_DOT
 70
0
  3
_ 
 72
65
 73
2
 40
4
 49
2
 74
0
 49
-2
 74
0
  0
LTYPE
  5
4
100
AcDbSymbolTableRecord
100
AcDbLinetypeTableRecord
  2
_DASHDOT
 70
0
  3
_ _ 
 72
65
 73
4
 40
11
 49
5
 74
0
 49
-2
 74
0
 49
2
 74
0
 49
-2
 74
0
  0
LTYPE
  5
5
100
AcDbSymbolTableRecord
100
AcDbLinetypeTableRecord
  2
_DASHDOTDOT
 70
0
  3
_ _ _ 
 72
65
 73
6
 40
15
 49
5
 74
0
 49
-2
 74
0
 49
2
 74
0
 49
-2
 74
0
 49
2
 74
0
 49
-2
 74
0
  0
LTYPE
  5
6
100
AcDbSymbolTableRecord
100
AcDbLinetypeTableRecord
  2
ISO128-20-02
 70
0
  3
_ 
 72
65
 73
2
 40
15
 49
12
 74
0
 49
-3
 74
0
  0
LTYPE
  5
7
100
AcDbSymbolTableRecord
100
AcDbLinetypeTableRecord
  2
ISO128-20-03
 70
0
  3
_ 
 72
65
 73
2
 40
30
 49
12
 74
0
 49
-18
 74
0
  0
LTYPE
  5
8
100
AcDbSymbolTableRecord
100
AcDbLinetypeTableRecord
  2
ISO128-20-04
 70
0
  3
_ . 
 72
65
 73
4
 40
30
 49
24
 74
0
 49
-3
 74
0
 49
0
 74
0
 49
-3
 74
0
  0
LTYPE
  5
9
100
AcDbSymbolTableRecord
100
AcDbLinetypeTableRecord
  2
ISO128-20-05
 70
0
  3
_ . . 
 72
65
 73
6
 40
33
 49
24
 74
0
 49
-3
 74
0
 49
0
 74
0
 49
-3
 74
0
 49
0
 74
0
 49
-3
 74
0
  0
LTYPE
  5
A
100
AcDbSymbolTableRecord
100
AcDbLinetypeTableRecord
  2
ISO128-20-06
 70
0
  3
_ . . . 
 72
65
 73
8
 40
36
 49
24
 74
0
 49
-3
 74
0
 49
0
 74
0
 49
-3
 74
0
 49
0
 74
0
 49
-3
 74
0
 49
0
 74
0
 49
-3
 74
0
  0
LTYPE
  5
B
100
AcDbSymbolTableRecord
100
AcDbLinetypeTableRecord
  2
ISO128-20-07
 70
0
  3
. 
 72
65
 73
2
 40
3
 49
0
 74
0
 49
-3
 74
0
  0
LTYPE
  5
C
100
AcDbSymbolTableRecord
100
AcDbLinetypeTableRecord
  2
ISO128-20-08
 70
0
  3
_ _ 
 72
65
 73
4
 40
36
 49
24
 74
0
 49
-3
 74
0
 49
6
 74
0
 49
-3
 74
0
  0
LTYPE
  5
D
100
AcDbSymbolTableRecord
100
AcDbLinetypeTableRecord
  2
ISO128-20-09
 70
0
  3
_ _ _ 
 72
65
 73
6
 40
45
 49
24
 74
0
 49
-3
 74
0
 49
6
 74
0
 49
-3
 74
0
 49
6
 74
0
 49
-3
 74
0
  0
LTYPE
  5
E
100
AcDbSymbolTableRecord
100
AcDbLinetypeTableRecord
  2
ISO128-20-10
 70
0
  3
_ . 
 72
65
 73
4
 40
18
 49
12
 74
0
 49
-3
 74
0
 49
0
 74
0
 49
-3
 74
0
  0
LTYPE
  5
F
100
AcDbSymbolTableRecord
100
AcDbLinetypeTableRecord
  2
ISO128-20-11
 70
0
  3
_ _ . 
 72
65
 73
6
 40
33
 49
12
 74
0
 49
-3
 74
0
 49
12
 74
0
 49
-3
 74
0
 49
0
 74
0
 49
-3
 74
0
  0
LTYPE
  5
10
100
AcDbSymbolTableRecord
100
AcDbLinetypeTableRecord
  2
ISO128-20-12
 70
0
  3
_ . . 
 72
65
 73
6
 40
21
 49
12
 74
0
 49
-3
 74
0
 49
0
 74
0
 49
-3
 74
0
 49
0
 74
0
 49
-3
 74
0
  0
LTYPE
  5
11
100
AcDbSymbolTableRecord
100
AcDbLinetypeTableRecord
  2
ISO128-20-13
 70
0
  3
_ _ . . 
 72
65
 73
8
 40
36
 49
12
 74
0
 49
-3
 74
0
 49
12
 74
0
 49
-3
 74
0
 49
0
 74
0
 49
-3
 74
0
 49
0
 74
0
 49
-3
 74
0
  0
LTYPE
  5
12
100
AcDbSymbolTableRecord
100
AcDbLinetypeTableRecord
  2
ISO128-20-14
 70
0
  3
_ . . . 
 72
65
 73
8
 40
24
 49
12
 74
0
 49
-3
 74
0
 49
0
 74
0
 49
-3
 74
0
 49
0
 74
0
 49
-3
 74
0
 49
0
 74
0
 49
-3
 74
0
  0
LTYPE
  5
13
100
AcDbSymbolTableRecord
100
AcDbLinetypeTableRecord
  2
ISO128-20-15
 70
0
  3
_ _ . . . 
 72
65
 73
10
 40
39
 49
12
 74
0
 49
-3
 74
0
 49
12
 74
0
 49
-3
 74
0
 49
0
 74
0
 49
-3
 74
0
 49
0
 74
0
 49
-3
 74
0
 49
0
 74
0
 49
-3
 74
0
  0
LTYPE
  5
10E
100
AcDbSymbolTableRecord
100
AcDbLinetypeTableRecord
  2
ByBlock
 70
0
  3

 72
65
 73
0
 40
0
  0
LTYPE
  5
10F
100
AcDbSymbolTableRecord
100
AcDbLinetypeTableRecord
  2
ByLayer
 70
0
  3

 72
65
 73
0
 40
0
  0
ENDTAB
  0
TABLE
  2
LAYER
  5
110
100
AcDbSymbolTable
  0
LAYER
  5
111
100
AcDbSymbolTableRecord
100
AcDbLayerTableRecord
  2
0
 70
0
 62
7
  6
CONTINUOUS
370
-3
390
0
  0
LAYER
  5
14
100
AcDbSymbolTableRecord
100
AcDbLayerTableRecord
  2
SEMA2D
 70
0
 62
7
290
1
370
-3
390
0
  0
ENDTAB
  0
TABLE
  2
VPORT
  5
112
100
AcDbSymbolTable
  0
VPORT
  5
113
100
AcDbSymbolTableRecord
100
AcDbViewportTableRecord
  2
*ACTIVE
 70
0
 10
0
 20
0
 11
1
 21
1
 12
0.3099567405
 22
0.4632878316
 32
0
 13
0
 23
0
 14
1
 24
1
 15
1
 25
1
 16
0
 26
0
 36
1
 17
0
 27
0
 37
0
 40
0.167
 41
2.54491017964072
 42
50
 43
0
 44
0
 50
0
 51
0
 71
0
 72
100
 73
1
 74
1
 75
0
 76
0
 77
0
 78
0
  0
ENDTAB
  0
TABLE
  2
VIEW
  5
114
100
AcDbSymbolTable
  0
ENDTAB
  0
TABLE
  2
UCS
  5
115
100
AcDbSymbolTable
  0
ENDTAB
  0
TABLE
  2
DIMSTYLE
  5
116
100
AcDbSymbolTable
 70
1
100
AcDbDimStyleTable
 71
0
  0
DIMSTYLE
105
117
100
AcDbSymbolTableRecord
100
AcDbDimStyleTableRecord
  2
STANDARD
 70
0
340
0
  0
ENDTAB
  0
ENDSEC
  0
SECTION
  2
BLOCKS
  0
BLOCK
  5
118
100
AcDbEntity
  8
0
100
AcDbBlockBegin
  2
*MODEL_SPACE
 70
0
 10
0
 20
0
  0
ENDBLK
  5
119
100
AcDbEntity
  8
0
100
AcDbBlockEnd
  0
BLOCK
  5
11A
100
AcDbEntity
  8
0
100
AcDbBlockBegin
  2
*PAPER_SPACE
 70
0
 10
0
 20
0
  0
ENDBLK
  5
11B
100
AcDbEntity
  8
0
100
AcDbBlockEnd
  0
ENDSEC
  0
SECTION
  2
ENTITIES
  0
LINE
  5
15
100
AcDbEntity
  8
SEMA2D
100
AcDbLine
370
9
 62
0
 48
0
  6
_SOLID
 10
0.1024567405
 20
0.4077878316
 30
0
 11
0.5224567405
 21
0.4077878316
 31
0
  0
LINE
  5
17
100
AcDbEntity
  8
SEMA2D
100
AcDbLine
370
9
 62
0
 48
0
  6
_DOT
 10
0.4674567405
 20
0.4087878316
 30
0
 11
0.4824567405
 21
0.4087878316
 31
0
  0
LINE
  5
18
100
AcDbEntity
  8
SEMA2D
100
AcDbLine
370
9
 62
0
 48
0
  6
_DOT
 10
0.5024567405
 20
0.4087878316
 30
0
 11
0.5174567405
 21
0.4087878316
 31
0
  0
LINE
  5
19
100
AcDbEntity
  8
SEMA2D
100
AcDbLine
370
9
 62
0
 48
0
  6
_SOLID
 10
0.3479567405
 20
0.5467878316
 30
0
 11
0.4324567405
 21
0.5467878316
 31
0
  0
ARC
  5
1A
100
AcDbEntity
  8
SEMA2D
100
AcDbCircle
370
9
 62
0
 48
0
  6
_SOLID
 10
0.3479567405
 20
0.5387878316
 30
0
 40
0.008
100
AcDbArc
 50
90
 51
180
  0
LINE
  5
1B
100
AcDbEntity
  8
SEMA2D
100
AcDbLine
370
9
 62
0
 48
0
  6
_SOLID
 10
0.3399567405
 20
0.5267878316
 30
0
 11
0.4124567405
 21
0.5267878316
 31
0
  0
LINE
  5
1C
100
AcDbEntity
  8
SEMA2D
100
AcDbLine
370
9
 62
0
 48
0
  6
_SOLID
 10
0.3399567405
 20
0.5237878316
 30
0
 11
0.4124567405
 21
0.5237878316
 31
0
  0
LINE
  5
1D
100
AcDbEntity
  8
SEMA2D
100
AcDbLine
370
9
 62
0
 48
0
  6
_SOLID
 10
0.1034567405
 20
0.4117878316
 30
0
 11
0.5224567405
 21
0.4117878316
 31
0
  0
LINE
  5
1E
100
AcDbEntity
  8
SEMA2D
100
AcDbLine
370
9
 62
0
 48
0
  6
_SOLID
 10
0.0974567405
 20
0.3797878316
 30
0
 11
0.1014567405
 21
0.3797878316
 31
0
  0
LINE
  5
1F
100
AcDbEntity
  8
SEMA2D
100
AcDbLine
370
9
 62
0
 48
0
  6
_SOLID
 10
0.0974567405
 20
0.4057878316
 30
0
 11
0.0974567405
 21
0.3797878316
 31
0
  0
ARC
  5
20
100
AcDbEntity
  8
SEMA2D
100
AcDbCircle
370
9
 62
0
 48
0
  6
_SOLID
 10
0.1034567405
 20
0.4057878316
 30
0
 40
0.006
100
AcDbArc
 50
90
 51
180
  0
LINE
  5
21
100
AcDbEntity
  8
SEMA2D
100
AcDbLine
370
9
 62
0
 48
0
  6
_SOLID
 10
0.1014567405
 20
0.4067878316
 30
0
 11
0.1014567405
 21
0.3797878316
 31
0
  0
LINE
  5
22
100
AcDbEntity
  8
SEMA2D
100
AcDbLine
370
9
 62
2
 48
0
  6
_DOT
 10
0.1034567405
 20
0.4117878316
 30
0
 11
0.1034567405
 21
0.4077878316
 31
0
  0
ARC
  5
23
100
AcDbEntity
  8
SEMA2D
100
AcDbCircle
370
9
 62
0
 48
0
  6
_SOLID
 10
0.1024567405
 20
0.4067878316
 30
0
 40
0.001
100
AcDbArc
 50
90
 51
180
  0
LINE
  5
24
100
AcDbEntity
  8
SEMA2D
100
AcDbLine
370
9
 62
0
 48
0
  6
_SOLID
 10
0.5224567405
 20
0.4567878316
 30
0
 11
0.5224567405
 21
0.4077878316
 31
0
  0
ARC
  5
25
100
AcDbEntity
  8
SEMA2D
100
AcDbCircle
370
9
 62
0
 48
0
  6
_SOLID
 10
0.4324567405
 20
0.4567878316
 30
0
 40
0.09
100
AcDbArc
 50
0
 51
90
  0
LINE
  5
26
100
AcDbEntity
  8
SEMA2D
100
AcDbLine
370
9
 62
0
 48
0
  6
_SOLID
 10
0.4524567405
 20
0.4247782127
 30
0
 11
0.4524567405
 21
0.4117878316
 31
0
  0
LINE
  5
27
100
AcDbEntity
  8
SEMA2D
100
AcDbLine
370
9
 62
0
 48
0
  6
_SOLID
 10
0.3399567405
 20
0.5387878316
 30
0
 11
0.3399567405
 21
0.5237878316
 31
0
  0
LINE
  5
28
100
AcDbEntity
  8
SEMA2D
100
AcDbLine
370
9
 62
0
 48
0
  6
_SOLID
 10
0.4624567405
 20
0.4767878316
 30
0
 11
0.4624567405
 21
0.4447782127
 31
0
  0
ARC
  5
29
100
AcDbEntity
  8
SEMA2D
100
AcDbCircle
370
9
 62
0
 48
0
  6
_SOLID
 10
0.4124567405
 20
0.4767878316
 30
0
 40
0.05
100
AcDbArc
 50
0
 51
90
  0
LINE
  5
2A
100
AcDbEntity
  8
SEMA2D
100
AcDbLine
370
9
 62
0
 48
0
  6
_SOLID
 10
0.4594567405
 20
0.4767878316
 30
0
 11
0.4594567405
 21
0.4447782127
 31
0
  0
ARC
  5
2B
100
AcDbEntity
  8
SEMA2D
100
AcDbCircle
370
9
 62
0
 48
0
  6
_SOLID
 10
0.4124567405
 20
0.4767878316
 30
0
 40
0.047
100
AcDbArc
 50
0
 51
90
  0
LINE
  5
2C
100
AcDbEntity
  8
SEMA2D
100
AcDbLine
370
9
 62
0
 48
0
  6
_DOT
 10
0.4674567405
 20
0.4117878316
 30
0
 11
0.4674567405
 21
0.4067878316
 31
0
  0
LINE
  5
2D
100
AcDbEntity
  8
SEMA2D
100
AcDbLine
370
9
 62
0
 48
0
  6
_DOT
 10
0.4824567405
 20
0.4117878316
 30
0
 11
0.4824567405
 21
0.4067878316
 31
0
  0
LINE
  5
2E
100
AcDbEntity
  8
SEMA2D
100
AcDbLine
370
9
 62
0
 48
0
  6
_DOT
 10
0.5024567405
 20
0.4117878316
 30
0
 11
0.5024567405
 21
0.4077878316
 31
0
  0
LINE
  5
2F
100
AcDbEntity
  8
SEMA2D
100
AcDbLine
370
9
 62
0
 48
0
  6
_DOT
 10
0.5174567405
 20
0.4117878316
 30
0
 11
0.5174567405
 21
0.4077878316
 31
0
  0
CIRCLE
  5
30
100
AcDbEntity
  8
SEMA2D
100
AcDbCircle
370
9
 62
0
 48
0
  6
_SOLID
 10
0.4899567405
 20
0.4567878316
 30
0
 40
0.0175
  0
LINE
  5
31
100
AcDbEntity
  8
SEMA2D
100
AcDbLine
370
9
 62
1
 48
0
  6
_DOT
 10
0.5106267405
 20
0.4567878316
 30
0
 11
0.4692867405
 21
0.4567878316
 31
0
  0
LINE
  5
32
100
AcDbEntity
  8
SEMA2D
100
AcDbLine
370
9
 62
1
 48
0
  6
_DOT
 10
0.4899567405
 20
0.4774578316
 30
0
 11
0.4899567405
 21
0.4361178316
 31
0
  0
LINE
  5
33
100
AcDbEntity
  8
SEMA2D
100
AcDbLine
370
9
 62
0
 48
0
  6
_SOLID
 10
0.4585189184
 20
0.4412782127
 30
0
 11
0.4494567405
 21
0.4255820602
 31
0
  0
ARC
  5
34
100
AcDbEntity
  8
SEMA2D
100
AcDbCircle
370
9
 62
0
 48
0
  6
_SOLID
 10
0.4524567405
 20
0.4447782127
 30
0
 40
0.007
100
AcDbArc
 50
330.000000000446
 51
0
  0
LINE
  5
35
100
AcDbEntity
  8
SEMA2D
100
AcDbLine
370
9
 62
1
 48
0
  6
_DOT
 10
0.1474567405
 20
0.4177976762
 30
0
 11
0.1474567405
 21
0.4008376762
 31
0
  0
LINE
  5
36
100
AcDbEntity
  8
SEMA2D
100
AcDbLine
370
9
 62
1
 48
0
  6
_DOT
 10
0.1774567405
 20
0.4182942135
 30
0
 11
0.1774567405
 21
0.4013342135
 31
0
  0
LINE
  5
37
100
AcDbEntity
  8
SEMA2D
100
AcDbLine
370
9
 62
0
 48
0
  6
_DOT
 10
0.1507067405
 20
0.4077878316
 30
0
 11
0.1507067405
 21
0.4090378316
 31
0
  0
LINE
  5
38
100
AcDbEntity
  8
SEMA2D
100
AcDbLine
370
9
 62
0
 48
0
  6
_DOT
 10
0.1507067405
 20
0.4091378316
 30
0
 11
0.1533567405
 21
0.4117878316
 31
0
  0
LINE
  5
39
100
AcDbEntity
  8
SEMA2D
100
AcDbLine
370
9
 62
0
 48
0
  6
_DOT
 10
0.1442067405
 20
0.4077878316
 30
0
 11
0.1442067405
 21
0.4090378316
 31
0
  0
LINE
  5
3A
100
AcDbEntity
  8
SEMA2D
100
AcDbLine
370
9
 62
0
 48
0
  6
_DOT
 10
0.1442067405
 20
0.4091378316
 30
0
 11
0.1415567405
 21
0.4117878316
 31
0
  0
LINE
  5
3B
100
AcDbEntity
  8
SEMA2D
100
AcDbLine
370
9
 62
0
 48
0
  6
_DOT
 10
0.1442067405
 20
0.4090378316
 30
0
 11
0.1507067405
 21
0.4090378316
 31
0
  0
LINE
  5
3C
100
AcDbEntity
  8
SEMA2D
100
AcDbLine
370
9
 62
0
 48
0
  6
_DOT
 10
0.1807067405
 20
0.4077878316
 30
0
 11
0.1807067405
 21
0.4090378316
 31
0
  0
LINE
  5
3D
100
AcDbEntity
  8
SEMA2D
100
AcDbLine
370
9
 62
0
 48
0
  6
_DOT
 10
0.1807067405
 20
0.4091378316
 30
0
 11
0.1833567405
 21
0.4117878316
 31
0
  0
LINE
  5
3E
100
AcDbEntity
  8
SEMA2D
100
AcDbLine
370
9
 62
0
 48
0
  6
_DOT
 10
0.1742067405
 20
0.4077878316
 30
0
 11
0.1742067405
 21
0.4090378316
 31
0
  0
LINE
  5
3F
100
AcDbEntity
  8
SEMA2D
100
AcDbLine
370
9
 62
0
 48
0
  6
_DOT
 10
0.1742067405
 20
0.4091378316
 30
0
 11
0.1715567405
 21
0.4117878316
 31
0
  0
LINE
  5
40
100
AcDbEntity
  8
SEMA2D
100
AcDbLine
370
9
 62
0
 48
0
  6
_DOT
 10
0.1742067405
 20
0.4090378316
 30
0
 11
0.1807067405
 21
0.4090378316
 31
0
  0
LINE
  5
41
100
AcDbEntity
  8
SEMA2D
100
AcDbLine
370
9
 62
0
 48
0
  6
_SOLID
 10
0.4611169946
 20
0.4397782127
 30
0
 11
0.4524567405
 21
0.4247782127
 31
0
  0
ARC
  5
42
100
AcDbEntity
  8
SEMA2D
100
AcDbCircle
370
9
 62
0
 48
0
  6
_SOLID
 10
0.4524567405
 20
0.4447782127
 30
0
 40
0.01
100
AcDbArc
 50
330.000000000446
 51
0
  0
LINE
  5
43
100
AcDbEntity
  8
SEMA2D
100
AcDbLine
370
9
 62
0
 48
0
  6
_SOLID
 10
0.4534567405
 20
0.4117878316
 30
0
 11
0.4534567405
 21
0.4149388645
 31
0
  0
LINE
  5
44
100
AcDbEntity
  8
SEMA2D
100
AcDbLine
370
9
 62
0
 48
0
  6
_SOLID
 10
0.4544567405
 20
0.4117878316
 30
0
 11
0.4544567405
 21
0.4149388645
 31
0
  0
LINE
  5
45
100
AcDbEntity
  8
SEMA2D
100
AcDbLine
370
9
 62
0
 48
0
  6
_SOLID
 10
0.4554567405
 20
0.4117878316
 30
0
 11
0.4554567405
 21
0.4149388645
 31
0
  0
LINE
  5
46
100
AcDbEntity
  8
SEMA2D
100
AcDbLine
370
9
 62
0
 48
0
  6
_SOLID
 10
0.4564567405
 20
0.4117878316
 30
0
 11
0.4564567405
 21
0.4149388645
 31
0
  0
LINE
  5
47
100
AcDbEntity
  8
SEMA2D
100
AcDbLine
370
9
 62
0
 48
0
  6
_SOLID
 10
0.4574567405
 20
0.4117878316
 30
0
 11
0.4574567405
 21
0.4149388645
 31
0
  0
LINE
  5
48
100
AcDbEntity
  8
SEMA2D
100
AcDbLine
370
9
 62
0
 48
0
  6
_SOLID
 10
0.4584567405
 20
0.4117878316
 30
0
 11
0.4584567405
 21
0.4149388645
 31
0
  0
LINE
  5
49
100
AcDbEntity
  8
SEMA2D
100
AcDbLine
370
9
 62
0
 48
0
  6
_SOLID
 10
0.4594567405
 20
0.4117878316
 30
0
 11
0.4594567405
 21
0.4149388645
 31
0
  0
LINE
  5
4A
100
AcDbEntity
  8
SEMA2D
100
AcDbLine
370
9
 62
0
 48
0
  6
_SOLID
 10
0.4604567405
 20
0.4117878316
 30
0
 11
0.4604567405
 21
0.4149388645
 31
0
  0
LINE
  5
4B
100
AcDbEntity
  8
SEMA2D
100
AcDbLine
370
9
 62
0
 48
0
  6
_SOLID
 10
0.4614567405
 20
0.4117878316
 30
0
 11
0.4614567405
 21
0.4149388645
 31
0
  0
LINE
  5
4C
100
AcDbEntity
  8
SEMA2D
100
AcDbLine
370
9
 62
0
 48
0
  6
_SOLID
 10
0.4624567405
 20
0.4117878316
 30
0
 11
0.4624567405
 21
0.4149388645
 31
0
  0
LINE
  5
4D
100
AcDbEntity
  8
SEMA2D
100
AcDbLine
370
9
 62
0
 48
0
  6
_SOLID
 10
0.4634567405
 20
0.4117878316
 30
0
 11
0.4634567405
 21
0.4149388645
 31
0
  0
LINE
  5
4E
100
AcDbEntity
  8
SEMA2D
100
AcDbLine
370
9
 62
0
 48
0
  6
_SOLID
 10
0.4644567405
 20
0.4117878316
 30
0
 11
0.4644567405
 21
0.4149388645
 31
0
  0
LINE
  5
4F
100
AcDbEntity
  8
SEMA2D
100
AcDbLine
370
9
 62
0
 48
0
  6
_SOLID
 10
0.4654567405
 20
0.4117878316
 30
0
 11
0.4654567405
 21
0.4149388645
 31
0
  0
LINE
  5
50
100
AcDbEntity
  8
SEMA2D
100
AcDbLine
370
9
 62
0
 48
0
  6
_SOLID
 10
0.4664567405
 20
0.4117878316
 30
0
 11
0.4664567405
 21
0.4149388645
 31
0
  0
LINE
  5
51
100
AcDbEntity
  8
SEMA2D
100
AcDbLine
370
9
 62
0
 48
0
  6
_SOLID
 10
0.4674567405
 20
0.4117878316
 30
0
 11
0.4674567405
 21
0.4149388645
 31
0
  0
LINE
  5
52
100
AcDbEntity
  8
SEMA2D
100
AcDbLine
370
9
 62
0
 48
0
  6
_SOLID
 10
0.4684567405
 20
0.4117878316
 30
0
 11
0.4684567405
 21
0.4149388645
 31
0
  0
LINE
  5
53
100
AcDbEntity
  8
SEMA2D
100
AcDbLine
370
9
 62
0
 48
0
  6
_SOLID
 10
0.4694567405
 20
0.4117878316
 30
0
 11
0.4694567405
 21
0.4149388645
 31
0
  0
LINE
  5
54
100
AcDbEntity
  8
SEMA2D
100
AcDbLine
370
9
 62
0
 48
0
  6
_SOLID
 10
0.4704567405
 20
0.4117878316
 30
0
 11
0.4704567405
 21
0.4149388645
 31
0
  0
LINE
  5
55
100
AcDbEntity
  8
SEMA2D
100
AcDbLine
370
9
 62
0
 48
0
  6
_SOLID
 10
0.4714567405
 20
0.4117878316
 30
0
 11
0.4714567405
 21
0.4149388645
 31
0
  0
LINE
  5
56
100
AcDbEntity
  8
SEMA2D
100
AcDbLine
370
9
 62
0
 48
0
  6
_SOLID
 10
0.4724567405
 20
0.4117878316
 30
0
 11
0.4724567405
 21
0.4149388645
 31
0
  0
LINE
  5
57
100
AcDbEntity
  8
SEMA2D
100
AcDbLine
370
9
 62
0
 48
0
  6
_SOLID
 10
0.4734567405
 20
0.4117878316
 30
0
 11
0.4734567405
 21
0.4149388645
 31
0
  0
LINE
  5
58
100
AcDbEntity
  8
SEMA2D
100
AcDbLine
370
9
 62
0
 48
0
  6
_SOLID
 10
0.4744567405
 20
0.4117878316
 30
0
 11
0.4744567405
 21
0.4149388645
 31
0
  0
LINE
  5
59
100
AcDbEntity
  8
SEMA2D
100
AcDbLine
370
9
 62
0
 48
0
  6
_SOLID
 10
0.4754567405
 20
0.4117878316
 30
0
 11
0.4754567405
 21
0.4149388645
 31
0
  0
LINE
  5
5A
100
AcDbEntity
  8
SEMA2D
100
AcDbLine
370
9
 62
0
 48
0
  6
_SOLID
 10
0.4764567405
 20
0.4117878316
 30
0
 11
0.4764567405
 21
0.4149388645
 31
0
  0
LINE
  5
5B
100
AcDbEntity
  8
SEMA2D
100
AcDbLine
370
9
 62
0
 48
0
  6
_SOLID
 10
0.4774567405
 20
0.4117878316
 30
0
 11
0.4774567405
 21
0.4149388645
 31
0
  0
LINE
  5
5C
100
AcDbEntity
  8
SEMA2D
100
AcDbLine
370
9
 62
0
 48
0
  6
_SOLID
 10
0.4784567405
 20
0.4117878316
 30
0
 11
0.4784567405
 21
0.4149388645
 31
0
  0
LINE
  5
5D
100
AcDbEntity
  8
SEMA2D
100
AcDbLine
370
9
 62
0
 48
0
  6
_SOLID
 10
0.4794567405
 20
0.4117878316
 30
0
 11
0.4794567405
 21
0.4149388645
 31
0
  0
LINE
  5
5E
100
AcDbEntity
  8
SEMA2D
100
AcDbLine
370
9
 62
0
 48
0
  6
_SOLID
 10
0.4804567405
 20
0.4117878316
 30
0
 11
0.4804567405
 21
0.4149388645
 31
0
  0
LINE
  5
5F
100
AcDbEntity
  8
SEMA2D
100
AcDbLine
370
9
 62
0
 48
0
  6
_SOLID
 10
0.4814567405
 20
0.4117878316
 30
0
 11
0.4814567405
 21
0.4149388645
 31
0
  0
LINE
  5
60
100
AcDbEntity
  8
SEMA2D
100
AcDbLine
370
9
 62
0
 48
0
  6
_SOLID
 10
0.4824567405
 20
0.4117878316
 30
0
 11
0.4824567405
 21
0.4149388645
 31
0
  0
LINE
  5
61
100
AcDbEntity
  8
SEMA2D
100
AcDbLine
370
9
 62
0
 48
0
  6
_SOLID
 10
0.4834567405
 20
0.4117878316
 30
0
 11
0.4834567405
 21
0.4149388645
 31
0
  0
LINE
  5
62
100
AcDbEntity
  8
SEMA2D
100
AcDbLine
370
9
 62
0
 48
0
  6
_SOLID
 10
0.4844567405
 20
0.4117878316
 30
0
 11
0.4844567405
 21
0.4149388645
 31
0
  0
LINE
  5
63
100
AcDbEntity
  8
SEMA2D
100
AcDbLine
370
9
 62
0
 48
0
  6
_SOLID
 10
0.4854567405
 20
0.4117878316
 30
0
 11
0.4854567405
 21
0.4149388645
 31
0
  0
LINE
  5
64
100
AcDbEntity
  8
SEMA2D
100
AcDbLine
370
9
 62
0
 48
0
  6
_SOLID
 10
0.4864567405
 20
0.4117878316
 30
0
 11
0.4864567405
 21
0.4149388645
 31
0
  0
LINE
  5
65
100
AcDbEntity
  8
SEMA2D
100
AcDbLine
370
9
 62
0
 48
0
  6
_SOLID
 10
0.4874567405
 20
0.4117878316
 30
0
 11
0.4874567405
 21
0.4149388645
 31
0
  0
LINE
  5
66
100
AcDbEntity
  8
SEMA2D
100
AcDbLine
370
9
 62
0
 48
0
  6
_SOLID
 10
0.4884567405
 20
0.4117878316
 30
0
 11
0.4884567405
 21
0.4149388645
 31
0
  0
LINE
  5
67
100
AcDbEntity
  8
SEMA2D
100
AcDbLine
370
9
 62
0
 48
0
  6
_SOLID
 10
0.4894567405
 20
0.4117878316
 30
0
 11
0.4894567405
 21
0.4149388645
 31
0
  0
LINE
  5
68
100
AcDbEntity
  8
SEMA2D
100
AcDbLine
370
9
 62
0
 48
0
  6
_SOLID
 10
0.4904567405
 20
0.4117878316
 30
0
 11
0.4904567405
 21
0.4149388645
 31
0
  0
LINE
  5
69
100
AcDbEntity
  8
SEMA2D
100
AcDbLine
370
9
 62
0
 48
0
  6
_SOLID
 10
0.4914567405
 20
0.4117878316
 30
0
 11
0.4914567405
 21
0.4149388645
 31
0
  0
LINE
  5
6A
100
AcDbEntity
  8
SEMA2D
100
AcDbLine
370
9
 62
0
 48
0
  6
_SOLID
 10
0.4924567405
 20
0.4117878316
 30
0
 11
0.4924567405
 21
0.4149388645
 31
0
  0
LINE
  5
6B
100
AcDbEntity
  8
SEMA2D
100
AcDbLine
370
9
 62
0
 48
0
  6
_SOLID
 10
0.4934567405
 20
0.4117878316
 30
0
 11
0.4934567405
 21
0.4149388645
 31
0
  0
LINE
  5
6C
100
AcDbEntity
  8
SEMA2D
100
AcDbLine
370
9
 62
0
 48
0
  6
_SOLID
 10
0.4944567405
 20
0.4117878316
 30
0
 11
0.4944567405
 21
0.4149388645
 31
0
  0
LINE
  5
6D
100
AcDbEntity
  8
SEMA2D
100
AcDbLine
370
9
 62
0
 48
0
  6
_SOLID
 10
0.4954567405
 20
0.4117878316
 30
0
 11
0.4954567405
 21
0.4149388645
 31
0
  0
LINE
  5
6E
100
AcDbEntity
  8
SEMA2D
100
AcDbLine
370
9
 62
0
 48
0
  6
_SOLID
 10
0.4964567405
 20
0.4117878316
 30
0
 11
0.4964567405
 21
0.4149388645
 31
0
  0
LINE
  5
6F
100
AcDbEntity
  8
SEMA2D
100
AcDbLine
370
9
 62
0
 48
0
  6
_SOLID
 10
0.4974567405
 20
0.4117878316
 30
0
 11
0.4974567405
 21
0.4149388645
 31
0
  0
LINE
  5
70
100
AcDbEntity
  8
SEMA2D
100
AcDbLine
370
9
 62
0
 48
0
  6
_SOLID
 10
0.4984567405
 20
0.4117878316
 30
0
 11
0.4984567405
 21
0.4149388645
 31
0
  0
LINE
  5
71
100
AcDbEntity
  8
SEMA2D
100
AcDbLine
370
9
 62
0
 48
0
  6
_SOLID
 10
0.4994567405
 20
0.4117878316
 30
0
 11
0.4994567405
 21
0.4149388645
 31
0
  0
LINE
  5
72
100
AcDbEntity
  8
SEMA2D
100
AcDbLine
370
9
 62
0
 48
0
  6
_SOLID
 10
0.5004567405
 20
0.4117878316
 30
0
 11
0.5004567405
 21
0.4149388645
 31
0
  0
LINE
  5
73
100
AcDbEntity
  8
SEMA2D
100
AcDbLine
370
9
 62
0
 48
0
  6
_SOLID
 10
0.5014567405
 20
0.4117878316
 30
0
 11
0.5014567405
 21
0.4149388645
 31
0
  0
LINE
  5
74
100
AcDbEntity
  8
SEMA2D
100
AcDbLine
370
9
 62
0
 48
0
  6
_SOLID
 10
0.3744567405
 20
0.5267878316
 30
0
 11
0.3744567405
 21
0.5299388645
 31
0
  0
LINE
  5
75
100
AcDbEntity
  8
SEMA2D
100
AcDbLine
370
9
 62
0
 48
0
  6
_SOLID
 10
0.5024567405
 20
0.4117878316
 30
0
 11
0.5024567405
 21
0.4149388645
 31
0
  0
LINE
  5
76
100
AcDbEntity
  8
SEMA2D
100
AcDbLine
370
9
 62
0
 48
0
  6
_SOLID
 10
0.5034567405
 20
0.4117878316
 30
0
 11
0.5034567405
 21
0.4149388645
 31
0
  0
LINE
  5
77
100
AcDbEntity
  8
SEMA2D
100
AcDbLine
370
9
 62
0
 48
0
  6
_SOLID
 10
0.5044567405
 20
0.4117878316
 30
0
 11
0.5044567405
 21
0.4149388645
 31
0
  0
LINE
  5
78
100
AcDbEntity
  8
SEMA2D
100
AcDbLine
370
9
 62
0
 48
0
  6
_SOLID
 10
0.5054567405
 20
0.4117878316
 30
0
 11
0.5054567405
 21
0.4149388645
 31
0
  0
LINE
  5
79
100
AcDbEntity
  8
SEMA2D
100
AcDbLine
370
9
 62
0
 48
0
  6
_SOLID
 10
0.5064567405
 20
0.4117878316
 30
0
 11
0.5064567405
 21
0.4149388645
 31
0
  0
LINE
  5
7A
100
AcDbEntity
  8
SEMA2D
100
AcDbLine
370
9
 62
0
 48
0
  6
_SOLID
 10
0.5074567405
 20
0.4117878316
 30
0
 11
0.5074567405
 21
0.4149388645
 31
0
  0
LINE
  5
7B
100
AcDbEntity
  8
SEMA2D
100
AcDbLine
370
9
 62
0
 48
0
  6
_SOLID
 10
0.5084567405
 20
0.4117878316
 30
0
 11
0.5084567405
 21
0.4149388645
 31
0
  0
LINE
  5
7C
100
AcDbEntity
  8
SEMA2D
100
AcDbLine
370
9
 62
0
 48
0
  6
_SOLID
 10
0.5094567405
 20
0.4117878316
 30
0
 11
0.5094567405
 21
0.4149388645
 31
0
  0
LINE
  5
7D
100
AcDbEntity
  8
SEMA2D
100
AcDbLine
370
9
 62
0
 48
0
  6
_SOLID
 10
0.5104567405
 20
0.4117878316
 30
0
 11
0.5104567405
 21
0.4149388645
 31
0
  0
LINE
  5
7E
100
AcDbEntity
  8
SEMA2D
100
AcDbLine
370
9
 62
0
 48
0
  6
_SOLID
 10
0.5114567405
 20
0.4117878316
 30
0
 11
0.5114567405
 21
0.4149388645
 31
0
  0
LINE
  5
7F
100
AcDbEntity
  8
SEMA2D
100
AcDbLine
370
9
 62
0
 48
0
  6
_SOLID
 10
0.5124567405
 20
0.4117878316
 30
0
 11
0.5124567405
 21
0.4149388645
 31
0
  0
LINE
  5
80
100
AcDbEntity
  8
SEMA2D
100
AcDbLine
370
9
 62
0
 48
0
  6
_SOLID
 10
0.5134567405
 20
0.4117878316
 30
0
 11
0.5134567405
 21
0.4149388645
 31
0
  0
LINE
  5
81
100
AcDbEntity
  8
SEMA2D
100
AcDbLine
370
9
 62
0
 48
0
  6
_SOLID
 10
0.5144567405
 20
0.4117878316
 30
0
 11
0.5144567405
 21
0.4149388645
 31
0
  0
LINE
  5
82
100
AcDbEntity
  8
SEMA2D
100
AcDbLine
370
9
 62
0
 48
0
  6
_SOLID
 10
0.5154567405
 20
0.4117878316
 30
0
 11
0.5154567405
 21
0.4149388645
 31
0
  0
LINE
  5
83
100
AcDbEntity
  8
SEMA2D
100
AcDbLine
370
9
 62
0
 48
0
  6
_SOLID
 10
0.5164567405
 20
0.4117878316
 30
0
 11
0.5164567405
 21
0.4149388645
 31
0
  0
LINE
  5
84
100
AcDbEntity
  8
SEMA2D
100
AcDbLine
370
9
 62
0
 48
0
  6
_SOLID
 10
0.5174567405
 20
0.4117878316
 30
0
 11
0.5174567405
 21
0.4149388645
 31
0
  0
LINE
  5
85
100
AcDbEntity
  8
SEMA2D
100
AcDbLine
370
9
 62
0
 48
0
  6
_SOLID
 10
0.5184567405
 20
0.4117878316
 30
0
 11
0.5184567405
 21
0.4149388645
 31
0
  0
LINE
  5
86
100
AcDbEntity
  8
SEMA2D
100
AcDbLine
370
9
 62
0
 48
0
  6
_SOLID
 10
0.5194567405
 20
0.4117878316
 30
0
 11
0.5194567405
 21
0.4149388645
 31
0
  0
LINE
  5
87
100
AcDbEntity
  8
SEMA2D
100
AcDbLine
370
9
 62
0
 48
0
  6
_SOLID
 10
0.5204567405
 20
0.4117878316
 30
0
 11
0.5204567405
 21
0.4149388645
 31
0
  0
LINE
  5
88
100
AcDbEntity
  8
SEMA2D
100
AcDbLine
370
9
 62
0
 48
0
  6
_SOLID
 10
0.5214567405
 20
0.4117878316
 30
0
 11
0.5214567405
 21
0.4149388645
 31
0
  0
LINE
  5
89
100
AcDbEntity
  8
SEMA2D
100
AcDbLine
370
9
 62
0
 48
0
  6
_SOLID
 10
0.3734567405
 20
0.5267878316
 30
0
 11
0.3734567405
 21
0.5299388645
 31
0
  0
LINE
  5
8A
100
AcDbEntity
  8
SEMA2D
100
AcDbLine
370
9
 62
0
 48
0
  6
_SOLID
 10
0.3754567405
 20
0.5267878316
 30
0
 11
0.3754567405
 21
0.5299388645
 31
0
  0
LINE
  5
8B
100
AcDbEntity
  8
SEMA2D
100
AcDbLine
370
9
 62
0
 48
0
  6
_SOLID
 10
0.3764567405
 20
0.5267878316
 30
0
 11
0.3764567405
 21
0.5299388645
 31
0
  0
LINE
  5
8C
100
AcDbEntity
  8
SEMA2D
100
AcDbLine
370
9
 62
0
 48
0
  6
_SOLID
 10
0.3774567405
 20
0.5267878316
 30
0
 11
0.3774567405
 21
0.5299388645
 31
0
  0
LINE
  5
8D
100
AcDbEntity
  8
SEMA2D
100
AcDbLine
370
9
 62
0
 48
0
  6
_SOLID
 10
0.3784567405
 20
0.5267878316
 30
0
 11
0.3784567405
 21
0.5299388645
 31
0
  0
LINE
  5
8E
100
AcDbEntity
  8
SEMA2D
100
AcDbLine
370
9
 62
0
 48
0
  6
_SOLID
 10
0.3794567405
 20
0.5267878316
 30
0
 11
0.3794567405
 21
0.5299388645
 31
0
  0
LINE
  5
8F
100
AcDbEntity
  8
SEMA2D
100
AcDbLine
370
9
 62
0
 48
0
  6
_SOLID
 10
0.3804567405
 20
0.5267878316
 30
0
 11
0.3804567405
 21
0.5299388645
 31
0
  0
LINE
  5
90
100
AcDbEntity
  8
SEMA2D
100
AcDbLine
370
9
 62
0
 48
0
  6
_SOLID
 10
0.3814567405
 20
0.5267878316
 30
0
 11
0.3814567405
 21
0.5299388645
 31
0
  0
LINE
  5
91
100
AcDbEntity
  8
SEMA2D
100
AcDbLine
370
9
 62
0
 48
0
  6
_SOLID
 10
0.3824567405
 20
0.5267878316
 30
0
 11
0.3824567405
 21
0.5299388645
 31
0
  0
LINE
  5
92
100
AcDbEntity
  8
SEMA2D
100
AcDbLine
370
9
 62
0
 48
0
  6
_SOLID
 10
0.4024567405
 20
0.5267878316
 30
0
 11
0.4024567405
 21
0.5299388645
 31
0
  0
LINE
  5
93
100
AcDbEntity
  8
SEMA2D
100
AcDbLine
370
9
 62
0
 48
0
  6
_SOLID
 10
0.4034567405
 20
0.5267878316
 30
0
 11
0.4034567405
 21
0.5299388645
 31
0
  0
LINE
  5
94
100
AcDbEntity
  8
SEMA2D
100
AcDbLine
370
9
 62
0
 48
0
  6
_SOLID
 10
0.4044567405
 20
0.5267878316
 30
0
 11
0.4044567405
 21
0.5299388645
 31
0
  0
LINE
  5
95
100
AcDbEntity
  8
SEMA2D
100
AcDbLine
370
9
 62
0
 48
0
  6
_SOLID
 10
0.4054567405
 20
0.5267878316
 30
0
 11
0.4054567405
 21
0.5299388645
 31
0
  0
LINE
  5
96
100
AcDbEntity
  8
SEMA2D
100
AcDbLine
370
9
 62
0
 48
0
  6
_SOLID
 10
0.4064567405
 20
0.5267878316
 30
0
 11
0.4064567405
 21
0.5299388645
 31
0
  0
LINE
  5
97
100
AcDbEntity
  8
SEMA2D
100
AcDbLine
370
9
 62
0
 48
0
  6
_SOLID
 10
0.4074567405
 20
0.5267878316
 30
0
 11
0.4074567405
 21
0.5299388645
 31
0
  0
LINE
  5
98
100
AcDbEntity
  8
SEMA2D
100
AcDbLine
370
9
 62
0
 48
0
  6
_SOLID
 10
0.4084567405
 20
0.5267878316
 30
0
 11
0.4084567405
 21
0.5299388645
 31
0
  0
LINE
  5
99
100
AcDbEntity
  8
SEMA2D
100
AcDbLine
370
9
 62
0
 48
0
  6
_SOLID
 10
0.4094567405
 20
0.5267878316
 30
0
 11
0.4094567405
 21
0.5299388645
 31
0
  0
LINE
  5
9A
100
AcDbEntity
  8
SEMA2D
100
AcDbLine
370
9
 62
0
 48
0
  6
_SOLID
 10
0.4104567405
 20
0.5267878316
 30
0
 11
0.4104567405
 21
0.5299388645
 31
0
  0
LINE
  5
9B
100
AcDbEntity
  8
SEMA2D
100
AcDbLine
370
9
 62
0
 48
0
  6
_SOLID
 10
0.4114567405
 20
0.5267878316
 30
0
 11
0.4114567405
 21
0.5299388645
 31
0
  0
LINE
  5
9C
100
AcDbEntity
  8
SEMA2D
100
AcDbLine
370
9
 62
0
 48
0
  6
_SOLID
 10
0.4124567405
 20
0.5267878316
 30
0
 11
0.4124567405
 21
0.5299388645
 31
0
  0
LINE
  5
9D
100
AcDbEntity
  8
SEMA2D
100
AcDbLine
370
9
 62
0
 48
0
  6
_SOLID
 10
0.4404163857
 20
0.5182397103
 30
0
 11
0.4421784209
 21
0.5208520349
 31
0
  0
LINE
  5
9E
100
AcDbEntity
  8
SEMA2D
100
AcDbLine
370
9
 62
0
 48
0
  6
_SOLID
 10
0.4411355623
 20
0.5177454338
 30
0
 11
0.4429429205
 21
0.5203266088
 31
0
  0
LINE
  5
9F
100
AcDbEntity
  8
SEMA2D
100
AcDbLine
370
9
 62
0
 48
0
  6
_SOLID
 10
0.4418460031
 20
0.5172386813
 30
0
 11
0.4436981338
 21
0.5197879205
 31
0
  0
LINE
  5
A0
100
AcDbEntity
  8
SEMA2D
100
AcDbLine
370
9
 62
0
 48
0
  6
_SOLID
 10
0.4425474917
 20
0.5167196071
 30
0
 11
0.4444438306
 21
0.5192361338
 31
0
  0
LINE
  5
A1
100
AcDbEntity
  8
SEMA2D
100
AcDbLine
370
9
 62
0
 48
0
  6
_SOLID
 10
0.4432398143
 20
0.5161883693
 30
0
 11
0.4451797838
 21
0.5186714171
 31
0
  0
LINE
  5
A2
100
AcDbEntity
  8
SEMA2D
100
AcDbLine
370
9
 62
0
 48
0
  6
_SOLID
 10
0.4439227601
 20
0.5156451297
 30
0
 11
0.4459057693
 21
0.5180939421
 31
0
  0
LINE
  5
A3
100
AcDbEntity
  8
SEMA2D
100
AcDbLine
370
9
 62
0
 48
0
  6
_SOLID
 10
0.444596121
 20
0.5150900538
 30
0
 11
0.4466215659
 21
0.517503885
 31
0
  0
LINE
  5
A4
100
AcDbEntity
  8
SEMA2D
100
AcDbLine
370
9
 62
0
 48
0
  6
_SOLID
 10
0.445259692
 20
0.5145233106
 30
0
 11
0.4473269555
 21
0.5169014253
 31
0
  0
LINE
  5
A5
100
AcDbEntity
  8
SEMA2D
100
AcDbLine
370
9
 62
0
 48
0
  6
_SOLID
 10
0.4459132708
 20
0.5139450729
 30
0
 11
0.4480217234
 21
0.5162867466
 31
0
  0
LINE
  5
A6
100
AcDbEntity
  8
SEMA2D
100
AcDbLine
370
9
 62
0
 48
0
  6
_SOLID
 10
0.4465566585
 20
0.5133555167
 30
0
 11
0.4487056578
 21
0.5156600362
 31
0
  0
LINE
  5
A7
100
AcDbEntity
  8
SEMA2D
100
AcDbLine
370
9
 62
0
 48
0
  6
_SOLID
 10
0.447189659
 20
0.5127548216
 30
0
 11
0.4493785504
 21
0.515021485
 31
0
  0
LINE
  5
A8
100
AcDbEntity
  8
SEMA2D
100
AcDbLine
370
9
 62
0
 48
0
  6
_SOLID
 10
0.4478120796
 20
0.5121431707
 30
0
 11
0.4500401963
 21
0.5143712874
 31
0
  0
LINE
  5
A9
100
AcDbEntity
  8
SEMA2D
100
AcDbLine
370
9
 62
0
 48
0
  6
_SOLID
 10
0.4539086192
 20
0.5047474768
 30
0
 11
0.4565209438
 21
0.506509512
 31
0
  0
LINE
  5
AA
100
AcDbEntity
  8
SEMA2D
100
AcDbLine
370
9
 62
0
 48
0
  6
_SOLID
 10
0.4534143427
 20
0.5054666534
 30
0
 11
0.4559955177
 21
0.5072740116
 31
0
  0
LINE
  5
AB
100
AcDbEntity
  8
SEMA2D
100
AcDbLine
370
9
 62
0
 48
0
  6
_SOLID
 10
0.4529075902
 20
0.5061770942
 30
0
 11
0.4554568294
 21
0.5080292249
 31
0
  0
LINE
  5
AC
100
AcDbEntity
  8
SEMA2D
100
AcDbLine
370
9
 62
0
 48
0
  6
_SOLID
 10
0.452388516
 20
0.5068785828
 30
0
 11
0.4549050427
 21
0.5087749217
 31
0
  0
LINE
  5
AD
100
AcDbEntity
  8
SEMA2D
100
AcDbLine
370
9
 62
0
 48
0
  6
_SOLID
 10
0.4518572782
 20
0.5075709054
 30
0
 11
0.454340326
 21
0.5095108749
 31
0
  0
LINE
  5
AE
100
AcDbEntity
  8
SEMA2D
100
AcDbLine
370
9
 62
0
 48
0
  6
_SOLID
 10
0.4513140386
 20
0.5082538512
 30
0
 11
0.453762851
 21
0.5102368604
 31
0
  0
LINE
  5
AF
100
AcDbEntity
  8
SEMA2D
100
AcDbLine
370
9
 62
0
 48
0
  6
_SOLID
 10
0.4507589627
 20
0.5089272121
 30
0
 11
0.4531727939
 21
0.510952657
 31
0
  0
LINE
  5
B0
100
AcDbEntity
  8
SEMA2D
100
AcDbLine
370
9
 62
0
 48
0
  6
_SOLID
 10
0.4501922195
 20
0.5095907831
 30
0
 11
0.4525703342
 21
0.5116580466
 31
0
  0
LINE
  5
B1
100
AcDbEntity
  8
SEMA2D
100
AcDbLine
370
9
 62
0
 48
0
  6
_SOLID
 10
0.4496139818
 20
0.5102443619
 30
0
 11
0.4519556555
 21
0.5123528145
 31
0
  0
LINE
  5
B2
100
AcDbEntity
  8
SEMA2D
100
AcDbLine
370
9
 62
0
 48
0
  6
_SOLID
 10
0.4490244256
 20
0.5108877496
 30
0
 11
0.4513289451
 21
0.5130367489
 31
0
  0
LINE
  5
B3
100
AcDbEntity
  8
SEMA2D
100
AcDbLine
370
9
 62
0
 48
0
  6
_SOLID
 10
0.4484237305
 20
0.5115207502
 30
0
 11
0.4506903939
 21
0.5137096415
 31
0
  0
LINE
  5
B4
100
AcDbEntity
  8
SEMA2D
100
AcDbLine
370
9
 62
0
 48
0
  6
_SOLID
 10
0.4624567405
 20
0.4467878316
 30
0
 11
0.4656077734
 21
0.4467878316
 31
0
  0
LINE
  5
B5
100
AcDbEntity
  8
SEMA2D
100
AcDbLine
370
9
 62
0
 48
0
  6
_SOLID
 10
0.4624567405
 20
0.4457878316
 30
0
 11
0.4656077734
 21
0.4457878316
 31
0
  0
LINE
  5
B6
100
AcDbEntity
  8
SEMA2D
100
AcDbLine
370
9
 62
0
 48
0
  6
_SOLID
 10
0.4624567405
 20
0.4447878316
 30
0
 11
0.4656077734
 21
0.4447878316
 31
0
  0
LINE
  5
B7
100
AcDbEntity
  8
SEMA2D
100
AcDbLine
370
9
 62
0
 48
0
  6
_SOLID
 10
0.4624567405
 20
0.4667878316
 30
0
 11
0.4656077734
 21
0.4667878316
 31
0
  0
LINE
  5
B8
100
AcDbEntity
  8
SEMA2D
100
AcDbLine
370
9
 62
0
 48
0
  6
_SOLID
 10
0.4624567405
 20
0.4677878316
 30
0
 11
0.4656077734
 21
0.4677878316
 31
0
  0
LINE
  5
B9
100
AcDbEntity
  8
SEMA2D
100
AcDbLine
370
9
 62
0
 48
0
  6
_SOLID
 10
0.4624567405
 20
0.4687878316
 30
0
 11
0.4656077734
 21
0.4687878316
 31
0
  0
LINE
  5
BA
100
AcDbEntity
  8
SEMA2D
100
AcDbLine
370
9
 62
0
 48
0
  6
_SOLID
 10
0.4624567405
 20
0.4697878316
 30
0
 11
0.4656077734
 21
0.4697878316
 31
0
  0
LINE
  5
BB
100
AcDbEntity
  8
SEMA2D
100
AcDbLine
370
9
 62
0
 48
0
  6
_SOLID
 10
0.4624567405
 20
0.4707878316
 30
0
 11
0.4656077734
 21
0.4707878316
 31
0
  0
LINE
  5
BC
100
AcDbEntity
  8
SEMA2D
100
AcDbLine
370
9
 62
0
 48
0
  6
_SOLID
 10
0.4624567405
 20
0.4717878316
 30
0
 11
0.4656077734
 21
0.4717878316
 31
0
  0
LINE
  5
BD
100
AcDbEntity
  8
SEMA2D
100
AcDbLine
370
9
 62
0
 48
0
  6
_SOLID
 10
0.4624567405
 20
0.4727878316
 30
0
 11
0.4656077734
 21
0.4727878316
 31
0
  0
LINE
  5
BE
100
AcDbEntity
  8
SEMA2D
100
AcDbLine
370
9
 62
0
 48
0
  6
_SOLID
 10
0.4624567405
 20
0.4737878316
 30
0
 11
0.4656077734
 21
0.4737878316
 31
0
  0
LINE
  5
BF
100
AcDbEntity
  8
SEMA2D
100
AcDbLine
370
9
 62
0
 48
0
  6
_SOLID
 10
0.4624567405
 20
0.4747878316
 30
0
 11
0.4656077734
 21
0.4747878316
 31
0
  0
LINE
  5
C0
100
AcDbEntity
  8
SEMA2D
100
AcDbLine
370
9
 62
0
 48
0
  6
_SOLID
 10
0.4624567405
 20
0.4757878316
 30
0
 11
0.4656077734
 21
0.4757878316
 31
0
  0
LINE
  5
C1
100
AcDbEntity
  8
SEMA2D
100
AcDbLine
370
9
 62
0
 48
0
  6
_SOLID
 10
0.4624567405
 20
0.4767878316
 30
0
 11
0.4656077734
 21
0.4767878316
 31
0
  0
LINE
  5
C2
100
AcDbEntity
  8
SEMA2D
100
AcDbLine
370
9
 62
0
 48
0
  6
_SOLID
 10
0.4584567405
 20
0.4351705175
 30
0
 11
0.461185615
 21
0.4335950011
 31
0
  0
LINE
  5
C3
100
AcDbEntity
  8
SEMA2D
100
AcDbLine
370
9
 62
0
 48
0
  6
_SOLID
 10
0.4589567405
 20
0.4360365429
 30
0
 11
0.461685615
 21
0.4344610265
 31
0
  0
LINE
  5
C4
100
AcDbEntity
  8
SEMA2D
100
AcDbLine
370
9
 62
0
 48
0
  6
_SOLID
 10
0.4594567405
 20
0.4369025683
 30
0
 11
0.462185615
 21
0.4353270519
 31
0
  0
LINE
  5
C5
100
AcDbEntity
  8
SEMA2D
100
AcDbLine
370
9
 62
0
 48
0
  6
_SOLID
 10
0.4599567405
 20
0.4377685937
 30
0
 11
0.462685615
 21
0.4361930773
 31
0
  0
LINE
  5
C6
100
AcDbEntity
  8
SEMA2D
100
AcDbLine
370
9
 62
0
 48
0
  6
_SOLID
 10
0.4604567405
 20
0.4386346191
 30
0
 11
0.463185615
 21
0.4370591027
 31
0
  0
LINE
  5
C7
100
AcDbEntity
  8
SEMA2D
100
AcDbLine
370
9
 62
0
 48
0
  6
_SOLID
 10
0.4609567405
 20
0.4395006446
 30
0
 11
0.463685615
 21
0.4379251281
 31
0
  0
LINE
  5
C8
100
AcDbEntity
  8
SEMA2D
100
AcDbLine
370
9
 62
0
 48
0
  6
_SOLID
 10
0.4579567405
 20
0.4343044921
 30
0
 11
0.460685615
 21
0.4327289757
 31
0
  0
LINE
  5
C9
100
AcDbEntity
  8
SEMA2D
100
AcDbLine
370
9
 62
0
 48
0
  6
_SOLID
 10
0.4574567405
 20
0.4334384667
 30
0
 11
0.460185615
 21
0.4318629503
 31
0
  0
LINE
  5
CA
100
AcDbEntity
  8
SEMA2D
100
AcDbLine
370
9
 62
0
 48
0
  6
_SOLID
 10
0.4569567405
 20
0.4325724413
 30
0
 11
0.459685615
 21
0.4309969249
 31
0
  0
LINE
  5
CB
100
AcDbEntity
  8
SEMA2D
100
AcDbLine
370
9
 62
0
 48
0
  6
_SOLID
 10
0.4564567405
 20
0.4317064159
 30
0
 11
0.459185615
 21
0.4301308995
 31
0
  0
LINE
  5
CC
100
AcDbEntity
  8
SEMA2D
100
AcDbLine
370
9
 62
0
 48
0
  6
_SOLID
 10
0.4559567405
 20
0.4308403905
 30
0
 11
0.458685615
 21
0.4292648741
 31
0
  0
LINE
  5
CD
100
AcDbEntity
  8
SEMA2D
100
AcDbLine
370
9
 62
0
 48
0
  6
_SOLID
 10
0.4554567405
 20
0.4299743651
 30
0
 11
0.458185615
 21
0.4283988487
 31
0
  0
LINE
  5
CE
100
AcDbEntity
  8
SEMA2D
100
AcDbLine
370
9
 62
0
 48
0
  6
_SOLID
 10
0.4549567405
 20
0.4291083397
 30
0
 11
0.457685615
 21
0.4275328233
 31
0
  0
LINE
  5
CF
100
AcDbEntity
  8
SEMA2D
100
AcDbLine
370
9
 62
0
 48
0
  6
_SOLID
 10
0.4544567405
 20
0.4282423143
 30
0
 11
0.457185615
 21
0.4266667979
 31
0
  0
LINE
  5
D0
100
AcDbEntity
  8
SEMA2D
100
AcDbLine
370
9
 62
0
 48
0
  6
_SOLID
 10
0.4539567405
 20
0.4273762889
 30
0
 11
0.456685615
 21
0.4258007725
 31
0
  0
LINE
  5
D1
100
AcDbEntity
  8
SEMA2D
100
AcDbLine
370
9
 62
0
 48
0
  6
_SOLID
 10
0.4534567405
 20
0.4265102635
 30
0
 11
0.456185615
 21
0.4249347471
 31
0
  0
LINE
  5
D2
100
AcDbEntity
  8
SEMA2D
100
AcDbLine
370
9
 62
0
 48
0
  6
_SOLID
 10
0.4529567405
 20
0.4256442381
 30
0
 11
0.455685615
 21
0.4240687217
 31
0
  0
LINE
  5
D3
100
AcDbEntity
  8
SEMA2D
100
AcDbLine
370
9
 62
0
 48
0
  6
_SOLID
 10
0.4524567405
 20
0.4247782127
 30
0
 11
0.455185615
 21
0.4232026963
 31
0
  0
LINE
  5
D4
100
AcDbEntity
  8
SEMA2D
100
AcDbLine
370
9
 62
0
 48
0
  6
_SOLID
 10
0.4624430359
 20
0.4442548531
 30
0
 11
0.4655897538
 21
0.4440899406
 31
0
  0
LINE
  5
D5
100
AcDbEntity
  8
SEMA2D
100
AcDbLine
370
9
 62
0
 48
0
  6
_SOLID
 10
0.4621159988
 20
0.4421900222
 30
0
 11
0.4651596662
 21
0.441374474
 31
0
  0
LINE
  5
D6
100
AcDbEntity
  8
SEMA2D
100
AcDbLine
370
9
 62
0
 48
0
  6
_SOLID
 10
0.4622730124
 20
0.4428701227
 30
0
 11
0.4653661553
 21
0.4422688767
 31
0
  0
LINE
  5
D7
100
AcDbEntity
  8
SEMA2D
100
AcDbLine
370
9
 62
0
 48
0
  6
_SOLID
 10
0.462382202
 20
0.4435595193
 30
0
 11
0.465509751
 21
0.4431755045
 31
0
  0
LINE
  5
D8
100
AcDbEntity
  8
SEMA2D
100
AcDbLine
370
9
 62
0
 48
0
  6
_SOLID
 10
0.4613668058
 20
0.4402383077
 30
0
 11
0.4641743997
 21
0.4388077671
 31
0
  0
LINE
  5
D9
100
AcDbEntity
  8
SEMA2D
100
AcDbLine
370
9
 62
0
 48
0
  6
_SOLID
 10
0.4619119263
 20
0.4415225311
 30
0
 11
0.4648912897
 21
0.4404966541
 31
0
  0
LINE
  5
DA
100
AcDbEntity
  8
SEMA2D
100
AcDbLine
370
9
 62
0
 48
0
  6
_SOLID
 10
0.4616617891
 20
0.4408709014
 30
0
 11
0.4645623333
 21
0.4396396934
 31
0
  0
LINE
  5
DB
100
AcDbEntity
  8
SEMA2D
100
AcDbLine
370
9
 62
4
 48
0
  6
_SOLID
 10
0.4284320458
 20
0.4307942078
 30
0
 11
0.4280720458
 21
0.4307942078
 31
0
  0
LINE
  5
DC
100
AcDbEntity
  8
SEMA2D
100
AcDbLine
370
9
 62
0
 48
0
  6
_SOLID
 10
0.5124567405
 20
0.4077878316
 30
0
 11
0.5124567405
 21
0.4117878316
 31
0
  0
LINE
  5
DD
100
AcDbEntity
  8
SEMA2D
100
AcDbLine
370
9
 62
0
 48
0
  6
_SOLID
 10
0.4396886923
 20
0.51872136
 30
0
 11
0.4414048678
 21
0.5213640385
 31
0
  0
LINE
  5
DE
100
AcDbEntity
  8
SEMA2D
100
AcDbLine
370
9
 62
0
 48
0
  6
_SOLID
 10
0.4389527037
 20
0.5191902364
 30
0
 11
0.4406224967
 21
0.5218624638
 31
0
  0
LINE
  5
DF
100
AcDbEntity
  8
SEMA2D
100
AcDbLine
370
9
 62
0
 48
0
  6
_SOLID
 10
0.4374567405
 20
0.5200891018
 30
0
 11
0.4390322569
 21
0.5228179763
 31
0
  0
LINE
  5
E0
100
AcDbEntity
  8
SEMA2D
100
AcDbLine
370
9
 62
0
 48
0
  6
_SOLID
 10
0.4382086443
 20
0.5196461967
 30
0
 11
0.4398315462
 21
0.522347159
 31
0
  0
LINE
  5
E1
100
AcDbEntity
  8
SEMA2D
100
AcDbLine
370
9
 62
0
 48
0
  6
_SOLID
 10
0.4543902689
 20
0.5040197834
 30
0
 11
0.4570329474
 21
0.5057359589
 31
0
  0
LINE
  5
E2
100
AcDbEntity
  8
SEMA2D
100
AcDbLine
370
9
 62
0
 48
0
  6
_SOLID
 10
0.4548591453
 20
0.5032837948
 30
0
 11
0.4575313727
 21
0.5049535878
 31
0
  0
LINE
  5
E3
100
AcDbEntity
  8
SEMA2D
100
AcDbLine
370
9
 62
0
 48
0
  6
_SOLID
 10
0.4553151056
 20
0.5025397354
 30
0
 11
0.4580160679
 21
0.5041626373
 31
0
  0
LINE
  5
E4
100
AcDbEntity
  8
SEMA2D
100
AcDbLine
370
9
 62
0
 48
0
  6
_SOLID
 10
0.4557580107
 20
0.5017878316
 30
0
 11
0.4584868852
 21
0.503363348
 31
0
  0
LINE
  5
E5
100
AcDbEntity
  8
SEMA2D
100
AcDbLine
370
9
 62
0
 48
0
  6
_SOLID
 10
0.4494567405
 20
0.4255820602
 30
0
 11
0.4494567405
 21
0.4117878316
 31
0
  0
LINE
  5
E6
100
AcDbEntity
  8
SEMA2D
100
AcDbLine
370
9
 62
0
 48
0
  6
_SOLID
 10
0.4494567405
 20
0.4167878316
 30
0
 11
0.4494567405
 21
0.4117878316
 31
0
  0
LINE
  5
E7
100
AcDbEntity
  8
SEMA2D
100
AcDbLine
370
9
 62
0
 48
0
  6
_SOLID
 10
0.4494567405
 20
0.4117878316
 30
0
 11
0.4444567405
 21
0.4117878316
 31
0
  0
LINE
  5
E8
100
AcDbEntity
  8
SEMA2D
100
AcDbLine
370
9
 62
0
 48
0
  6
_SOLID
 10
0.4444567405
 20
0.4117878316
 30
0
 11
0.4494567405
 21
0.4167878316
 31
0
  0
LINE
  5
E9
100
AcDbEntity
  8
SEMA2D
100
AcDbLine
370
9
 62
0
 48
0
  6
_SOLID
 10
0.4494567405
 20
0.4167878316
 30
0
 11
0.4494567405
 21
0.4117878316
 31
0
  0
LINE
  5
EA
100
AcDbEntity
  8
SEMA2D
100
AcDbLine
370
9
 62
0
 48
0
  6
_SOLID
 10
0.4494567405
 20
0.4117878316
 30
0
 11
0.4444567405
 21
0.4117878316
 31
0
  0
LINE
  5
EB
100
AcDbEntity
  8
SEMA2D
100
AcDbLine
370
9
 62
0
 48
0
  6
_SOLID
 10
0.4444567405
 20
0.4117878316
 30
0
 11
0.4494567405
 21
0.4167878316
 31
0
  0
LINE
  5
EC
100
AcDbEntity
  8
SEMA2D
100
AcDbLine
370
9
 62
0
 48
0
  6
_SOLID
 10
0.3724567405
 20
0.5267878316
 30
0
 11
0.3724567405
 21
0.5299388645
 31
0
  0
LINE
  5
ED
100
AcDbEntity
  8
SEMA2D
100
AcDbLine
370
9
 62
0
 48
0
  6
_SOLID
 10
0.3414567405
 20
0.5267878316
 30
0
 11
0.3414567405
 21
0.5299388645
 31
0
  0
LINE
  5
EE
100
AcDbEntity
  8
SEMA2D
100
AcDbLine
370
9
 62
0
 48
0
  6
_SOLID
 10
0.3404567405
 20
0.5267878316
 30
0
 11
0.3404567405
 21
0.5299388645
 31
0
  0
LINE
  5
EF
100
AcDbEntity
  8
SEMA2D
100
AcDbLine
370
9
 62
0
 48
0
  6
_SOLID
 10
0.3424567405
 20
0.5267878316
 30
0
 11
0.3424567405
 21
0.5299388645
 31
0
  0
LINE
  5
F0
100
AcDbEntity
  8
SEMA2D
100
AcDbLine
370
9
 62
0
 48
0
  6
_SOLID
 10
0.3434567405
 20
0.5267878316
 30
0
 11
0.3434567405
 21
0.5299388645
 31
0
  0
LINE
  5
F1
100
AcDbEntity
  8
SEMA2D
100
AcDbLine
370
9
 62
0
 48
0
  6
_SOLID
 10
0.3444567405
 20
0.5267878316
 30
0
 11
0.3444567405
 21
0.5299388645
 31
0
  0
LINE
  5
F2
100
AcDbEntity
  8
SEMA2D
100
AcDbLine
370
9
 62
0
 48
0
  6
_SOLID
 10
0.3454567405
 20
0.5267878316
 30
0
 11
0.3454567405
 21
0.5299388645
 31
0
  0
LINE
  5
F3
100
AcDbEntity
  8
SEMA2D
100
AcDbLine
370
9
 62
0
 48
0
  6
_SOLID
 10
0.3464567405
 20
0.5267878316
 30
0
 11
0.3464567405
 21
0.5299388645
 31
0
  0
LINE
  5
F4
100
AcDbEntity
  8
SEMA2D
100
AcDbLine
370
9
 62
0
 48
0
  6
_SOLID
 10
0.3474567405
 20
0.5267878316
 30
0
 11
0.3474567405
 21
0.5299388645
 31
0
  0
LINE
  5
F5
100
AcDbEntity
  8
SEMA2D
100
AcDbLine
370
9
 62
0
 48
0
  6
_SOLID
 10
0.3484567405
 20
0.5267878316
 30
0
 11
0.3484567405
 21
0.5299388645
 31
0
  0
LINE
  5
F6
100
AcDbEntity
  8
SEMA2D
100
AcDbLine
370
9
 62
0
 48
0
  6
_SOLID
 10
0.3494567405
 20
0.5267878316
 30
0
 11
0.3494567405
 21
0.5299388645
 31
0
  0
LINE
  5
F7
100
AcDbEntity
  8
SEMA2D
100
AcDbLine
370
9
 62
0
 48
0
  6
_SOLID
 10
0.1424567405
 20
0.4077878316
 30
0
 11
0.1424567405
 21
0.4117878316
 31
0
  0
LINE
  5
F8
100
AcDbEntity
  8
SEMA2D
100
AcDbLine
370
9
 62
1
 48
0
  6
_DOT
 10
0.1274567405
 20
0.4178366374
 30
0
 11
0.1274567405
 21
0.4008766374
 31
0
  0
LINE
  5
F9
100
AcDbEntity
  8
SEMA2D
100
AcDbLine
370
9
 62
0
 48
0
  6
_DOT
 10
0.1307067405
 20
0.4077878316
 30
0
 11
0.1307067405
 21
0.4090378316
 31
0
  0
LINE
  5
FA
100
AcDbEntity
  8
SEMA2D
100
AcDbLine
370
9
 62
0
 48
0
  6
_DOT
 10
0.1307067405
 20
0.4091378316
 30
0
 11
0.1333567405
 21
0.4117878316
 31
0
  0
LINE
  5
FB
100
AcDbEntity
  8
SEMA2D
100
AcDbLine
370
9
 62
0
 48
0
  6
_DOT
 10
0.1242067405
 20
0.4077878316
 30
0
 11
0.1242067405
 21
0.4090378316
 31
0
  0
LINE
  5
FC
100
AcDbEntity
  8
SEMA2D
100
AcDbLine
370
9
 62
0
 48
0
  6
_DOT
 10
0.1242067405
 20
0.4091378316
 30
0
 11
0.1215567405
 21
0.4117878316
 31
0
  0
LINE
  5
FD
100
AcDbEntity
  8
SEMA2D
100
AcDbLine
370
9
 62
0
 48
0
  6
_DOT
 10
0.1242067405
 20
0.4090378316
 30
0
 11
0.1307067405
 21
0.4090378316
 31
0
  0
LINE
  5
FE
100
AcDbEntity
  8
SEMA2D
100
AcDbLine
370
9
 62
1
 48
0
  6
_DOT
 10
0.2774567405
 20
0.4182942135
 30
0
 11
0.2774567405
 21
0.4013342135
 31
0
  0
LINE
  5
FF
100
AcDbEntity
  8
SEMA2D
100
AcDbLine
370
9
 62
0
 48
0
  6
_DOT
 10
0.2807067405
 20
0.4077878316
 30
0
 11
0.2807067405
 21
0.4090378316
 31
0
  0
LINE
  5
100
100
AcDbEntity
  8
SEMA2D
100
AcDbLine
370
9
 62
0
 48
0
  6
_DOT
 10
0.2807067405
 20
0.4090378316
 30
0
 11
0.2834567405
 21
0.4117878316
 31
0
  0
LINE
  5
101
100
AcDbEntity
  8
SEMA2D
100
AcDbLine
370
9
 62
0
 48
0
  6
_DOT
 10
0.2742067405
 20
0.4077878316
 30
0
 11
0.2742067405
 21
0.4090378316
 31
0
  0
LINE
  5
102
100
AcDbEntity
  8
SEMA2D
100
AcDbLine
370
9
 62
0
 48
0
  6
_DOT
 10
0.2742067405
 20
0.4090378316
 30
0
 11
0.2714567405
 21
0.4117878316
 31
0
  0
LINE
  5
103
100
AcDbEntity
  8
SEMA2D
100
AcDbLine
370
9
 62
0
 48
0
  6
_DOT
 10
0.2742067405
 20
0.4090378316
 30
0
 11
0.2807067405
 21
0.4090378316
 31
0
  0
VIEWPORT
  5
11C
100
AcDbEntity
 67
1
  8
0
100
AcDbViewport
370
-1
 48
0
 10
0
 20
0
 30
0
 40
-2E20
 41
-2E20
 68
1
 69
1
 12
0
 22
0
 32
0
 16
0
 26
0
 36
1
 17
0
 27
0
 37
0
 42
50
 43
0
 44
0
 45
-2E20
 51
0
 90
32800
340
0
  0
ENDSEC
  0
SECTION
  2
OBJECTS
  0
DICTIONARY
  5
11D
100
AcDbDictionary
  3
ACAD_GROUP
350
11E
  3
ACAD_MATERIAL
350
11F
  3
ACAD_WIPEOUT_VARS
350
120
  3
ACAD_MLINESTYLE
350
121
  3
ACAD_LAYOUT
350
122
  0
DICTIONARY
  5
11E
100
AcDbDictionary
  0
DICTIONARY
  5
11F
100
AcDbDictionary
  0
WIPEOUTVARIABLES
  5
120
100
AcDbWipeoutVariables
 70
1
  0
DICTIONARY
  5
121
100
AcDbDictionary
  3
STANDARD
350
123
  0
MLINESTYLE
  5
123
100
AcDbMlineStyle
  2
STANDARD
 70
0
  3

 62
256
 51
90
 52
90
 71
2
 49
0.5
 62
256
  6
ByLayer
 49
-0.5
 62
256
  6
ByLayer
  0
DICTIONARY
  5
122
100
AcDbDictionary
  3
Model
350
104
  3
Layout1
350
105
  0
LAYOUT
  5
104
100
AcDbPlotSettings
100
AcDbLayout
  1
Model
 70
1
 71
1
 10
0.0974567405
 20
0.3797878316
 11
0.5224567405
 21
0.5467878316
 12
0
 22
0
 32
0
 14
0.0974567405
 24
0.3797878316
 34
0
 15
0.5224567405
 25
0.5467878316
 35
0
146
0
 13
0
 23
0
 33
0
 16
1
 26
0
 36
0
 17
0
 27
1
 37
0
 76
0
330
109
  0
LAYOUT
  5
105
100
AcDbPlotSettings
100
AcDbLayout
  1
Layout1
 70
1
 71
2
 10
1E20
 20
1E20
 11
-1E20
 21
-1E20
 12
0
 22
0
 32
0
 14
1E20
 24
1E20
 34
1E20
 15
-1E20
 25
-1E20
 35
-1E20
146
0
 13
0
 23
0
 33
0
 16
1
 26
0
 36
0
 17
0
 27
1
 37
0
 76
0
330
10A
  0
ENDSEC
  0
EOF
