999
Created by Soft Gold Ltd. www.cadsofttools.com
999

  0
SECTION
  2
HEADER
  9
$ACADVER
  1
AC1015
  9
$CLAYER
  8
0
  9
$CELTYPE
  6
BYLAYER
  9
$CELTSCALE
 40
1
  9
$CELWEIGHT
370
-1
  9
$DIMSTYLE
  2
STANDARD
  9
$DIMALT
 70
0
  9
$DIMALTF
 40
1
  9
$DIMAPOST
  1

  9
$DIMASZ
 40
0.18
  9
$DIMCLRD
 70
0
  9
$DIMCLRE
 70
0
  9
$DIMCLRT
 70
0
  9
$DIMEXE
 40
0.18
  9
$DIMEXO
 40
0.0625
  9
$DIMGAP
 40
0.0625
  9
$DIMLFAC
 40
1
  9
$DIMDEC
 70
4
  9
$DIMTAD
 70
0
  9
$DIMTIH
 70
1
  9
$DIMTIX
 70
0
  9
$DIMTOH
 70
1
  9
$DIMPOST
  1

  9
$DIMBLK
  1
_CLOSEDFILLED
  9
$DIMBLK1
  1

  9
$DIMBLK2
  1

  9
$DIMLDRBLK
  1

  9
$DIMTXT
 40
0.18
  9
$DIMTXSTY
  7
STANDARD
  9
$TEXTSIZE
 40
0.18
  9
$TEXTSTYLE
  7
STANDARD
  9
$HANDSEED
  5
000000000000009F
  9
$FILLETRAD
 40
0.5
  9
$INSUNITS
 70
4
  9
$LIMMIN
 10
0.6950835559
 20
0.35843641065
  9
$LIMMAX
 10
0.9200835559
 20
0.57195062015
  9
$LTSCALE
 40
1
  9
$MEASUREMENT
 70
0
  9
$PDMODE
 70
0
  9
$PDSIZE
 40
0
  9
$TILEMODE
 70
1
  9
$UCSORG
 10
0
 20
0
 30
0
  9
$UCSXDIR
 10
1
 20
0
 30
0
  9
$UCSYDIR
 10
0
 20
1
 30
0
  0
ENDSEC
  0
SECTION
  2
CLASSES
  0
CLASS
  1
IMAGE
  2
AcDbRasterImage
  3
ISM
 90
2175
280
0
281
1
  0
CLASS
  1
IMAGEDEF
  2
AcDbRasterImageDef
  3
ISM
 90
0
280
0
281
0
  0
CLASS
  1
WIPEOUT
  2
AcDbWipeout
  3
"WipeOut"
 90
2175
280
0
281
1
  0
CLASS
  1
WIPEOUTVARIABLES
  2
AcDbWipeoutVariables
  3
"WipeOut"
 90
0
280
0
281
0
  0
CLASS
  1
MPOLYGON
  2
AcDbMPolygon
  3
"AcMPolygonObj15"
 90
3071
280
0
281
1
  0
ENDSEC
  0
SECTION
  2
TABLES
  0
TABLE
  2
APPID
  5
80
100
AcDbSymbolTable
  0
APPID
  5
81
100
AcDbSymbolTableRecord
100
AcDbRegAppTableRecord
  2
ACAD
 70
0
  0
ENDTAB
  0
TABLE
  2
BLOCK_RECORD
  5
82
100
AcDbSymbolTable
  0
BLOCK_RECORD
  5
83
100
AcDbSymbolTableRecord
100
AcDbBlockTableRecord
  2
*MODEL_SPACE
  0
BLOCK_RECORD
  5
84
100
AcDbSymbolTableRecord
100
AcDbBlockTableRecord
  2
*PAPER_SPACE
  0
ENDTAB
  0
TABLE
  2
STYLE
  5
85
100
AcDbSymbolTable
  0
STYLE
  5
86
100
AcDbSymbolTableRecord
100
AcDbTextStyleTableRecord
  2
STANDARD
 70
0
 40
0
 41
1
 50
0
 71
0
 42
10
  3
simplex.shx
  4

  0
ENDTAB
  0
TABLE
  2
LTYPE
  5
87
100
AcDbSymbolTable
  0
LTYPE
  5
1
100
AcDbSymbolTableRecord
100
AcDbLinetypeTableRecord
  2
_SOLID
 70
0
  3
_.
 72
65
 73
2
 40
5
 49
5
 74
0
 49
0
 74
0
  0
LTYPE
  5
2
100
AcDbSymbolTableRecord
100
AcDbLinetypeTableRecord
  2
_DASH
 70
0
  3
_ 
 72
65
 73
2
 40
7
 49
5
 74
0
 49
-2
 74
0
  0
LTYPE
  5
3
100
AcDbSymbolTableRecord
100
AcDbLinetypeTableRecord
  2
_DOT
 70
0
  3
_ 
 72
65
 73
2
 40
4
 49
2
 74
0
 49
-2
 74
0
  0
LTYPE
  5
4
100
AcDbSymbolTableRecord
100
AcDbLinetypeTableRecord
  2
_DASHDOT
 70
0
  3
_ _ 
 72
65
 73
4
 40
11
 49
5
 74
0
 49
-2
 74
0
 49
2
 74
0
 49
-2
 74
0
  0
LTYPE
  5
5
100
AcDbSymbolTableRecord
100
AcDbLinetypeTableRecord
  2
_DASHDOTDOT
 70
0
  3
_ _ _ 
 72
65
 73
6
 40
15
 49
5
 74
0
 49
-2
 74
0
 49
2
 74
0
 49
-2
 74
0
 49
2
 74
0
 49
-2
 74
0
  0
LTYPE
  5
6
100
AcDbSymbolTableRecord
100
AcDbLinetypeTableRecord
  2
ISO128-20-02
 70
0
  3
_ 
 72
65
 73
2
 40
15
 49
12
 74
0
 49
-3
 74
0
  0
LTYPE
  5
7
100
AcDbSymbolTableRecord
100
AcDbLinetypeTableRecord
  2
ISO128-20-03
 70
0
  3
_ 
 72
65
 73
2
 40
30
 49
12
 74
0
 49
-18
 74
0
  0
LTYPE
  5
8
100
AcDbSymbolTableRecord
100
AcDbLinetypeTableRecord
  2
ISO128-20-04
 70
0
  3
_ . 
 72
65
 73
4
 40
30
 49
24
 74
0
 49
-3
 74
0
 49
0
 74
0
 49
-3
 74
0
  0
LTYPE
  5
9
100
AcDbSymbolTableRecord
100
AcDbLinetypeTableRecord
  2
ISO128-20-05
 70
0
  3
_ . . 
 72
65
 73
6
 40
33
 49
24
 74
0
 49
-3
 74
0
 49
0
 74
0
 49
-3
 74
0
 49
0
 74
0
 49
-3
 74
0
  0
LTYPE
  5
A
100
AcDbSymbolTableRecord
100
AcDbLinetypeTableRecord
  2
ISO128-20-06
 70
0
  3
_ . . . 
 72
65
 73
8
 40
36
 49
24
 74
0
 49
-3
 74
0
 49
0
 74
0
 49
-3
 74
0
 49
0
 74
0
 49
-3
 74
0
 49
0
 74
0
 49
-3
 74
0
  0
LTYPE
  5
B
100
AcDbSymbolTableRecord
100
AcDbLinetypeTableRecord
  2
ISO128-20-07
 70
0
  3
. 
 72
65
 73
2
 40
3
 49
0
 74
0
 49
-3
 74
0
  0
LTYPE
  5
C
100
AcDbSymbolTableRecord
100
AcDbLinetypeTableRecord
  2
ISO128-20-08
 70
0
  3
_ _ 
 72
65
 73
4
 40
36
 49
24
 74
0
 49
-3
 74
0
 49
6
 74
0
 49
-3
 74
0
  0
LTYPE
  5
D
100
AcDbSymbolTableRecord
100
AcDbLinetypeTableRecord
  2
ISO128-20-09
 70
0
  3
_ _ _ 
 72
65
 73
6
 40
45
 49
24
 74
0
 49
-3
 74
0
 49
6
 74
0
 49
-3
 74
0
 49
6
 74
0
 49
-3
 74
0
  0
LTYPE
  5
E
100
AcDbSymbolTableRecord
100
AcDbLinetypeTableRecord
  2
ISO128-20-10
 70
0
  3
_ . 
 72
65
 73
4
 40
18
 49
12
 74
0
 49
-3
 74
0
 49
0
 74
0
 49
-3
 74
0
  0
LTYPE
  5
F
100
AcDbSymbolTableRecord
100
AcDbLinetypeTableRecord
  2
ISO128-20-11
 70
0
  3
_ _ . 
 72
65
 73
6
 40
33
 49
12
 74
0
 49
-3
 74
0
 49
12
 74
0
 49
-3
 74
0
 49
0
 74
0
 49
-3
 74
0
  0
LTYPE
  5
10
100
AcDbSymbolTableRecord
100
AcDbLinetypeTableRecord
  2
ISO128-20-12
 70
0
  3
_ . . 
 72
65
 73
6
 40
21
 49
12
 74
0
 49
-3
 74
0
 49
0
 74
0
 49
-3
 74
0
 49
0
 74
0
 49
-3
 74
0
  0
LTYPE
  5
11
100
AcDbSymbolTableRecord
100
AcDbLinetypeTableRecord
  2
ISO128-20-13
 70
0
  3
_ _ . . 
 72
65
 73
8
 40
36
 49
12
 74
0
 49
-3
 74
0
 49
12
 74
0
 49
-3
 74
0
 49
0
 74
0
 49
-3
 74
0
 49
0
 74
0
 49
-3
 74
0
  0
LTYPE
  5
12
100
AcDbSymbolTableRecord
100
AcDbLinetypeTableRecord
  2
ISO128-20-14
 70
0
  3
_ . . . 
 72
65
 73
8
 40
24
 49
12
 74
0
 49
-3
 74
0
 49
0
 74
0
 49
-3
 74
0
 49
0
 74
0
 49
-3
 74
0
 49
0
 74
0
 49
-3
 74
0
  0
LTYPE
  5
13
100
AcDbSymbolTableRecord
100
AcDbLinetypeTableRecord
  2
ISO128-20-15
 70
0
  3
_ _ . . . 
 72
65
 73
10
 40
39
 49
12
 74
0
 49
-3
 74
0
 49
12
 74
0
 49
-3
 74
0
 49
0
 74
0
 49
-3
 74
0
 49
0
 74
0
 49
-3
 74
0
 49
0
 74
0
 49
-3
 74
0
  0
LTYPE
  5
88
100
AcDbSymbolTableRecord
100
AcDbLinetypeTableRecord
  2
ByBlock
 70
0
  3

 72
65
 73
0
 40
0
  0
LTYPE
  5
89
100
AcDbSymbolTableRecord
100
AcDbLinetypeTableRecord
  2
ByLayer
 70
0
  3

 72
65
 73
0
 40
0
  0
ENDTAB
  0
TABLE
  2
LAYER
  5
8A
100
AcDbSymbolTable
  0
LAYER
  5
8B
100
AcDbSymbolTableRecord
100
AcDbLayerTableRecord
  2
0
 70
0
 62
7
  6
CONTINUOUS
370
-3
390
0
  0
LAYER
  5
14
100
AcDbSymbolTableRecord
100
AcDbLayerTableRecord
  2
SEMA2D
 70
0
 62
7
290
1
370
-3
390
0
  0
ENDTAB
  0
TABLE
  2
VPORT
  5
8C
100
AcDbSymbolTable
  0
VPORT
  5
8D
100
AcDbSymbolTableRecord
100
AcDbViewportTableRecord
  2
*ACTIVE
 70
0
 10
0
 20
0
 11
1
 21
1
 12
0.8075835559
 22
0.4651935154
 32
0
 13
0
 23
0
 14
1
 24
1
 15
1
 25
1
 16
0
 26
0
 36
1
 17
0
 27
0
 37
0
 40
0.1708113676
 41
1.05379403331936
 42
50
 43
0
 44
0
 50
0
 51
0
 71
0
 72
100
 73
1
 74
1
 75
0
 76
0
 77
0
 78
0
  0
ENDTAB
  0
TABLE
  2
VIEW
  5
8E
100
AcDbSymbolTable
  0
ENDTAB
  0
TABLE
  2
UCS
  5
8F
100
AcDbSymbolTable
  0
ENDTAB
  0
TABLE
  2
DIMSTYLE
  5
90
100
AcDbSymbolTable
 70
1
100
AcDbDimStyleTable
 71
0
  0
DIMSTYLE
105
91
100
AcDbSymbolTableRecord
100
AcDbDimStyleTableRecord
  2
STANDARD
 70
0
340
0
  0
ENDTAB
  0
ENDSEC
  0
SECTION
  2
BLOCKS
  0
BLOCK
  5
92
100
AcDbEntity
  8
0
100
AcDbBlockBegin
  2
*MODEL_SPACE
 70
0
 10
0
 20
0
  0
ENDBLK
  5
93
100
AcDbEntity
  8
0
100
AcDbBlockEnd
  0
BLOCK
  5
94
100
AcDbEntity
  8
0
100
AcDbBlockBegin
  2
*PAPER_SPACE
 70
0
 10
0
 20
0
  0
ENDBLK
  5
95
100
AcDbEntity
  8
0
100
AcDbBlockEnd
  0
ENDSEC
  0
SECTION
  2
ENTITIES
  0
LINE
  5
15
100
AcDbEntity
  8
SEMA2D
100
AcDbLine
370
9
 62
0
 48
0
  6
_SOLID
 10
0.8275835559
 20
0.4077878316
 30
0
 11
0.8275835559
 21
0.4117878316
 31
0
  0
LINE
  5
17
100
AcDbEntity
  8
SEMA2D
100
AcDbLine
370
9
 62
0
 48
0
  6
_SOLID
 10
0.7875835559
 20
0.4077878316
 30
0
 11
0.7875835559
 21
0.4117878316
 31
0
  0
LINE
  5
18
100
AcDbEntity
  8
SEMA2D
100
AcDbLine
370
9
 62
1
 48
0
  6
_DOT
 10
0.8075835559
 20
0.5505991992
 30
0
 11
0.8075835559
 21
0.4005404808
 31
0
  0
LINE
  5
19
100
AcDbEntity
  8
SEMA2D
100
AcDbLine
370
9
 62
0
 48
0
  6
_SOLID
 10
0.7175835559
 20
0.4117878316
 30
0
 11
0.8975835559
 21
0.4117878316
 31
0
  0
LINE
  5
1A
100
AcDbEntity
  8
SEMA2D
100
AcDbLine
370
9
 62
0
 48
0
  6
_SOLID
 10
0.7175835559
 20
0.4077878316
 30
0
 11
0.8975835559
 21
0.4077878316
 31
0
  0
LINE
  5
1B
100
AcDbEntity
  8
SEMA2D
100
AcDbLine
370
9
 62
0
 48
0
  6
_SOLID
 10
0.8108335559
 20
0.4077878316
 30
0
 11
0.8108335559
 21
0.4090378316
 31
0
  0
LINE
  5
1C
100
AcDbEntity
  8
SEMA2D
100
AcDbLine
370
9
 62
0
 48
0
  6
_SOLID
 10
0.8108335559
 20
0.4080378316
 30
0
 11
0.8145835559
 21
0.4117878316
 31
0
  0
LINE
  5
1D
100
AcDbEntity
  8
SEMA2D
100
AcDbLine
370
9
 62
0
 48
0
  6
_SOLID
 10
0.8043335559
 20
0.4077878316
 30
0
 11
0.8043335559
 21
0.4090378316
 31
0
  0
LINE
  5
1E
100
AcDbEntity
  8
SEMA2D
100
AcDbLine
370
9
 62
0
 48
0
  6
_SOLID
 10
0.8043335559
 20
0.4080378316
 30
0
 11
0.8005835559
 21
0.4117878316
 31
0
  0
LINE
  5
1F
100
AcDbEntity
  8
SEMA2D
100
AcDbLine
370
9
 62
0
 48
0
  6
_SOLID
 10
0.8043335559
 20
0.4090378316
 30
0
 11
0.8108335559
 21
0.4090378316
 31
0
  0
LINE
  5
20
100
AcDbEntity
  8
SEMA2D
100
AcDbLine
370
9
 62
0
 48
0
  6
_DOT
 10
0.8100835559
 20
0.4117878316
 30
0
 11
0.8100835559
 21
0.5267878316
 31
0
  0
LINE
  5
21
100
AcDbEntity
  8
SEMA2D
100
AcDbLine
370
9
 62
0
 48
0
  6
_DOT
 10
0.8050835559
 20
0.4117878316
 30
0
 11
0.8050835559
 21
0.5267878316
 31
0
  0
LINE
  5
22
100
AcDbEntity
  8
SEMA2D
100
AcDbLine
370
9
 62
0
 48
0
  6
_SOLID
 10
0.8175835559
 20
0.4117878316
 30
0
 11
0.8175835559
 21
0.5267878316
 31
0
  0
LINE
  5
23
100
AcDbEntity
  8
SEMA2D
100
AcDbLine
370
9
 62
0
 48
0
  6
_SOLID
 10
0.7975835559
 20
0.4117878316
 30
0
 11
0.7975835559
 21
0.5267878316
 31
0
  0
LINE
  5
24
100
AcDbEntity
  8
SEMA2D
100
AcDbLine
370
9
 62
0
 48
0
  6
_SOLID
 10
0.8050835559
 20
0.5467878316
 30
0
 11
0.8100835559
 21
0.5467878316
 31
0
  0
LINE
  5
25
100
AcDbEntity
  8
SEMA2D
100
AcDbLine
370
9
 62
0
 48
0
  6
_SOLID
 10
0.7975835559
 20
0.5267878316
 30
0
 11
0.8175835559
 21
0.5267878316
 31
0
  0
LINE
  5
26
100
AcDbEntity
  8
SEMA2D
100
AcDbLine
370
9
 62
0
 48
0
  6
_SOLID
 10
0.7975835559
 20
0.5237878316
 30
0
 11
0.8175835559
 21
0.5237878316
 31
0
  0
LINE
  5
27
100
AcDbEntity
  8
SEMA2D
100
AcDbLine
370
9
 62
0
 48
0
  6
_SOLID
 10
0.8050835559
 20
0.5267878316
 30
0
 11
0.8050835559
 21
0.5467878316
 31
0
  0
LINE
  5
28
100
AcDbEntity
  8
SEMA2D
100
AcDbLine
370
9
 62
0
 48
0
  6
_SOLID
 10
0.8100835559
 20
0.5267878316
 30
0
 11
0.8100835559
 21
0.5467878316
 31
0
  0
LINE
  5
29
100
AcDbEntity
  8
SEMA2D
100
AcDbLine
370
9
 62
0
 48
0
  6
_SOLID
 10
0.8100835559
 20
0.528909152
 30
0
 11
0.8122048762
 21
0.5267878316
 31
0
  0
LINE
  5
2A
100
AcDbEntity
  8
SEMA2D
100
AcDbLine
370
9
 62
0
 48
0
  6
_SOLID
 10
0.8122048762
 20
0.5267878316
 30
0
 11
0.8100835559
 21
0.5267878316
 31
0
  0
LINE
  5
2B
100
AcDbEntity
  8
SEMA2D
100
AcDbLine
370
9
 62
0
 48
0
  6
_SOLID
 10
0.8100835559
 20
0.5267878316
 30
0
 11
0.8100835559
 21
0.528909152
 31
0
  0
LINE
  5
2C
100
AcDbEntity
  8
SEMA2D
100
AcDbLine
370
9
 62
0
 48
0
  6
_SOLID
 10
0.8100835559
 20
0.528909152
 30
0
 11
0.8122048762
 21
0.5267878316
 31
0
  0
LINE
  5
2D
100
AcDbEntity
  8
SEMA2D
100
AcDbLine
370
9
 62
0
 48
0
  6
_SOLID
 10
0.8122048762
 20
0.5267878316
 30
0
 11
0.8100835559
 21
0.5267878316
 31
0
  0
LINE
  5
2E
100
AcDbEntity
  8
SEMA2D
100
AcDbLine
370
9
 62
0
 48
0
  6
_SOLID
 10
0.8100835559
 20
0.5267878316
 30
0
 11
0.8100835559
 21
0.528909152
 31
0
  0
LINE
  5
2F
100
AcDbEntity
  8
SEMA2D
100
AcDbLine
370
9
 62
0
 48
0
  6
_SOLID
 10
0.8050835559
 20
0.528909152
 30
0
 11
0.8029622355
 21
0.5267878316
 31
0
  0
LINE
  5
30
100
AcDbEntity
  8
SEMA2D
100
AcDbLine
370
9
 62
0
 48
0
  6
_SOLID
 10
0.8029622355
 20
0.5267878316
 30
0
 11
0.8050835559
 21
0.5267878316
 31
0
  0
LINE
  5
31
100
AcDbEntity
  8
SEMA2D
100
AcDbLine
370
9
 62
0
 48
0
  6
_SOLID
 10
0.8050835559
 20
0.5267878316
 30
0
 11
0.8050835559
 21
0.528909152
 31
0
  0
LINE
  5
32
100
AcDbEntity
  8
SEMA2D
100
AcDbLine
370
9
 62
0
 48
0
  6
_SOLID
 10
0.8050835559
 20
0.528909152
 30
0
 11
0.8029622355
 21
0.5267878316
 31
0
  0
LINE
  5
33
100
AcDbEntity
  8
SEMA2D
100
AcDbLine
370
9
 62
0
 48
0
  6
_SOLID
 10
0.8029622355
 20
0.5267878316
 30
0
 11
0.8050835559
 21
0.5267878316
 31
0
  0
LINE
  5
34
100
AcDbEntity
  8
SEMA2D
100
AcDbLine
370
9
 62
0
 48
0
  6
_SOLID
 10
0.8050835559
 20
0.5267878316
 30
0
 11
0.8050835559
 21
0.528909152
 31
0
  0
LINE
  5
35
100
AcDbEntity
  8
SEMA2D
100
AcDbLine
370
9
 62
0
 48
0
  6
_SOLID
 10
0.7975835559
 20
0.413909152
 30
0
 11
0.7954622355
 21
0.4117878316
 31
0
  0
LINE
  5
36
100
AcDbEntity
  8
SEMA2D
100
AcDbLine
370
9
 62
0
 48
0
  6
_SOLID
 10
0.7954622355
 20
0.4117878316
 30
0
 11
0.7975835559
 21
0.4117878316
 31
0
  0
LINE
  5
37
100
AcDbEntity
  8
SEMA2D
100
AcDbLine
370
9
 62
0
 48
0
  6
_SOLID
 10
0.7975835559
 20
0.4117878316
 30
0
 11
0.7975835559
 21
0.413909152
 31
0
  0
LINE
  5
38
100
AcDbEntity
  8
SEMA2D
100
AcDbLine
370
9
 62
0
 48
0
  6
_SOLID
 10
0.7975835559
 20
0.413909152
 30
0
 11
0.7954622355
 21
0.4117878316
 31
0
  0
LINE
  5
39
100
AcDbEntity
  8
SEMA2D
100
AcDbLine
370
9
 62
0
 48
0
  6
_SOLID
 10
0.7954622355
 20
0.4117878316
 30
0
 11
0.7975835559
 21
0.4117878316
 31
0
  0
LINE
  5
3A
100
AcDbEntity
  8
SEMA2D
100
AcDbLine
370
9
 62
0
 48
0
  6
_SOLID
 10
0.7975835559
 20
0.4117878316
 30
0
 11
0.7975835559
 21
0.413909152
 31
0
  0
LINE
  5
3B
100
AcDbEntity
  8
SEMA2D
100
AcDbLine
370
9
 62
0
 48
0
  6
_SOLID
 10
0.8175835559
 20
0.413909152
 30
0
 11
0.8197048762
 21
0.4117878316
 31
0
  0
LINE
  5
3C
100
AcDbEntity
  8
SEMA2D
100
AcDbLine
370
9
 62
0
 48
0
  6
_SOLID
 10
0.8197048762
 20
0.4117878316
 30
0
 11
0.8175835559
 21
0.4117878316
 31
0
  0
LINE
  5
3D
100
AcDbEntity
  8
SEMA2D
100
AcDbLine
370
9
 62
0
 48
0
  6
_SOLID
 10
0.8175835559
 20
0.4117878316
 30
0
 11
0.8175835559
 21
0.413909152
 31
0
  0
LINE
  5
3E
100
AcDbEntity
  8
SEMA2D
100
AcDbLine
370
9
 62
0
 48
0
  6
_SOLID
 10
0.8175835559
 20
0.413909152
 30
0
 11
0.8197048762
 21
0.4117878316
 31
0
  0
LINE
  5
3F
100
AcDbEntity
  8
SEMA2D
100
AcDbLine
370
9
 62
0
 48
0
  6
_SOLID
 10
0.8197048762
 20
0.4117878316
 30
0
 11
0.8175835559
 21
0.4117878316
 31
0
  0
LINE
  5
40
100
AcDbEntity
  8
SEMA2D
100
AcDbLine
370
9
 62
0
 48
0
  6
_SOLID
 10
0.8175835559
 20
0.4117878316
 30
0
 11
0.8175835559
 21
0.413909152
 31
0
  0
LINE
  5
41
100
AcDbEntity
  8
SEMA2D
100
AcDbLine
370
9
 62
0
 48
0
  6
_SOLID
 10
0.8050835559
 20
0.413909152
 30
0
 11
0.8029622355
 21
0.4117878316
 31
0
  0
LINE
  5
42
100
AcDbEntity
  8
SEMA2D
100
AcDbLine
370
9
 62
0
 48
0
  6
_SOLID
 10
0.8029622355
 20
0.4117878316
 30
0
 11
0.8050835559
 21
0.4117878316
 31
0
  0
LINE
  5
43
100
AcDbEntity
  8
SEMA2D
100
AcDbLine
370
9
 62
0
 48
0
  6
_SOLID
 10
0.8050835559
 20
0.4117878316
 30
0
 11
0.8050835559
 21
0.413909152
 31
0
  0
LINE
  5
44
100
AcDbEntity
  8
SEMA2D
100
AcDbLine
370
9
 62
0
 48
0
  6
_SOLID
 10
0.8050835559
 20
0.413909152
 30
0
 11
0.8029622355
 21
0.4117878316
 31
0
  0
LINE
  5
45
100
AcDbEntity
  8
SEMA2D
100
AcDbLine
370
9
 62
0
 48
0
  6
_SOLID
 10
0.8029622355
 20
0.4117878316
 30
0
 11
0.8050835559
 21
0.4117878316
 31
0
  0
LINE
  5
46
100
AcDbEntity
  8
SEMA2D
100
AcDbLine
370
9
 62
0
 48
0
  6
_SOLID
 10
0.8050835559
 20
0.4117878316
 30
0
 11
0.8050835559
 21
0.413909152
 31
0
  0
LINE
  5
47
100
AcDbEntity
  8
SEMA2D
100
AcDbLine
370
9
 62
0
 48
0
  6
_SOLID
 10
0.8100835559
 20
0.413909152
 30
0
 11
0.8122048762
 21
0.4117878316
 31
0
  0
LINE
  5
48
100
AcDbEntity
  8
SEMA2D
100
AcDbLine
370
9
 62
0
 48
0
  6
_SOLID
 10
0.8122048762
 20
0.4117878316
 30
0
 11
0.8100835559
 21
0.4117878316
 31
0
  0
LINE
  5
49
100
AcDbEntity
  8
SEMA2D
100
AcDbLine
370
9
 62
0
 48
0
  6
_SOLID
 10
0.8100835559
 20
0.4117878316
 30
0
 11
0.8100835559
 21
0.413909152
 31
0
  0
LINE
  5
4A
100
AcDbEntity
  8
SEMA2D
100
AcDbLine
370
9
 62
0
 48
0
  6
_SOLID
 10
0.8100835559
 20
0.413909152
 30
0
 11
0.8122048762
 21
0.4117878316
 31
0
  0
LINE
  5
4B
100
AcDbEntity
  8
SEMA2D
100
AcDbLine
370
9
 62
0
 48
0
  6
_SOLID
 10
0.8122048762
 20
0.4117878316
 30
0
 11
0.8100835559
 21
0.4117878316
 31
0
  0
LINE
  5
4C
100
AcDbEntity
  8
SEMA2D
100
AcDbLine
370
9
 62
0
 48
0
  6
_SOLID
 10
0.8100835559
 20
0.4117878316
 30
0
 11
0.8100835559
 21
0.413909152
 31
0
  0
LINE
  5
4D
100
AcDbEntity
  8
SEMA2D
100
AcDbLine
370
9
 62
1
 48
0
  6
_DOT
 10
0.8203598962
 20
0.4567878316
 30
0
 11
0.7948072155
 21
0.4567878316
 31
0
  0
LINE
  5
4E
100
AcDbEntity
  8
SEMA2D
100
AcDbLine
370
9
 62
0
 48
0
  6
_DOT
 10
0.8050835559
 20
0.4742878316
 30
0
 11
0.8100835559
 21
0.4742878316
 31
0
  0
LINE
  5
4F
100
AcDbEntity
  8
SEMA2D
100
AcDbLine
370
9
 62
0
 48
0
  6
_DOT
 10
0.8050835559
 20
0.4392878316
 30
0
 11
0.8100835559
 21
0.4392878316
 31
0
  0
LINE
  5
50
100
AcDbEntity
  8
SEMA2D
100
AcDbLine
370
9
 62
0
 48
0
  6
_SOLID
 10
0.7185835559
 20
0.3797878316
 30
0
 11
0.7565835559
 21
0.3797878316
 31
0
  0
LINE
  5
51
100
AcDbEntity
  8
SEMA2D
100
AcDbLine
370
9
 62
0
 48
0
  6
_SOLID
 10
0.7565835559
 20
0.3797878316
 30
0
 11
0.7575835559
 21
0.3807878316
 31
0
  0
LINE
  5
52
100
AcDbEntity
  8
SEMA2D
100
AcDbLine
370
9
 62
0
 48
0
  6
_SOLID
 10
0.7185835559
 20
0.3797878316
 30
0
 11
0.7175835559
 21
0.3807878316
 31
0
  0
LINE
  5
53
100
AcDbEntity
  8
SEMA2D
100
AcDbLine
370
9
 62
0
 48
0
  6
_SOLID
 10
0.7175835559
 20
0.4117878316
 30
0
 11
0.7175835559
 21
0.3807878316
 31
0
  0
LINE
  5
54
100
AcDbEntity
  8
SEMA2D
100
AcDbLine
370
9
 62
0
 48
0
  6
_SOLID
 10
0.8975835559
 20
0.4117878316
 30
0
 11
0.8975835559
 21
0.3807878316
 31
0
  0
LINE
  5
55
100
AcDbEntity
  8
SEMA2D
100
AcDbLine
370
9
 62
0
 48
0
  6
_SOLID
 10
0.7575835559
 20
0.4077878316
 30
0
 11
0.7575835559
 21
0.3807878316
 31
0
  0
LINE
  5
56
100
AcDbEntity
  8
SEMA2D
100
AcDbLine
370
9
 62
0
 48
0
  6
_SOLID
 10
0.8575835559
 20
0.4077878316
 30
0
 11
0.8575835559
 21
0.3807878316
 31
0
  0
LINE
  5
57
100
AcDbEntity
  8
SEMA2D
100
AcDbLine
370
9
 62
1
 48
0
  6
_DOT
 10
0.7325835559
 20
0.4182942135
 30
0
 11
0.7325835559
 21
0.4013342135
 31
0
  0
LINE
  5
58
100
AcDbEntity
  8
SEMA2D
100
AcDbLine
370
9
 62
0
 48
0
  6
_DOT
 10
0.7358335559
 20
0.4077878316
 30
0
 11
0.7358335559
 21
0.4090378316
 31
0
  0
LINE
  5
59
100
AcDbEntity
  8
SEMA2D
100
AcDbLine
370
9
 62
0
 48
0
  6
_DOT
 10
0.7358335559
 20
0.4090378316
 30
0
 11
0.7385835559
 21
0.4117878316
 31
0
  0
LINE
  5
5A
100
AcDbEntity
  8
SEMA2D
100
AcDbLine
370
9
 62
0
 48
0
  6
_DOT
 10
0.7293335559
 20
0.4077878316
 30
0
 11
0.7293335559
 21
0.4090378316
 31
0
  0
LINE
  5
5B
100
AcDbEntity
  8
SEMA2D
100
AcDbLine
370
9
 62
0
 48
0
  6
_DOT
 10
0.7293335559
 20
0.4090378316
 30
0
 11
0.7265835559
 21
0.4117878316
 31
0
  0
LINE
  5
5C
100
AcDbEntity
  8
SEMA2D
100
AcDbLine
370
9
 62
0
 48
0
  6
_DOT
 10
0.7293335559
 20
0.4090378316
 30
0
 11
0.7358335559
 21
0.4090378316
 31
0
  0
LINE
  5
5D
100
AcDbEntity
  8
SEMA2D
100
AcDbLine
370
9
 62
1
 48
0
  6
_DOT
 10
0.7825835559
 20
0.4182942135
 30
0
 11
0.7825835559
 21
0.4013342135
 31
0
  0
LINE
  5
5E
100
AcDbEntity
  8
SEMA2D
100
AcDbLine
370
9
 62
0
 48
0
  6
_DOT
 10
0.7858335559
 20
0.4077878316
 30
0
 11
0.7858335559
 21
0.4090378316
 31
0
  0
LINE
  5
5F
100
AcDbEntity
  8
SEMA2D
100
AcDbLine
370
9
 62
0
 48
0
  6
_DOT
 10
0.7858335559
 20
0.4090378316
 30
0
 11
0.7885835559
 21
0.4117878316
 31
0
  0
LINE
  5
60
100
AcDbEntity
  8
SEMA2D
100
AcDbLine
370
9
 62
0
 48
0
  6
_DOT
 10
0.7793335559
 20
0.4077878316
 30
0
 11
0.7793335559
 21
0.4090378316
 31
0
  0
LINE
  5
61
100
AcDbEntity
  8
SEMA2D
100
AcDbLine
370
9
 62
0
 48
0
  6
_DOT
 10
0.7793335559
 20
0.4090378316
 30
0
 11
0.7765835559
 21
0.4117878316
 31
0
  0
LINE
  5
62
100
AcDbEntity
  8
SEMA2D
100
AcDbLine
370
9
 62
0
 48
0
  6
_DOT
 10
0.7793335559
 20
0.4090378316
 30
0
 11
0.7858335559
 21
0.4090378316
 31
0
  0
LINE
  5
63
100
AcDbEntity
  8
SEMA2D
100
AcDbLine
370
9
 62
1
 48
0
  6
_DOT
 10
0.7725835559
 20
0.4182942135
 30
0
 11
0.7725835559
 21
0.4013342135
 31
0
  0
LINE
  5
64
100
AcDbEntity
  8
SEMA2D
100
AcDbLine
370
9
 62
0
 48
0
  6
_DOT
 10
0.7758335559
 20
0.4077878316
 30
0
 11
0.7758335559
 21
0.4090378316
 31
0
  0
LINE
  5
65
100
AcDbEntity
  8
SEMA2D
100
AcDbLine
370
9
 62
0
 48
0
  6
_DOT
 10
0.7758335559
 20
0.4090378316
 30
0
 11
0.7785835559
 21
0.4117878316
 31
0
  0
LINE
  5
66
100
AcDbEntity
  8
SEMA2D
100
AcDbLine
370
9
 62
0
 48
0
  6
_DOT
 10
0.7693335559
 20
0.4077878316
 30
0
 11
0.7693335559
 21
0.4090378316
 31
0
  0
LINE
  5
67
100
AcDbEntity
  8
SEMA2D
100
AcDbLine
370
9
 62
0
 48
0
  6
_DOT
 10
0.7693335559
 20
0.4090378316
 30
0
 11
0.7665835559
 21
0.4117878316
 31
0
  0
LINE
  5
68
100
AcDbEntity
  8
SEMA2D
100
AcDbLine
370
9
 62
0
 48
0
  6
_DOT
 10
0.7693335559
 20
0.4090378316
 30
0
 11
0.7758335559
 21
0.4090378316
 31
0
  0
LINE
  5
69
100
AcDbEntity
  8
SEMA2D
100
AcDbLine
370
9
 62
1
 48
0
  6
_DOT
 10
0.8325835559
 20
0.4182942135
 30
0
 11
0.8325835559
 21
0.4013342135
 31
0
  0
LINE
  5
6A
100
AcDbEntity
  8
SEMA2D
100
AcDbLine
370
9
 62
0
 48
0
  6
_DOT
 10
0.8358335559
 20
0.4077878316
 30
0
 11
0.8358335559
 21
0.4090378316
 31
0
  0
LINE
  5
6B
100
AcDbEntity
  8
SEMA2D
100
AcDbLine
370
9
 62
0
 48
0
  6
_DOT
 10
0.8358335559
 20
0.4090378316
 30
0
 11
0.8385835559
 21
0.4117878316
 31
0
  0
LINE
  5
6C
100
AcDbEntity
  8
SEMA2D
100
AcDbLine
370
9
 62
0
 48
0
  6
_DOT
 10
0.8293335559
 20
0.4077878316
 30
0
 11
0.8293335559
 21
0.4090378316
 31
0
  0
LINE
  5
6D
100
AcDbEntity
  8
SEMA2D
100
AcDbLine
370
9
 62
0
 48
0
  6
_DOT
 10
0.8293335559
 20
0.4090378316
 30
0
 11
0.8265835559
 21
0.4117878316
 31
0
  0
LINE
  5
6E
100
AcDbEntity
  8
SEMA2D
100
AcDbLine
370
9
 62
0
 48
0
  6
_DOT
 10
0.8293335559
 20
0.4090378316
 30
0
 11
0.8358335559
 21
0.4090378316
 31
0
  0
LINE
  5
6F
100
AcDbEntity
  8
SEMA2D
100
AcDbLine
370
9
 62
1
 48
0
  6
_DOT
 10
0.8425835559
 20
0.4182942135
 30
0
 11
0.8425835559
 21
0.4013342135
 31
0
  0
LINE
  5
70
100
AcDbEntity
  8
SEMA2D
100
AcDbLine
370
9
 62
0
 48
0
  6
_DOT
 10
0.8458335559
 20
0.4077878316
 30
0
 11
0.8458335559
 21
0.4090378316
 31
0
  0
LINE
  5
71
100
AcDbEntity
  8
SEMA2D
100
AcDbLine
370
9
 62
0
 48
0
  6
_DOT
 10
0.8458335559
 20
0.4090378316
 30
0
 11
0.8485835559
 21
0.4117878316
 31
0
  0
LINE
  5
72
100
AcDbEntity
  8
SEMA2D
100
AcDbLine
370
9
 62
0
 48
0
  6
_DOT
 10
0.8393335559
 20
0.4077878316
 30
0
 11
0.8393335559
 21
0.4090378316
 31
0
  0
LINE
  5
73
100
AcDbEntity
  8
SEMA2D
100
AcDbLine
370
9
 62
0
 48
0
  6
_DOT
 10
0.8393335559
 20
0.4090378316
 30
0
 11
0.8365835559
 21
0.4117878316
 31
0
  0
LINE
  5
74
100
AcDbEntity
  8
SEMA2D
100
AcDbLine
370
9
 62
0
 48
0
  6
_DOT
 10
0.8393335559
 20
0.4090378316
 30
0
 11
0.8458335559
 21
0.4090378316
 31
0
  0
LINE
  5
75
100
AcDbEntity
  8
SEMA2D
100
AcDbLine
370
9
 62
1
 48
0
  6
_DOT
 10
0.8825835559
 20
0.4182942135
 30
0
 11
0.8825835559
 21
0.4013342135
 31
0
  0
LINE
  5
76
100
AcDbEntity
  8
SEMA2D
100
AcDbLine
370
9
 62
0
 48
0
  6
_DOT
 10
0.8858335559
 20
0.4077878316
 30
0
 11
0.8858335559
 21
0.4090378316
 31
0
  0
LINE
  5
77
100
AcDbEntity
  8
SEMA2D
100
AcDbLine
370
9
 62
0
 48
0
  6
_DOT
 10
0.8858335559
 20
0.4090378316
 30
0
 11
0.8885835559
 21
0.4117878316
 31
0
  0
LINE
  5
78
100
AcDbEntity
  8
SEMA2D
100
AcDbLine
370
9
 62
0
 48
0
  6
_DOT
 10
0.8793335559
 20
0.4077878316
 30
0
 11
0.8793335559
 21
0.4090378316
 31
0
  0
LINE
  5
79
100
AcDbEntity
  8
SEMA2D
100
AcDbLine
370
9
 62
0
 48
0
  6
_DOT
 10
0.8793335559
 20
0.4090378316
 30
0
 11
0.8765835559
 21
0.4117878316
 31
0
  0
LINE
  5
7A
100
AcDbEntity
  8
SEMA2D
100
AcDbLine
370
9
 62
0
 48
0
  6
_DOT
 10
0.8793335559
 20
0.4090378316
 30
0
 11
0.8858335559
 21
0.4090378316
 31
0
  0
LINE
  5
7B
100
AcDbEntity
  8
SEMA2D
100
AcDbLine
370
9
 62
0
 48
0
  6
_SOLID
 10
0.8585835559
 20
0.3797878316
 30
0
 11
0.8965835559
 21
0.3797878316
 31
0
  0
LINE
  5
7C
100
AcDbEntity
  8
SEMA2D
100
AcDbLine
370
9
 62
0
 48
0
  6
_SOLID
 10
0.8965835559
 20
0.3797878316
 30
0
 11
0.8975835559
 21
0.3807878316
 31
0
  0
LINE
  5
7D
100
AcDbEntity
  8
SEMA2D
100
AcDbLine
370
9
 62
0
 48
0
  6
_SOLID
 10
0.8585835559
 20
0.3797878316
 30
0
 11
0.8575835559
 21
0.3807878316
 31
0
  0
VIEWPORT
  5
96
100
AcDbEntity
 67
1
  8
0
100
AcDbViewport
370
-1
 48
0
 10
0
 20
0
 30
0
 40
-2E20
 41
-2E20
 68
1
 69
1
 12
0
 22
0
 32
0
 16
0
 26
0
 36
1
 17
0
 27
0
 37
0
 42
50
 43
0
 44
0
 45
-2E20
 51
0
 90
32800
340
0
  0
ENDSEC
  0
SECTION
  2
OBJECTS
  0
DICTIONARY
  5
97
100
AcDbDictionary
  3
ACAD_GROUP
350
98
  3
ACAD_MATERIAL
350
99
  3
ACAD_WIPEOUT_VARS
350
9A
  3
ACAD_MLINESTYLE
350
9B
  3
ACAD_LAYOUT
350
9C
  0
DICTIONARY
  5
98
100
AcDbDictionary
  0
DICTIONARY
  5
99
100
AcDbDictionary
  0
WIPEOUTVARIABLES
  5
9A
100
AcDbWipeoutVariables
 70
1
  0
DICTIONARY
  5
9B
100
AcDbDictionary
  3
STANDARD
350
9D
  0
MLINESTYLE
  5
9D
100
AcDbMlineStyle
  2
STANDARD
 70
0
  3

 62
256
 51
90
 52
90
 71
2
 49
0.5
 62
256
  6
ByLayer
 49
-0.5
 62
256
  6
ByLayer
  0
DICTIONARY
  5
9C
100
AcDbDictionary
  3
Model
350
7E
  3
Layout1
350
7F
  0
LAYOUT
  5
7E
100
AcDbPlotSettings
100
AcDbLayout
  1
Model
 70
1
 71
1
 10
0.7175835559
 20
0.3797878316
 11
0.8975835559
 21
0.5505991992
 12
0
 22
0
 32
0
 14
0.7175835559
 24
0.3797878316
 34
0
 15
0.8975835559
 25
0.5505991992
 35
0
146
0
 13
0
 23
0
 33
0
 16
1
 26
0
 36
0
 17
0
 27
1
 37
0
 76
0
330
83
  0
LAYOUT
  5
7F
100
AcDbPlotSettings
100
AcDbLayout
  1
Layout1
 70
1
 71
2
 10
1E20
 20
1E20
 11
-1E20
 21
-1E20
 12
0
 22
0
 32
0
 14
1E20
 24
1E20
 34
1E20
 15
-1E20
 25
-1E20
 35
-1E20
146
0
 13
0
 23
0
 33
0
 16
1
 26
0
 36
0
 17
0
 27
1
 37
0
 76
0
330
84
  0
ENDSEC
  0
EOF
