999
Created by Soft Gold Ltd. www.cadsofttools.com
999

  0
SECTION
  2
HEADER
  9
$ACADVER
  1
AC1015
  9
$CLAYER
  8
0
  9
$CELTYPE
  6
BYLAYER
  9
$CELTSCALE
 40
1
  9
$CELWEIGHT
370
-1
  9
$DIMSTYLE
  2
STANDARD
  9
$DIMALT
 70
0
  9
$DIMALTF
 40
1
  9
$DIMAPOST
  1

  9
$DIMASZ
 40
0.18
  9
$DIMCLRD
 70
0
  9
$DIMCLRE
 70
0
  9
$DIMCLRT
 70
0
  9
$DIMEXE
 40
0.18
  9
$DIMEXO
 40
0.0625
  9
$DIMGAP
 40
0.0625
  9
$DIMLFAC
 40
1
  9
$DIMDEC
 70
4
  9
$DIMTAD
 70
0
  9
$DIMTIH
 70
1
  9
$DIMTIX
 70
0
  9
$DIMTOH
 70
1
  9
$DIMPOST
  1

  9
$DIMBLK
  1
_CLOSEDFILLED
  9
$DIMBLK1
  1

  9
$DIMBLK2
  1

  9
$DIMLDRBLK
  1

  9
$DIMTXT
 40
0.18
  9
$DIMTXSTY
  7
STANDARD
  9
$TEXTSIZE
 40
0.18
  9
$TEXTSTYLE
  7
STANDARD
  9
$HANDSEED
  5
0000000000000502
  9
$FILLETRAD
 40
0.5
  9
$INSUNITS
 70
4
  9
$LIMMIN
 10
-0.157481635235977
 20
0.7210735571625
  9
$LIMMAX
 10
1.43238475169289
 20
1.7203379855375
  9
$LTSCALE
 40
1
  9
$MEASUREMENT
 70
0
  9
$PDMODE
 70
0
  9
$PDSIZE
 40
0
  9
$TILEMODE
 70
1
  9
$UCSORG
 10
0
 20
0
 30
0
  9
$UCSXDIR
 10
1
 20
0
 30
0
  9
$UCSYDIR
 10
0
 20
1
 30
0
  0
ENDSEC
  0
SECTION
  2
CLASSES
  0
CLASS
  1
IMAGE
  2
AcDbRasterImage
  3
ISM
 90
2175
280
0
281
1
  0
CLASS
  1
IMAGEDEF
  2
AcDbRasterImageDef
  3
ISM
 90
0
280
0
281
0
  0
CLASS
  1
WIPEOUT
  2
AcDbWipeout
  3
"WipeOut"
 90
2175
280
0
281
1
  0
CLASS
  1
WIPEOUTVARIABLES
  2
AcDbWipeoutVariables
  3
"WipeOut"
 90
0
280
0
281
0
  0
CLASS
  1
MPOLYGON
  2
AcDbMPolygon
  3
"AcMPolygonObj15"
 90
3071
280
0
281
1
  0
ENDSEC
  0
SECTION
  2
TABLES
  0
TABLE
  2
APPID
  5
4E3
100
AcDbSymbolTable
  0
APPID
  5
4E4
100
AcDbSymbolTableRecord
100
AcDbRegAppTableRecord
  2
ACAD
 70
0
  0
ENDTAB
  0
TABLE
  2
BLOCK_RECORD
  5
4E5
100
AcDbSymbolTable
  0
BLOCK_RECORD
  5
4E6
100
AcDbSymbolTableRecord
100
AcDbBlockTableRecord
  2
*MODEL_SPACE
  0
BLOCK_RECORD
  5
4E7
100
AcDbSymbolTableRecord
100
AcDbBlockTableRecord
  2
*PAPER_SPACE
  0
ENDTAB
  0
TABLE
  2
STYLE
  5
4E8
100
AcDbSymbolTable
  0
STYLE
  5
4E9
100
AcDbSymbolTableRecord
100
AcDbTextStyleTableRecord
  2
STANDARD
 70
0
 40
0
 41
1
 50
0
 71
0
 42
10
  3
simplex.shx
  4

  0
ENDTAB
  0
TABLE
  2
LTYPE
  5
4EA
100
AcDbSymbolTable
  0
LTYPE
  5
1
100
AcDbSymbolTableRecord
100
AcDbLinetypeTableRecord
  2
_SOLID
 70
0
  3
_.
 72
65
 73
2
 40
5
 49
5
 74
0
 49
0
 74
0
  0
LTYPE
  5
2
100
AcDbSymbolTableRecord
100
AcDbLinetypeTableRecord
  2
_DASH
 70
0
  3
_ 
 72
65
 73
2
 40
7
 49
5
 74
0
 49
-2
 74
0
  0
LTYPE
  5
3
100
AcDbSymbolTableRecord
100
AcDbLinetypeTableRecord
  2
_DOT
 70
0
  3
_ 
 72
65
 73
2
 40
4
 49
2
 74
0
 49
-2
 74
0
  0
LTYPE
  5
4
100
AcDbSymbolTableRecord
100
AcDbLinetypeTableRecord
  2
_DASHDOT
 70
0
  3
_ _ 
 72
65
 73
4
 40
11
 49
5
 74
0
 49
-2
 74
0
 49
2
 74
0
 49
-2
 74
0
  0
LTYPE
  5
5
100
AcDbSymbolTableRecord
100
AcDbLinetypeTableRecord
  2
_DASHDOTDOT
 70
0
  3
_ _ _ 
 72
65
 73
6
 40
15
 49
5
 74
0
 49
-2
 74
0
 49
2
 74
0
 49
-2
 74
0
 49
2
 74
0
 49
-2
 74
0
  0
LTYPE
  5
6
100
AcDbSymbolTableRecord
100
AcDbLinetypeTableRecord
  2
ISO128-20-02
 70
0
  3
_ 
 72
65
 73
2
 40
15
 49
12
 74
0
 49
-3
 74
0
  0
LTYPE
  5
7
100
AcDbSymbolTableRecord
100
AcDbLinetypeTableRecord
  2
ISO128-20-03
 70
0
  3
_ 
 72
65
 73
2
 40
30
 49
12
 74
0
 49
-18
 74
0
  0
LTYPE
  5
8
100
AcDbSymbolTableRecord
100
AcDbLinetypeTableRecord
  2
ISO128-20-04
 70
0
  3
_ . 
 72
65
 73
4
 40
30
 49
24
 74
0
 49
-3
 74
0
 49
0
 74
0
 49
-3
 74
0
  0
LTYPE
  5
9
100
AcDbSymbolTableRecord
100
AcDbLinetypeTableRecord
  2
ISO128-20-05
 70
0
  3
_ . . 
 72
65
 73
6
 40
33
 49
24
 74
0
 49
-3
 74
0
 49
0
 74
0
 49
-3
 74
0
 49
0
 74
0
 49
-3
 74
0
  0
LTYPE
  5
A
100
AcDbSymbolTableRecord
100
AcDbLinetypeTableRecord
  2
ISO128-20-06
 70
0
  3
_ . . . 
 72
65
 73
8
 40
36
 49
24
 74
0
 49
-3
 74
0
 49
0
 74
0
 49
-3
 74
0
 49
0
 74
0
 49
-3
 74
0
 49
0
 74
0
 49
-3
 74
0
  0
LTYPE
  5
B
100
AcDbSymbolTableRecord
100
AcDbLinetypeTableRecord
  2
ISO128-20-07
 70
0
  3
. 
 72
65
 73
2
 40
3
 49
0
 74
0
 49
-3
 74
0
  0
LTYPE
  5
C
100
AcDbSymbolTableRecord
100
AcDbLinetypeTableRecord
  2
ISO128-20-08
 70
0
  3
_ _ 
 72
65
 73
4
 40
36
 49
24
 74
0
 49
-3
 74
0
 49
6
 74
0
 49
-3
 74
0
  0
LTYPE
  5
D
100
AcDbSymbolTableRecord
100
AcDbLinetypeTableRecord
  2
ISO128-20-09
 70
0
  3
_ _ _ 
 72
65
 73
6
 40
45
 49
24
 74
0
 49
-3
 74
0
 49
6
 74
0
 49
-3
 74
0
 49
6
 74
0
 49
-3
 74
0
  0
LTYPE
  5
E
100
AcDbSymbolTableRecord
100
AcDbLinetypeTableRecord
  2
ISO128-20-10
 70
0
  3
_ . 
 72
65
 73
4
 40
18
 49
12
 74
0
 49
-3
 74
0
 49
0
 74
0
 49
-3
 74
0
  0
LTYPE
  5
F
100
AcDbSymbolTableRecord
100
AcDbLinetypeTableRecord
  2
ISO128-20-11
 70
0
  3
_ _ . 
 72
65
 73
6
 40
33
 49
12
 74
0
 49
-3
 74
0
 49
12
 74
0
 49
-3
 74
0
 49
0
 74
0
 49
-3
 74
0
  0
LTYPE
  5
10
100
AcDbSymbolTableRecord
100
AcDbLinetypeTableRecord
  2
ISO128-20-12
 70
0
  3
_ . . 
 72
65
 73
6
 40
21
 49
12
 74
0
 49
-3
 74
0
 49
0
 74
0
 49
-3
 74
0
 49
0
 74
0
 49
-3
 74
0
  0
LTYPE
  5
11
100
AcDbSymbolTableRecord
100
AcDbLinetypeTableRecord
  2
ISO128-20-13
 70
0
  3
_ _ . . 
 72
65
 73
8
 40
36
 49
12
 74
0
 49
-3
 74
0
 49
12
 74
0
 49
-3
 74
0
 49
0
 74
0
 49
-3
 74
0
 49
0
 74
0
 49
-3
 74
0
  0
LTYPE
  5
12
100
AcDbSymbolTableRecord
100
AcDbLinetypeTableRecord
  2
ISO128-20-14
 70
0
  3
_ . . . 
 72
65
 73
8
 40
24
 49
12
 74
0
 49
-3
 74
0
 49
0
 74
0
 49
-3
 74
0
 49
0
 74
0
 49
-3
 74
0
 49
0
 74
0
 49
-3
 74
0
  0
LTYPE
  5
13
100
AcDbSymbolTableRecord
100
AcDbLinetypeTableRecord
  2
ISO128-20-15
 70
0
  3
_ _ . . . 
 72
65
 73
10
 40
39
 49
12
 74
0
 49
-3
 74
0
 49
12
 74
0
 49
-3
 74
0
 49
0
 74
0
 49
-3
 74
0
 49
0
 74
0
 49
-3
 74
0
 49
0
 74
0
 49
-3
 74
0
  0
LTYPE
  5
4EB
100
AcDbSymbolTableRecord
100
AcDbLinetypeTableRecord
  2
ByBlock
 70
0
  3

 72
65
 73
0
 40
0
  0
LTYPE
  5
4EC
100
AcDbSymbolTableRecord
100
AcDbLinetypeTableRecord
  2
ByLayer
 70
0
  3

 72
65
 73
0
 40
0
  0
ENDTAB
  0
TABLE
  2
LAYER
  5
4ED
100
AcDbSymbolTable
  0
LAYER
  5
4EE
100
AcDbSymbolTableRecord
100
AcDbLayerTableRecord
  2
0
 70
0
 62
7
  6
CONTINUOUS
370
-3
390
0
  0
LAYER
  5
14
100
AcDbSymbolTableRecord
100
AcDbLayerTableRecord
  2
SEMA2D
 70
0
 62
7
290
1
370
-3
390
0
  0
ENDTAB
  0
TABLE
  2
VPORT
  5
4EF
100
AcDbSymbolTable
  0
VPORT
  5
4F0
100
AcDbSymbolTableRecord
100
AcDbViewportTableRecord
  2
*ACTIVE
 70
0
 10
0
 20
0
 11
1
 21
1
 12
0.637451558228455
 22
1.22070577135
 32
0
 13
0
 23
0
 14
1
 24
1
 15
1
 25
1
 16
0
 26
0
 36
1
 17
0
 27
0
 37
0
 40
0.7994115427
 41
1.59103670838589
 42
50
 43
0
 44
0
 50
0
 51
0
 71
0
 72
100
 73
1
 74
1
 75
0
 76
0
 77
0
 78
0
  0
ENDTAB
  0
TABLE
  2
VIEW
  5
4F1
100
AcDbSymbolTable
  0
ENDTAB
  0
TABLE
  2
UCS
  5
4F2
100
AcDbSymbolTable
  0
ENDTAB
  0
TABLE
  2
DIMSTYLE
  5
4F3
100
AcDbSymbolTable
 70
1
100
AcDbDimStyleTable
 71
0
  0
DIMSTYLE
105
4F4
100
AcDbSymbolTableRecord
100
AcDbDimStyleTableRecord
  2
STANDARD
 70
0
340
0
  0
ENDTAB
  0
ENDSEC
  0
SECTION
  2
BLOCKS
  0
BLOCK
  5
4F5
100
AcDbEntity
  8
0
100
AcDbBlockBegin
  2
*MODEL_SPACE
 70
0
 10
0
 20
0
  0
ENDBLK
  5
4F6
100
AcDbEntity
  8
0
100
AcDbBlockEnd
  0
BLOCK
  5
4F7
100
AcDbEntity
  8
0
100
AcDbBlockBegin
  2
*PAPER_SPACE
 70
0
 10
0
 20
0
  0
ENDBLK
  5
4F8
100
AcDbEntity
  8
0
100
AcDbBlockEnd
  0
ENDSEC
  0
SECTION
  2
ENTITIES
  0
LINE
  5
15
100
AcDbEntity
  8
SEMA2D
100
AcDbLine
370
9
 62
0
 48
0
  6
_SOLID
 10
1.1783077691
 20
1.5655111068
 30
0
 11
1.1653077691
 21
1.5880277673
 31
0
  0
LINE
  5
17
100
AcDbEntity
  8
SEMA2D
100
AcDbLine
370
9
 62
0
 48
0
  6
_SOLID
 10
1.1653077691
 20
1.5880277673
 30
0
 11
1.1237385497
 21
1.5640277673
 31
0
  0
LINE
  5
18
100
AcDbEntity
  8
SEMA2D
100
AcDbLine
370
9
 62
0
 48
0
  6
_SOLID
 10
1.1237385497
 20
1.5640277673
 30
0
 11
1.1367385497
 21
1.5415111068
 31
0
  0
LINE
  5
19
100
AcDbEntity
  8
SEMA2D
100
AcDbLine
370
9
 62
0
 48
0
  6
_SOLID
 10
1.1367385497
 20
1.5415111068
 30
0
 11
1.1783077691
 21
1.5655111068
 31
0
  0
LINE
  5
1A
100
AcDbEntity
  8
SEMA2D
100
AcDbLine
370
9
 62
25
 48
0
  6
_SOLID
 10
1.1367385497148
 20
1.54151110680854
 30
0
 11
1.1653077690852
 21
1.58802776729146
 31
0
  0
LINE
  5
1B
100
AcDbEntity
  8
SEMA2D
100
AcDbLine
370
9
 62
25
 48
0
  6
_SOLID
 10
1.12373854970023
 20
1.5640277672996
 30
0
 11
1.17830776909977
 21
1.5655111068004
 31
0
  0
LINE
  5
1C
100
AcDbEntity
  8
SEMA2D
100
AcDbLine
370
9
 62
0
 48
0
  6
_SOLID
 10
1.1783077691
 20
1.5655111068
 30
0
 11
1.1653077691
 21
1.5880277673
 31
0
  0
LINE
  5
1D
100
AcDbEntity
  8
SEMA2D
100
AcDbLine
370
9
 62
0
 48
0
  6
_SOLID
 10
1.1653077691
 20
1.5880277673
 30
0
 11
1.1237385497
 21
1.5640277673
 31
0
  0
LINE
  5
1E
100
AcDbEntity
  8
SEMA2D
100
AcDbLine
370
9
 62
0
 48
0
  6
_SOLID
 10
1.1237385497
 20
1.5640277673
 30
0
 11
1.1367385497
 21
1.5415111068
 31
0
  0
LINE
  5
1F
100
AcDbEntity
  8
SEMA2D
100
AcDbLine
370
9
 62
0
 48
0
  6
_SOLID
 10
1.1367385497
 20
1.5415111068
 30
0
 11
1.1783077691
 21
1.5655111068
 31
0
  0
LINE
  5
20
100
AcDbEntity
  8
SEMA2D
100
AcDbLine
370
9
 62
0
 48
0
  6
_SOLID
 10
1.1783077691
 20
1.5655111068
 30
0
 11
1.1653077691
 21
1.5880277673
 31
0
  0
LINE
  5
21
100
AcDbEntity
  8
SEMA2D
100
AcDbLine
370
9
 62
0
 48
0
  6
_SOLID
 10
1.1653077691
 20
1.5880277673
 30
0
 11
1.1237385497
 21
1.5640277673
 31
0
  0
LINE
  5
22
100
AcDbEntity
  8
SEMA2D
100
AcDbLine
370
9
 62
0
 48
0
  6
_SOLID
 10
1.1237385497
 20
1.5640277673
 30
0
 11
1.1367385497
 21
1.5415111068
 31
0
  0
LINE
  5
23
100
AcDbEntity
  8
SEMA2D
100
AcDbLine
370
9
 62
0
 48
0
  6
_SOLID
 10
1.1367385497
 20
1.5415111068
 30
0
 11
1.1783077691
 21
1.5655111068
 31
0
  0
LINE
  5
24
100
AcDbEntity
  8
SEMA2D
100
AcDbLine
370
9
 62
0
 48
0
  6
_SOLID
 10
0.9704616721
 20
1.4455111069
 30
0
 11
0.9574616721
 21
1.4680277674
 31
0
  0
LINE
  5
25
100
AcDbEntity
  8
SEMA2D
100
AcDbLine
370
9
 62
0
 48
0
  6
_SOLID
 10
0.9574616721
 20
1.4680277674
 30
0
 11
0.9158924527
 21
1.4440277674
 31
0
  0
LINE
  5
26
100
AcDbEntity
  8
SEMA2D
100
AcDbLine
370
9
 62
0
 48
0
  6
_SOLID
 10
0.9158924527
 20
1.4440277674
 30
0
 11
0.9288924527
 21
1.4215111069
 31
0
  0
LINE
  5
27
100
AcDbEntity
  8
SEMA2D
100
AcDbLine
370
9
 62
0
 48
0
  6
_SOLID
 10
0.9288924527
 20
1.4215111069
 30
0
 11
0.9704616721
 21
1.4455111069
 31
0
  0
LINE
  5
28
100
AcDbEntity
  8
SEMA2D
100
AcDbLine
370
9
 62
25
 48
0
  6
_SOLID
 10
0.928892452714797
 20
1.42151110690854
 30
0
 11
0.957461672085203
 21
1.46802776739146
 31
0
  0
LINE
  5
29
100
AcDbEntity
  8
SEMA2D
100
AcDbLine
370
9
 62
25
 48
0
  6
_SOLID
 10
0.915892452700229
 20
1.4440277673996
 30
0
 11
0.970461672099771
 21
1.4455111069004
 31
0
  0
LINE
  5
2A
100
AcDbEntity
  8
SEMA2D
100
AcDbLine
370
9
 62
0
 48
0
  6
_SOLID
 10
0.9704616721
 20
1.4455111069
 30
0
 11
0.9574616721
 21
1.4680277674
 31
0
  0
LINE
  5
2B
100
AcDbEntity
  8
SEMA2D
100
AcDbLine
370
9
 62
0
 48
0
  6
_SOLID
 10
0.9574616721
 20
1.4680277674
 30
0
 11
0.9158924527
 21
1.4440277674
 31
0
  0
LINE
  5
2C
100
AcDbEntity
  8
SEMA2D
100
AcDbLine
370
9
 62
0
 48
0
  6
_SOLID
 10
0.9158924527
 20
1.4440277674
 30
0
 11
0.9288924527
 21
1.4215111069
 31
0
  0
LINE
  5
2D
100
AcDbEntity
  8
SEMA2D
100
AcDbLine
370
9
 62
0
 48
0
  6
_SOLID
 10
0.9288924527
 20
1.4215111069
 30
0
 11
0.9704616721
 21
1.4455111069
 31
0
  0
LINE
  5
2E
100
AcDbEntity
  8
SEMA2D
100
AcDbLine
370
9
 62
0
 48
0
  6
_SOLID
 10
0.9704616721
 20
1.4455111069
 30
0
 11
0.9574616721
 21
1.4680277674
 31
0
  0
LINE
  5
2F
100
AcDbEntity
  8
SEMA2D
100
AcDbLine
370
9
 62
0
 48
0
  6
_SOLID
 10
0.9574616721
 20
1.4680277674
 30
0
 11
0.9158924527
 21
1.4440277674
 31
0
  0
LINE
  5
30
100
AcDbEntity
  8
SEMA2D
100
AcDbLine
370
9
 62
0
 48
0
  6
_SOLID
 10
0.9158924527
 20
1.4440277674
 30
0
 11
0.9288924527
 21
1.4215111069
 31
0
  0
LINE
  5
31
100
AcDbEntity
  8
SEMA2D
100
AcDbLine
370
9
 62
0
 48
0
  6
_SOLID
 10
0.9288924527
 20
1.4215111069
 30
0
 11
0.9704616721
 21
1.4455111069
 31
0
  0
LINE
  5
32
100
AcDbEntity
  8
SEMA2D
100
AcDbLine
370
9
 62
0
 48
0
  6
_SOLID
 10
0.7626155752
 20
1.3255111069
 30
0
 11
0.7496155752
 21
1.3480277674
 31
0
  0
LINE
  5
33
100
AcDbEntity
  8
SEMA2D
100
AcDbLine
370
9
 62
0
 48
0
  6
_SOLID
 10
0.7496155752
 20
1.3480277674
 30
0
 11
0.7080463558
 21
1.3240277674
 31
0
  0
LINE
  5
34
100
AcDbEntity
  8
SEMA2D
100
AcDbLine
370
9
 62
0
 48
0
  6
_SOLID
 10
0.7080463558
 20
1.3240277674
 30
0
 11
0.7210463558
 21
1.3015111069
 31
0
  0
LINE
  5
35
100
AcDbEntity
  8
SEMA2D
100
AcDbLine
370
9
 62
0
 48
0
  6
_SOLID
 10
0.7210463558
 20
1.3015111069
 30
0
 11
0.7626155752
 21
1.3255111069
 31
0
  0
LINE
  5
36
100
AcDbEntity
  8
SEMA2D
100
AcDbLine
370
9
 62
25
 48
0
  6
_SOLID
 10
0.721046355814797
 20
1.30151110690854
 30
0
 11
0.749615575185203
 21
1.34802776739146
 31
0
  0
LINE
  5
37
100
AcDbEntity
  8
SEMA2D
100
AcDbLine
370
9
 62
25
 48
0
  6
_SOLID
 10
0.708046355800229
 20
1.3240277673996
 30
0
 11
0.762615575199771
 21
1.3255111069004
 31
0
  0
LINE
  5
38
100
AcDbEntity
  8
SEMA2D
100
AcDbLine
370
9
 62
0
 48
0
  6
_SOLID
 10
0.7626155752
 20
1.3255111069
 30
0
 11
0.7496155752
 21
1.3480277674
 31
0
  0
LINE
  5
39
100
AcDbEntity
  8
SEMA2D
100
AcDbLine
370
9
 62
0
 48
0
  6
_SOLID
 10
0.7496155752
 20
1.3480277674
 30
0
 11
0.7080463558
 21
1.3240277674
 31
0
  0
LINE
  5
3A
100
AcDbEntity
  8
SEMA2D
100
AcDbLine
370
9
 62
0
 48
0
  6
_SOLID
 10
0.7080463558
 20
1.3240277674
 30
0
 11
0.7210463558
 21
1.3015111069
 31
0
  0
LINE
  5
3B
100
AcDbEntity
  8
SEMA2D
100
AcDbLine
370
9
 62
0
 48
0
  6
_SOLID
 10
0.7210463558
 20
1.3015111069
 30
0
 11
0.7626155752
 21
1.3255111069
 31
0
  0
LINE
  5
3C
100
AcDbEntity
  8
SEMA2D
100
AcDbLine
370
9
 62
0
 48
0
  6
_SOLID
 10
0.7626155752
 20
1.3255111069
 30
0
 11
0.7496155752
 21
1.3480277674
 31
0
  0
LINE
  5
3D
100
AcDbEntity
  8
SEMA2D
100
AcDbLine
370
9
 62
0
 48
0
  6
_SOLID
 10
0.7496155752
 20
1.3480277674
 30
0
 11
0.7080463558
 21
1.3240277674
 31
0
  0
LINE
  5
3E
100
AcDbEntity
  8
SEMA2D
100
AcDbLine
370
9
 62
0
 48
0
  6
_SOLID
 10
0.7080463558
 20
1.3240277674
 30
0
 11
0.7210463558
 21
1.3015111069
 31
0
  0
LINE
  5
3F
100
AcDbEntity
  8
SEMA2D
100
AcDbLine
370
9
 62
0
 48
0
  6
_SOLID
 10
0.7210463558
 20
1.3015111069
 30
0
 11
0.7626155752
 21
1.3255111069
 31
0
  0
LINE
  5
40
100
AcDbEntity
  8
SEMA2D
100
AcDbLine
370
9
 62
0
 48
0
  6
_SOLID
 10
0.5547694783
 20
1.205511107
 30
0
 11
0.5417694783
 21
1.2280277675
 31
0
  0
LINE
  5
41
100
AcDbEntity
  8
SEMA2D
100
AcDbLine
370
9
 62
0
 48
0
  6
_SOLID
 10
0.5417694783
 20
1.2280277675
 30
0
 11
0.5002002589
 21
1.2040277675
 31
0
  0
LINE
  5
42
100
AcDbEntity
  8
SEMA2D
100
AcDbLine
370
9
 62
0
 48
0
  6
_SOLID
 10
0.5002002589
 20
1.2040277675
 30
0
 11
0.5132002589
 21
1.181511107
 31
0
  0
LINE
  5
43
100
AcDbEntity
  8
SEMA2D
100
AcDbLine
370
9
 62
0
 48
0
  6
_SOLID
 10
0.5132002589
 20
1.181511107
 30
0
 11
0.5547694783
 21
1.205511107
 31
0
  0
LINE
  5
44
100
AcDbEntity
  8
SEMA2D
100
AcDbLine
370
9
 62
25
 48
0
  6
_SOLID
 10
0.513200258914797
 20
1.18151110700854
 30
0
 11
0.541769478285203
 21
1.22802776749146
 31
0
  0
LINE
  5
45
100
AcDbEntity
  8
SEMA2D
100
AcDbLine
370
9
 62
25
 48
0
  6
_SOLID
 10
0.500200258900229
 20
1.2040277674996
 30
0
 11
0.554769478299771
 21
1.2055111070004
 31
0
  0
LINE
  5
46
100
AcDbEntity
  8
SEMA2D
100
AcDbLine
370
9
 62
0
 48
0
  6
_SOLID
 10
0.5547694783
 20
1.205511107
 30
0
 11
0.5417694783
 21
1.2280277675
 31
0
  0
LINE
  5
47
100
AcDbEntity
  8
SEMA2D
100
AcDbLine
370
9
 62
0
 48
0
  6
_SOLID
 10
0.5417694783
 20
1.2280277675
 30
0
 11
0.5002002589
 21
1.2040277675
 31
0
  0
LINE
  5
48
100
AcDbEntity
  8
SEMA2D
100
AcDbLine
370
9
 62
0
 48
0
  6
_SOLID
 10
0.5002002589
 20
1.2040277675
 30
0
 11
0.5132002589
 21
1.181511107
 31
0
  0
LINE
  5
49
100
AcDbEntity
  8
SEMA2D
100
AcDbLine
370
9
 62
0
 48
0
  6
_SOLID
 10
0.5132002589
 20
1.181511107
 30
0
 11
0.5547694783
 21
1.205511107
 31
0
  0
LINE
  5
4A
100
AcDbEntity
  8
SEMA2D
100
AcDbLine
370
9
 62
0
 48
0
  6
_SOLID
 10
0.5547694783
 20
1.205511107
 30
0
 11
0.5417694783
 21
1.2280277675
 31
0
  0
LINE
  5
4B
100
AcDbEntity
  8
SEMA2D
100
AcDbLine
370
9
 62
0
 48
0
  6
_SOLID
 10
0.5417694783
 20
1.2280277675
 30
0
 11
0.5002002589
 21
1.2040277675
 31
0
  0
LINE
  5
4C
100
AcDbEntity
  8
SEMA2D
100
AcDbLine
370
9
 62
0
 48
0
  6
_SOLID
 10
0.5002002589
 20
1.2040277675
 30
0
 11
0.5132002589
 21
1.181511107
 31
0
  0
LINE
  5
4D
100
AcDbEntity
  8
SEMA2D
100
AcDbLine
370
9
 62
0
 48
0
  6
_SOLID
 10
0.5132002589
 20
1.181511107
 30
0
 11
0.5547694783
 21
1.205511107
 31
0
  0
LINE
  5
4E
100
AcDbEntity
  8
SEMA2D
100
AcDbLine
370
9
 62
1
 48
0
  6
_SOLID
 10
0.892519385754488
 20
1.40051110690851
 30
0
 11
0.877519385755289
 21
1.42649186902251
 31
0
  0
LINE
  5
4F
100
AcDbEntity
  8
SEMA2D
100
AcDbLine
370
9
 62
1
 48
0
  6
_SOLID
 10
0.877519385755289
 20
1.42649186902251
 30
0
 11
0.723027117890201
 21
1.35808032631071
 31
0
  0
LINE
  5
50
100
AcDbEntity
  8
SEMA2D
100
AcDbLine
370
9
 62
1
 48
0
  6
_SOLID
 10
0.723027117890201
 20
1.35808032631071
 30
0
 11
0.747027117888888
 21
1.31651110692837
 31
0
  0
LINE
  5
51
100
AcDbEntity
  8
SEMA2D
100
AcDbLine
370
9
 62
1
 48
0
  6
_SOLID
 10
0.747027117888888
 20
1.31651110692837
 30
0
 11
0.892519385754488
 21
1.40051110690851
 31
0
  0
LINE
  5
52
100
AcDbEntity
  8
SEMA2D
100
AcDbLine
370
9
 62
25
 48
0
  6
_SOLID
 10
0.747027117986205
 20
1.31651110698456
 30
0
 11
0.835385130848624
 21
1.40783417554043
 31
0
  0
LINE
  5
53
100
AcDbEntity
  8
SEMA2D
100
AcDbLine
370
9
 62
25
 48
0
  6
_SOLID
 10
0.723027117890413
 20
1.35808032631035
 30
0
 11
0.892519385754355
 21
1.40051110690874
 31
0
  0
LINE
  5
54
100
AcDbEntity
  8
SEMA2D
100
AcDbLine
370
9
 62
1
 48
0
  6
_SOLID
 10
0.892519385754488
 20
1.40051110690851
 30
0
 11
0.877519385755289
 21
1.42649186902251
 31
0
  0
LINE
  5
55
100
AcDbEntity
  8
SEMA2D
100
AcDbLine
370
9
 62
1
 48
0
  6
_SOLID
 10
0.877519385755289
 20
1.42649186902251
 30
0
 11
0.723027117890201
 21
1.35808032631071
 31
0
  0
LINE
  5
56
100
AcDbEntity
  8
SEMA2D
100
AcDbLine
370
9
 62
1
 48
0
  6
_SOLID
 10
0.723027117890201
 20
1.35808032631071
 30
0
 11
0.747027117888888
 21
1.31651110692837
 31
0
  0
LINE
  5
57
100
AcDbEntity
  8
SEMA2D
100
AcDbLine
370
9
 62
1
 48
0
  6
_SOLID
 10
0.747027117888888
 20
1.31651110692837
 30
0
 11
0.892519385754488
 21
1.40051110690851
 31
0
  0
LINE
  5
58
100
AcDbEntity
  8
SEMA2D
100
AcDbLine
370
9
 62
1
 48
0
  6
_SOLID
 10
0.892519385754488
 20
1.40051110690851
 30
0
 11
0.877519385755289
 21
1.42649186902251
 31
0
  0
LINE
  5
59
100
AcDbEntity
  8
SEMA2D
100
AcDbLine
370
9
 62
1
 48
0
  6
_SOLID
 10
0.877519385755289
 20
1.42649186902251
 30
0
 11
0.723027117890201
 21
1.35808032631071
 31
0
  0
LINE
  5
5A
100
AcDbEntity
  8
SEMA2D
100
AcDbLine
370
9
 62
1
 48
0
  6
_SOLID
 10
0.723027117890201
 20
1.35808032631071
 30
0
 11
0.747027117888888
 21
1.31651110692837
 31
0
  0
LINE
  5
5B
100
AcDbEntity
  8
SEMA2D
100
AcDbLine
370
9
 62
1
 48
0
  6
_SOLID
 10
0.747027117888888
 20
1.31651110692837
 30
0
 11
0.892519385754488
 21
1.40051110690851
 31
0
  0
LINE
  5
5C
100
AcDbEntity
  8
SEMA2D
100
AcDbLine
370
9
 62
0
 48
0
  6
_SOLID
 10
0.3457975483
 20
1.084861107
 30
0
 11
0.3337475483
 21
1.1057323192
 31
0
  0
LINE
  5
5D
100
AcDbEntity
  8
SEMA2D
100
AcDbLine
370
9
 62
0
 48
0
  6
_SOLID
 10
0.3337475483
 20
1.1057323192
 30
0
 11
0.2933041619
 21
1.0823823192
 31
0
  0
LINE
  5
5E
100
AcDbEntity
  8
SEMA2D
100
AcDbLine
370
9
 62
0
 48
0
  6
_SOLID
 10
0.2933041619
 20
1.0823823192
 30
0
 11
0.3053541619
 21
1.061511107
 31
0
  0
LINE
  5
5F
100
AcDbEntity
  8
SEMA2D
100
AcDbLine
370
9
 62
0
 48
0
  6
_SOLID
 10
0.3053541619
 20
1.061511107
 30
0
 11
0.3457975483
 21
1.084861107
 31
0
  0
LINE
  5
60
100
AcDbEntity
  8
SEMA2D
100
AcDbLine
370
9
 62
25
 48
0
  6
_SOLID
 10
0.305354161922961
 20
1.06151110701326
 30
0
 11
0.333747548277039
 21
1.10573231918674
 31
0
  0
LINE
  5
61
100
AcDbEntity
  8
SEMA2D
100
AcDbLine
370
9
 62
25
 48
0
  6
_SOLID
 10
0.2933041619
 20
1.0823823192
 30
0
 11
0.3457975483
 21
1.084861107
 31
0
  0
LINE
  5
62
100
AcDbEntity
  8
SEMA2D
100
AcDbLine
370
9
 62
0
 48
0
  6
_SOLID
 10
0.3457975483
 20
1.084861107
 30
0
 11
0.3337475483
 21
1.1057323192
 31
0
  0
LINE
  5
63
100
AcDbEntity
  8
SEMA2D
100
AcDbLine
370
9
 62
0
 48
0
  6
_SOLID
 10
0.3337475483
 20
1.1057323192
 30
0
 11
0.2933041619
 21
1.0823823192
 31
0
  0
LINE
  5
64
100
AcDbEntity
  8
SEMA2D
100
AcDbLine
370
9
 62
0
 48
0
  6
_SOLID
 10
0.2933041619
 20
1.0823823192
 30
0
 11
0.3053541619
 21
1.061511107
 31
0
  0
LINE
  5
65
100
AcDbEntity
  8
SEMA2D
100
AcDbLine
370
9
 62
0
 48
0
  6
_SOLID
 10
0.3053541619
 20
1.061511107
 30
0
 11
0.3457975483
 21
1.084861107
 31
0
  0
LINE
  5
66
100
AcDbEntity
  8
SEMA2D
100
AcDbLine
370
9
 62
0
 48
0
  6
_SOLID
 10
0.3457975483
 20
1.084861107
 30
0
 11
0.3337475483
 21
1.1057323192
 31
0
  0
LINE
  5
67
100
AcDbEntity
  8
SEMA2D
100
AcDbLine
370
9
 62
0
 48
0
  6
_SOLID
 10
0.3337475483
 20
1.1057323192
 30
0
 11
0.2933041619
 21
1.0823823192
 31
0
  0
LINE
  5
68
100
AcDbEntity
  8
SEMA2D
100
AcDbLine
370
9
 62
0
 48
0
  6
_SOLID
 10
0.2933041619
 20
1.0823823192
 30
0
 11
0.3053541619
 21
1.061511107
 31
0
  0
LINE
  5
69
100
AcDbEntity
  8
SEMA2D
100
AcDbLine
370
9
 62
0
 48
0
  6
_SOLID
 10
0.3053541619
 20
1.061511107
 30
0
 11
0.3457975483
 21
1.084861107
 31
0
  0
LINE
  5
6A
100
AcDbEntity
  8
SEMA2D
100
AcDbLine
370
9
 62
0
 48
0
  6
_SOLID
 10
0.0619817856
 20
0.921
 30
0
 11
0.1659048341
 21
0.981
 31
0
  0
LINE
  5
6B
100
AcDbEntity
  8
SEMA2D
100
AcDbLine
370
9
 62
0
 48
0
  6
_SOLID
 10
0.1659048341
 20
0.981
 30
0
 11
0.1470293952
 21
1.0136932192
 31
0
  0
LINE
  5
6C
100
AcDbEntity
  8
SEMA2D
100
AcDbLine
370
9
 62
0
 48
0
  6
_SOLID
 10
0.1470293952
 20
1.0136932192
 30
0
 11
0.0619817856
 21
0.9905129724
 31
0
  0
LINE
  5
6D
100
AcDbEntity
  8
SEMA2D
100
AcDbLine
370
9
 62
0
 48
0
  6
_SOLID
 10
0.0619817856
 20
0.9905129724
 30
0
 11
0.0619817856
 21
0.921
 31
0
  0
LINE
  5
6E
100
AcDbEntity
  8
SEMA2D
100
AcDbLine
370
9
 62
25
 48
0
  6
_SOLID
 10
0.0619817856399429
 20
0.921000000023061
 30
0
 11
0.117752324725058
 21
1.00571357435893
 31
0
  0
LINE
  5
6F
100
AcDbEntity
  8
SEMA2D
100
AcDbLine
370
9
 62
25
 48
0
  6
_SOLID
 10
0.0619817856
 20
0.974901176569709
 30
0
 11
0.165904834098725
 21
0.981000000002208
 31
0
  0
LINE
  5
70
100
AcDbEntity
  8
SEMA2D
100
AcDbLine
370
9
 62
0
 48
0
  6
_SOLID
 10
0.0619817856
 20
0.921
 30
0
 11
0.1659048341
 21
0.981
 31
0
  0
LINE
  5
71
100
AcDbEntity
  8
SEMA2D
100
AcDbLine
370
9
 62
0
 48
0
  6
_SOLID
 10
0.1659048341
 20
0.981
 30
0
 11
0.1470293952
 21
1.0136932192
 31
0
  0
LINE
  5
72
100
AcDbEntity
  8
SEMA2D
100
AcDbLine
370
9
 62
0
 48
0
  6
_SOLID
 10
0.1470293952
 20
1.0136932192
 30
0
 11
0.0619817856
 21
0.9905129724
 31
0
  0
LINE
  5
73
100
AcDbEntity
  8
SEMA2D
100
AcDbLine
370
9
 62
0
 48
0
  6
_SOLID
 10
0.0619817856
 20
0.9905129724
 30
0
 11
0.0619817856
 21
0.921
 31
0
  0
LINE
  5
74
100
AcDbEntity
  8
SEMA2D
100
AcDbLine
370
9
 62
0
 48
0
  6
_SOLID
 10
0.0619817856
 20
0.921
 30
0
 11
0.1659048341
 21
0.981
 31
0
  0
LINE
  5
75
100
AcDbEntity
  8
SEMA2D
100
AcDbLine
370
9
 62
0
 48
0
  6
_SOLID
 10
0.1659048341
 20
0.981
 30
0
 11
0.1470293952
 21
1.0136932192
 31
0
  0
LINE
  5
76
100
AcDbEntity
  8
SEMA2D
100
AcDbLine
370
9
 62
0
 48
0
  6
_SOLID
 10
0.1470293952
 20
1.0136932192
 30
0
 11
0.0619817856
 21
0.9905129724
 31
0
  0
LINE
  5
77
100
AcDbEntity
  8
SEMA2D
100
AcDbLine
370
9
 62
0
 48
0
  6
_SOLID
 10
0.0619817856
 20
0.9905129724
 30
0
 11
0.0619817856
 21
0.921
 31
0
  0
LINE
  5
78
100
AcDbEntity
  8
SEMA2D
100
AcDbLine
370
18
 62
0
 48
0
  6
_SOLID
 10
0.0619817856
 20
0.821
 30
0
 11
0.0619817856
 21
0.9905129724
 31
0
  0
LINE
  5
79
100
AcDbEntity
  8
SEMA2D
100
AcDbLine
370
18
 62
0
 48
0
  6
_SOLID
 10
1.273398113
 20
1.6204115427
 30
0
 11
0.0619817856
 21
0.921
 31
0
  0
LINE
  5
7A
100
AcDbEntity
  8
SEMA2D
100
AcDbLine
370
9
 62
1
 48
0
  6
_SOLID
 10
0.879348112852088
 20
1.42730165739328
 30
0
 11
0.49531542252428
 21
1.25724609953178
 31
0
  0
LINE
  5
7B
100
AcDbEntity
  8
SEMA2D
100
AcDbLine
370
9
 62
1
 48
0
  6
_DOT
 10
0.54520052350087
 20
1.28042964327633
 30
0
 11
0.531485070274877
 21
1.27435623049556
 31
0
  0
LINE
  5
7C
100
AcDbEntity
  8
SEMA2D
100
AcDbLine
370
9
 62
1
 48
0
  6
_DOT
 10
0.513197799306886
 20
1.26625834678787
 30
0
 11
0.499482346080893
 21
1.2601849340071
 31
0
  0
LINE
  5
7D
100
AcDbEntity
  8
SEMA2D
100
AcDbLine
370
9
 62
1
 48
0
  6
_SOLID
 10
0.598591569951552
 20
1.45499666810891
 30
0
 11
0.521327850111791
 21
1.42078310944392
 31
0
  0
ARC
  5
7E
100
AcDbEntity
  8
SEMA2D
100
AcDbCircle
370
9
 62
1
 48
0
  6
_SOLID
 10
0.601830723434628
 20
1.44768175972172
 30
0
 40
0.00800000000000002
100
AcDbArc
 50
23.8844964234619
 51
113.884496423463
  0
LINE
  5
7F
100
AcDbEntity
  8
SEMA2D
100
AcDbLine
370
9
 62
1
 48
0
  6
_SOLID
 10
0.614004362046439
 20
1.439948550624
 30
0
 11
0.547713004787472
 21
1.41059372218362
 31
0
  0
LINE
  5
80
100
AcDbEntity
  8
SEMA2D
100
AcDbLine
370
9
 62
1
 48
0
  6
_SOLID
 10
0.615219044602592
 20
1.4372054599788
 30
0
 11
0.548927687343625
 21
1.40785063153842
 31
0
  0
LINE
  5
81
100
AcDbEntity
  8
SEMA2D
100
AcDbLine
370
9
 62
1
 48
0
  6
_SOLID
 10
0.876814172562151
 20
1.43055421740149
 30
0
 11
0.493695845782742
 21
1.26090355372538
 31
0
  0
LINE
  5
82
100
AcDbEntity
  8
SEMA2D
100
AcDbLine
370
9
 62
1
 48
0
  6
_SOLID
 10
0.895256967784853
 20
1.40372394896501
 30
0
 11
0.891599513591255
 21
1.40210437222347
 31
0
  0
LINE
  5
83
100
AcDbEntity
  8
SEMA2D
100
AcDbLine
370
9
 62
1
 48
0
  6
_SOLID
 10
0.884729718964855
 20
1.4274974012234
 30
0
 11
0.895256967784853
 21
1.40372394896501
 31
0
  0
ARC
  5
84
100
AcDbEntity
  8
SEMA2D
100
AcDbCircle
370
9
 62
1
 48
0
  6
_SOLID
 10
0.879243537674458
 20
1.42506803611109
 30
0
 40
0.0060000000000001
100
AcDbArc
 50
23.8844964234617
 51
113.884496423465
  0
LINE
  5
85
100
AcDbEntity
  8
SEMA2D
100
AcDbLine
370
9
 62
1
 48
0
  6
_SOLID
 10
0.880667370585873
 20
1.42679218803026
 30
0
 11
0.891599513591255
 21
1.40210437222347
 31
0
  0
LINE
  5
86
100
AcDbEntity
  8
SEMA2D
100
AcDbLine
370
9
 62
1
 48
0
  6
_DOT
 10
0.876814172562151
 20
1.43055421740149
 30
0
 11
0.878433749303689
 21
1.42689676320789
 31
0
  0
ARC
  5
87
100
AcDbEntity
  8
SEMA2D
100
AcDbCircle
370
9
 62
1
 48
0
  6
_SOLID
 10
0.879753007037473
 20
1.42638729384488
 30
0
 40
0.000999999999999809
100
AcDbArc
 50
23.8844964234624
 51
113.884496423468
  0
LINE
  5
88
100
AcDbEntity
  8
SEMA2D
100
AcDbLine
370
9
 62
1
 48
0
  6
_SOLID
 10
0.475475607440438
 20
1.30204991340336
 30
0
 11
0.49531542252428
 21
1.25724609953178
 31
0
  0
ARC
  5
89
100
AcDbEntity
  8
SEMA2D
100
AcDbCircle
370
9
 62
1
 48
0
  6
_SOLID
 10
0.557768326796397
 20
1.33849039008796
 30
0
 40
0.09
100
AcDbArc
 50
113.884496423463
 51
203.884496423463
  0
LINE
  5
8A
100
AcDbEntity
  8
SEMA2D
100
AcDbLine
370
9
 62
1
 48
0
  6
_SOLID
 10
0.552441564397391
 20
1.30112407765995
 30
0
 11
0.55770129417071
 21
1.28924614670229
 31
0
  0
LINE
  5
8B
100
AcDbEntity
  8
SEMA2D
100
AcDbLine
370
9
 62
1
 48
0
  6
_SOLID
 10
0.609145631821825
 20
1.45092091320479
 30
0
 11
0.615219044602592
 21
1.4372054599788
 31
0
  0
LINE
  5
8C
100
AcDbEntity
  8
SEMA2D
100
AcDbLine
370
9
 62
1
 48
0
  6
_SOLID
 10
0.522239536636721
 20
1.34463083549442
 30
0
 11
0.535200045205705
 21
1.3153624067741
 31
0
  0
ARC
  5
8D
100
AcDbEntity
  8
SEMA2D
100
AcDbCircle
370
9
 62
1
 48
0
  6
_SOLID
 10
0.567957714056698
 20
1.36487554476364
 30
0
 40
0.05
100
AcDbArc
 50
113.884496423463
 51
203.884496423463
  0
LINE
  5
8E
100
AcDbEntity
  8
SEMA2D
100
AcDbLine
370
9
 62
1
 48
0
  6
_SOLID
 10
0.524982627281919
 20
1.34584551805057
 30
0
 11
0.537943135850904
 21
1.31657708933025
 31
0
  0
ARC
  5
8F
100
AcDbEntity
  8
SEMA2D
100
AcDbCircle
370
9
 62
1
 48
0
  6
_SOLID
 10
0.567957714056698
 20
1.36487554476364
 30
0
 40
0.0469999999999999
100
AcDbArc
 50
113.884496423463
 51
203.884496423463
  0
LINE
  5
90
100
AcDbEntity
  8
SEMA2D
100
AcDbLine
370
9
 62
1
 48
0
  6
_DOT
 10
0.543985840944717
 20
1.28317273392152
 30
0
 11
0.546010311871639
 21
1.27860091617953
 31
0
  0
LINE
  5
91
100
AcDbEntity
  8
SEMA2D
100
AcDbLine
370
9
 62
1
 48
0
  6
_DOT
 10
0.530270387718723
 20
1.27709932114076
 30
0
 11
0.532294858645646
 21
1.27252750339876
 31
0
  0
LINE
  5
92
100
AcDbEntity
  8
SEMA2D
100
AcDbLine
370
9
 62
1
 48
0
  6
_DOT
 10
0.511983116750733
 20
1.26900143743307
 30
0
 11
0.513602693492271
 21
1.26534398323947
 31
0
  0
LINE
  5
93
100
AcDbEntity
  8
SEMA2D
100
AcDbLine
370
9
 62
1
 48
0
  6
_DOT
 10
0.49826766352474
 20
1.2629280246523
 30
0
 11
0.499887240266278
 21
1.2592705704587
 31
0
  0
CIRCLE
  5
94
100
AcDbEntity
  8
SEMA2D
100
AcDbCircle
370
9
 62
1
 48
0
  6
_SOLID
 10
0.505192422763423
 20
1.31520897442835
 30
0
 40
0.0175
  0
LINE
  5
95
100
AcDbEntity
  8
SEMA2D
100
AcDbLine
370
9
 62
1
 48
0
  6
_DOT
 10
0.486292528218005
 20
1.30683981161645
 30
0
 11
0.524092317308842
 21
1.32357813724025
 31
0
  0
LINE
  5
96
100
AcDbEntity
  8
SEMA2D
100
AcDbLine
370
9
 62
1
 48
0
  6
_DOT
 10
0.496823259951525
 20
1.33410886897377
 30
0
 11
0.513561585575322
 21
1.29630907988293
 31
0
  0
LINE
  5
97
100
AcDbEntity
  8
SEMA2D
100
AcDbLine
370
9
 62
1
 48
0
  6
_SOLID
 10
0.540217775842873
 20
1.31375653562607
 30
0
 11
0.554859181863904
 21
1.30307376906858
 31
0
  0
ARC
  5
98
100
AcDbEntity
  8
SEMA2D
100
AcDbCircle
370
9
 62
1
 48
0
  6
_SOLID
 10
0.5443436806897
 20
1.31941134862794
 30
0
 40
0.00699999999999984
100
AcDbArc
 50
203.884496423464
 51
233.884496423016
  0
LINE
  5
99
100
AcDbEntity
  8
SEMA2D
100
AcDbLine
370
9
 62
1
 48
0
  6
_DOT
 10
0.834148825298966
 20
1.41823405607836
 30
0
 11
0.841015830683088
 21
1.4027264502975
 31
0
  0
LINE
  5
9A
100
AcDbEntity
  8
SEMA2D
100
AcDbLine
370
9
 62
1
 48
0
  6
_DOT
 10
0.806516873781383
 20
1.40654124612436
 30
0
 11
0.813383879165505
 21
1.39103364034351
 31
0
  0
LINE
  5
9B
100
AcDbEntity
  8
SEMA2D
100
AcDbLine
370
9
 62
1
 48
0
  6
_DOT
 10
0.83523007164181
 20
1.40776551294847
 30
0
 11
0.83472395391008
 21
1.40890846738397
 31
0
  0
LINE
  5
9C
100
AcDbEntity
  8
SEMA2D
100
AcDbLine
370
9
 62
1
 48
0
  6
_DOT
 10
0.834683464491541
 20
1.40899990373881
 30
0
 11
0.831187431497014
 21
1.4103499975508
 31
0
  0
LINE
  5
9D
100
AcDbEntity
  8
SEMA2D
100
AcDbLine
370
9
 62
1
 48
0
  6
_DOT
 10
0.841173434706407
 20
1.41039732515347
 30
0
 11
0.840667316974677
 21
1.41154027958897
 31
0
  0
LINE
  5
9E
100
AcDbEntity
  8
SEMA2D
100
AcDbLine
370
9
 62
1
 48
0
  6
_DOT
 10
0.840626827556138
 20
1.41163171594381
 30
0
 11
0.841976921368128
 21
1.41512774893834
 31
0
  0
LINE
  5
9F
100
AcDbEntity
  8
SEMA2D
100
AcDbLine
370
9
 62
1
 48
0
  6
_DOT
 10
0.840667316974677
 20
1.41154027958897
 30
0
 11
0.83472395391008
 21
1.40890846738397
 31
0
  0
LINE
  5
A0
100
AcDbEntity
  8
SEMA2D
100
AcDbLine
370
9
 62
1
 48
0
  6
_DOT
 10
0.807799165189824
 20
1.39561868738694
 30
0
 11
0.807293047458093
 21
1.39676164182244
 31
0
  0
LINE
  5
A1
100
AcDbEntity
  8
SEMA2D
100
AcDbLine
370
9
 62
1
 48
0
  6
_DOT
 10
0.807252558039555
 20
1.39685307817728
 30
0
 11
0.803756525045027
 21
1.39820317198927
 31
0
  0
LINE
  5
A2
100
AcDbEntity
  8
SEMA2D
100
AcDbLine
370
9
 62
1
 48
0
  6
_DOT
 10
0.813742528254421
 20
1.39825049959194
 30
0
 11
0.81323641052269
 21
1.39939345402744
 31
0
  0
LINE
  5
A3
100
AcDbEntity
  8
SEMA2D
100
AcDbLine
370
9
 62
1
 48
0
  6
_DOT
 10
0.813195921104152
 20
1.39948489038228
 30
0
 11
0.814546014916142
 21
1.4029809233768
 31
0
  0
LINE
  5
A4
100
AcDbEntity
  8
SEMA2D
100
AcDbLine
370
9
 62
1
 48
0
  6
_DOT
 10
0.81323641052269
 20
1.39939345402744
 30
0
 11
0.807293047458093
 21
1.39676164182244
 31
0
  0
LINE
  5
A5
100
AcDbEntity
  8
SEMA2D
100
AcDbLine
370
9
 62
1
 48
0
  6
_SOLID
 10
0.538449530947705
 20
1.3113330443569
 30
0
 11
0.552441564397391
 21
1.30112407765995
 31
0
  0
ARC
  5
A6
100
AcDbEntity
  8
SEMA2D
100
AcDbCircle
370
9
 62
1
 48
0
  6
_SOLID
 10
0.5443436806897
 20
1.31941134862794
 30
0
 40
0.00999999999999992
100
AcDbArc
 50
203.884496423463
 51
233.884496423017
  0
LINE
  5
A7
100
AcDbEntity
  8
SEMA2D
100
AcDbLine
370
9
 62
1
 48
0
  6
_SOLID
 10
0.55678693062231
 20
1.28884125251691
 30
0
 11
0.555511095723145
 21
1.29172244214047
 31
0
  0
LINE
  5
A8
100
AcDbEntity
  8
SEMA2D
100
AcDbLine
370
9
 62
1
 48
0
  6
_SOLID
 10
0.555872567073911
 20
1.28843635833152
 30
0
 11
0.554596732174745
 21
1.29131754795509
 31
0
  0
LINE
  5
A9
100
AcDbEntity
  8
SEMA2D
100
AcDbLine
370
9
 62
1
 48
0
  6
_SOLID
 10
0.554958203525511
 20
1.28803146414614
 30
0
 11
0.553682368626346
 21
1.29091265376971
 31
0
  0
LINE
  5
AA
100
AcDbEntity
  8
SEMA2D
100
AcDbLine
370
9
 62
1
 48
0
  6
_SOLID
 10
0.554043839977112
 20
1.28762656996075
 30
0
 11
0.552768005077946
 21
1.29050775958432
 31
0
  0
LINE
  5
AB
100
AcDbEntity
  8
SEMA2D
100
AcDbLine
370
9
 62
1
 48
0
  6
_SOLID
 10
0.553129476428712
 20
1.28722167577537
 30
0
 11
0.551853641529547
 21
1.29010286539894
 31
0
  0
LINE
  5
AC
100
AcDbEntity
  8
SEMA2D
100
AcDbLine
370
9
 62
1
 48
0
  6
_SOLID
 10
0.552215112880313
 20
1.28681678158998
 30
0
 11
0.550939277981147
 21
1.28969797121355
 31
0
  0
LINE
  5
AD
100
AcDbEntity
  8
SEMA2D
100
AcDbLine
370
9
 62
1
 48
0
  6
_SOLID
 10
0.551300749331913
 20
1.2864118874046
 30
0
 11
0.550024914432748
 21
1.28929307702817
 31
0
  0
LINE
  5
AE
100
AcDbEntity
  8
SEMA2D
100
AcDbLine
370
9
 62
1
 48
0
  6
_SOLID
 10
0.550386385783514
 20
1.28600699321922
 30
0
 11
0.549110550884348
 21
1.28888818284278
 31
0
  0
LINE
  5
AF
100
AcDbEntity
  8
SEMA2D
100
AcDbLine
370
9
 62
1
 48
0
  6
_SOLID
 10
0.549472022235114
 20
1.28560209903383
 30
0
 11
0.548196187335949
 21
1.2884832886574
 31
0
  0
LINE
  5
B0
100
AcDbEntity
  8
SEMA2D
100
AcDbLine
370
9
 62
1
 48
0
  6
_SOLID
 10
0.548557658686714
 20
1.28519720484845
 30
0
 11
0.547281823787549
 21
1.28807839447201
 31
0
  0
LINE
  5
B1
100
AcDbEntity
  8
SEMA2D
100
AcDbLine
370
9
 62
1
 48
0
  6
_SOLID
 10
0.547643295138315
 20
1.28479231066306
 30
0
 11
0.54636746023915
 21
1.28767350028663
 31
0
  0
LINE
  5
B2
100
AcDbEntity
  8
SEMA2D
100
AcDbLine
370
9
 62
1
 48
0
  6
_SOLID
 10
0.546728931589915
 20
1.28438741647768
 30
0
 11
0.54545309669075
 21
1.28726860610125
 31
0
  0
LINE
  5
B3
100
AcDbEntity
  8
SEMA2D
100
AcDbLine
370
9
 62
1
 48
0
  6
_SOLID
 10
0.545814568041516
 20
1.28398252229229
 30
0
 11
0.544538733142351
 21
1.28686371191586
 31
0
  0
LINE
  5
B4
100
AcDbEntity
  8
SEMA2D
100
AcDbLine
370
9
 62
1
 48
0
  6
_SOLID
 10
0.544900204493116
 20
1.28357762810691
 30
0
 11
0.543624369593951
 21
1.28645881773048
 31
0
  0
LINE
  5
B5
100
AcDbEntity
  8
SEMA2D
100
AcDbLine
370
9
 62
1
 48
0
  6
_SOLID
 10
0.543985840944717
 20
1.28317273392152
 30
0
 11
0.542710006045551
 21
1.28605392354509
 31
0
  0
LINE
  5
B6
100
AcDbEntity
  8
SEMA2D
100
AcDbLine
370
9
 62
1
 48
0
  6
_SOLID
 10
0.543071477396317
 20
1.28276783973614
 30
0
 11
0.541795642497152
 21
1.28564902935971
 31
0
  0
LINE
  5
B7
100
AcDbEntity
  8
SEMA2D
100
AcDbLine
370
9
 62
1
 48
0
  6
_SOLID
 10
0.542157113847918
 20
1.28236294555076
 30
0
 11
0.540881278948752
 21
1.28524413517432
 31
0
  0
LINE
  5
B8
100
AcDbEntity
  8
SEMA2D
100
AcDbLine
370
9
 62
1
 48
0
  6
_SOLID
 10
0.541242750299518
 20
1.28195805136537
 30
0
 11
0.539966915400353
 21
1.28483924098894
 31
0
  0
LINE
  5
B9
100
AcDbEntity
  8
SEMA2D
100
AcDbLine
370
9
 62
1
 48
0
  6
_SOLID
 10
0.540328386751118
 20
1.28155315717999
 30
0
 11
0.539052551851953
 21
1.28443434680355
 31
0
  0
LINE
  5
BA
100
AcDbEntity
  8
SEMA2D
100
AcDbLine
370
9
 62
1
 48
0
  6
_SOLID
 10
0.539414023202719
 20
1.2811482629946
 30
0
 11
0.538138188303554
 21
1.28402945261817
 31
0
  0
LINE
  5
BB
100
AcDbEntity
  8
SEMA2D
100
AcDbLine
370
9
 62
1
 48
0
  6
_SOLID
 10
0.538499659654319
 20
1.28074336880922
 30
0
 11
0.537223824755154
 21
1.28362455843278
 31
0
  0
LINE
  5
BC
100
AcDbEntity
  8
SEMA2D
100
AcDbLine
370
9
 62
1
 48
0
  6
_SOLID
 10
0.53758529610592
 20
1.28033847462383
 30
0
 11
0.536309461206755
 21
1.2832196642474
 31
0
  0
LINE
  5
BD
100
AcDbEntity
  8
SEMA2D
100
AcDbLine
370
9
 62
1
 48
0
  6
_SOLID
 10
0.53667093255752
 20
1.27993358043845
 30
0
 11
0.535395097658355
 21
1.28281477006202
 31
0
  0
LINE
  5
BE
100
AcDbEntity
  8
SEMA2D
100
AcDbLine
370
9
 62
1
 48
0
  6
_SOLID
 10
0.535756569009121
 20
1.27952868625306
 30
0
 11
0.534480734109956
 21
1.28240987587663
 31
0
  0
LINE
  5
BF
100
AcDbEntity
  8
SEMA2D
100
AcDbLine
370
9
 62
1
 48
0
  6
_SOLID
 10
0.534842205460721
 20
1.27912379206768
 30
0
 11
0.533566370561556
 21
1.28200498169125
 31
0
  0
LINE
  5
C0
100
AcDbEntity
  8
SEMA2D
100
AcDbLine
370
9
 62
1
 48
0
  6
_SOLID
 10
0.533927841912322
 20
1.27871889788229
 30
0
 11
0.532652007013156
 21
1.28160008750586
 31
0
  0
LINE
  5
C1
100
AcDbEntity
  8
SEMA2D
100
AcDbLine
370
9
 62
1
 48
0
  6
_SOLID
 10
0.533013478363922
 20
1.27831400369691
 30
0
 11
0.531737643464757
 21
1.28119519332048
 31
0
  0
LINE
  5
C2
100
AcDbEntity
  8
SEMA2D
100
AcDbLine
370
9
 62
1
 48
0
  6
_SOLID
 10
0.532099114815523
 20
1.27790910951153
 30
0
 11
0.530823279916357
 21
1.28079029913509
 31
0
  0
LINE
  5
C3
100
AcDbEntity
  8
SEMA2D
100
AcDbLine
370
9
 62
1
 48
0
  6
_SOLID
 10
0.531184751267123
 20
1.27750421532614
 30
0
 11
0.529908916367958
 21
1.28038540494971
 31
0
  0
LINE
  5
C4
100
AcDbEntity
  8
SEMA2D
100
AcDbLine
370
9
 62
1
 48
0
  6
_SOLID
 10
0.530270387718723
 20
1.27709932114076
 30
0
 11
0.528994552819558
 21
1.27998051076432
 31
0
  0
LINE
  5
C5
100
AcDbEntity
  8
SEMA2D
100
AcDbLine
370
9
 62
1
 48
0
  6
_SOLID
 10
0.529356024170324
 20
1.27669442695537
 30
0
 11
0.528080189271159
 21
1.27957561657894
 31
0
  0
LINE
  5
C6
100
AcDbEntity
  8
SEMA2D
100
AcDbLine
370
9
 62
1
 48
0
  6
_SOLID
 10
0.528441660621924
 20
1.27628953276999
 30
0
 11
0.527165825722759
 21
1.27917072239355
 31
0
  0
LINE
  5
C7
100
AcDbEntity
  8
SEMA2D
100
AcDbLine
370
9
 62
1
 48
0
  6
_SOLID
 10
0.527527297073525
 20
1.2758846385846
 30
0
 11
0.52625146217436
 21
1.27876582820817
 31
0
  0
LINE
  5
C8
100
AcDbEntity
  8
SEMA2D
100
AcDbLine
370
9
 62
1
 48
0
  6
_SOLID
 10
0.526612933525125
 20
1.27547974439922
 30
0
 11
0.52533709862596
 21
1.27836093402279
 31
0
  0
LINE
  5
C9
100
AcDbEntity
  8
SEMA2D
100
AcDbLine
370
9
 62
1
 48
0
  6
_SOLID
 10
0.525698569976726
 20
1.27507485021383
 30
0
 11
0.52442273507756
 21
1.2779560398374
 31
0
  0
LINE
  5
CA
100
AcDbEntity
  8
SEMA2D
100
AcDbLine
370
9
 62
1
 48
0
  6
_SOLID
 10
0.524784206428326
 20
1.27466995602845
 30
0
 11
0.523508371529161
 21
1.27755114565202
 31
0
  0
LINE
  5
CB
100
AcDbEntity
  8
SEMA2D
100
AcDbLine
370
9
 62
1
 48
0
  6
_SOLID
 10
0.523869842879927
 20
1.27426506184306
 30
0
 11
0.522594007980761
 21
1.27714625146663
 31
0
  0
LINE
  5
CC
100
AcDbEntity
  8
SEMA2D
100
AcDbLine
370
9
 62
1
 48
0
  6
_SOLID
 10
0.522955479331527
 20
1.27386016765768
 30
0
 11
0.521679644432362
 21
1.27674135728125
 31
0
  0
LINE
  5
CD
100
AcDbEntity
  8
SEMA2D
100
AcDbLine
370
9
 62
1
 48
0
  6
_SOLID
 10
0.522041115783128
 20
1.2734552734723
 30
0
 11
0.520765280883962
 21
1.27633646309586
 31
0
  0
LINE
  5
CE
100
AcDbEntity
  8
SEMA2D
100
AcDbLine
370
9
 62
1
 48
0
  6
_SOLID
 10
0.521126752234728
 20
1.27305037928691
 30
0
 11
0.519850917335563
 21
1.27593156891048
 31
0
  0
LINE
  5
CF
100
AcDbEntity
  8
SEMA2D
100
AcDbLine
370
9
 62
1
 48
0
  6
_SOLID
 10
0.520212388686329
 20
1.27264548510153
 30
0
 11
0.518936553787163
 21
1.27552667472509
 31
0
  0
LINE
  5
D0
100
AcDbEntity
  8
SEMA2D
100
AcDbLine
370
9
 62
1
 48
0
  6
_SOLID
 10
0.519298025137929
 20
1.27224059091614
 30
0
 11
0.518022190238764
 21
1.27512178053971
 31
0
  0
LINE
  5
D1
100
AcDbEntity
  8
SEMA2D
100
AcDbLine
370
9
 62
1
 48
0
  6
_SOLID
 10
0.518383661589529
 20
1.27183569673076
 30
0
 11
0.517107826690364
 21
1.27471688635433
 31
0
  0
LINE
  5
D2
100
AcDbEntity
  8
SEMA2D
100
AcDbLine
370
9
 62
1
 48
0
  6
_SOLID
 10
0.51746929804113
 20
1.27143080254537
 30
0
 11
0.516193463141965
 21
1.27431199216894
 31
0
  0
LINE
  5
D3
100
AcDbEntity
  8
SEMA2D
100
AcDbLine
370
9
 62
1
 48
0
  6
_SOLID
 10
0.51655493449273
 20
1.27102590835999
 30
0
 11
0.515279099593565
 21
1.27390709798356
 31
0
  0
LINE
  5
D4
100
AcDbEntity
  8
SEMA2D
100
AcDbLine
370
9
 62
1
 48
0
  6
_SOLID
 10
0.515640570944331
 20
1.2706210141746
 30
0
 11
0.514364736045166
 21
1.27350220379817
 31
0
  0
LINE
  5
D5
100
AcDbEntity
  8
SEMA2D
100
AcDbLine
370
9
 62
1
 48
0
  6
_SOLID
 10
0.514726207395931
 20
1.27021611998922
 30
0
 11
0.513450372496766
 21
1.27309730961279
 31
0
  0
LINE
  5
D6
100
AcDbEntity
  8
SEMA2D
100
AcDbLine
370
9
 62
1
 48
0
  6
_SOLID
 10
0.513811843847532
 20
1.26981122580383
 30
0
 11
0.512536008948366
 21
1.2726924154274
 31
0
  0
LINE
  5
D7
100
AcDbEntity
  8
SEMA2D
100
AcDbLine
370
9
 62
1
 48
0
  6
_SOLID
 10
0.512897480299132
 20
1.26940633161845
 30
0
 11
0.511621645399967
 21
1.27228752124202
 31
0
  0
LINE
  5
D8
100
AcDbEntity
  8
SEMA2D
100
AcDbLine
370
9
 62
1
 48
0
  6
_SOLID
 10
0.582458819626654
 20
1.42597970122823
 30
0
 11
0.581182984727489
 21
1.4288608908518
 31
0
  0
LINE
  5
D9
100
AcDbEntity
  8
SEMA2D
100
AcDbLine
370
9
 62
1
 48
0
  6
_SOLID
 10
0.511983116750733
 20
1.26900143743307
 30
0
 11
0.510707281851567
 21
1.27188262705663
 31
0
  0
LINE
  5
DA
100
AcDbEntity
  8
SEMA2D
100
AcDbLine
370
9
 62
1
 48
0
  6
_SOLID
 10
0.511068753202333
 20
1.26859654324768
 30
0
 11
0.509792918303168
 21
1.27147773287125
 31
0
  0
LINE
  5
DB
100
AcDbEntity
  8
SEMA2D
100
AcDbLine
370
9
 62
1
 48
0
  6
_SOLID
 10
0.510154389653933
 20
1.2681916490623
 30
0
 11
0.508878554754768
 21
1.27107283868586
 31
0
  0
LINE
  5
DC
100
AcDbEntity
  8
SEMA2D
100
AcDbLine
370
9
 62
1
 48
0
  6
_SOLID
 10
0.509240026105534
 20
1.26778675487691
 30
0
 11
0.507964191206369
 21
1.27066794450048
 31
0
  0
LINE
  5
DD
100
AcDbEntity
  8
SEMA2D
100
AcDbLine
370
9
 62
1
 48
0
  6
_SOLID
 10
0.508325662557134
 20
1.26738186069153
 30
0
 11
0.507049827657969
 21
1.2702630503151
 31
0
  0
LINE
  5
DE
100
AcDbEntity
  8
SEMA2D
100
AcDbLine
370
9
 62
1
 48
0
  6
_SOLID
 10
0.507411299008735
 20
1.26697696650614
 30
0
 11
0.50613546410957
 21
1.26985815612971
 31
0
  0
LINE
  5
DF
100
AcDbEntity
  8
SEMA2D
100
AcDbLine
370
9
 62
1
 48
0
  6
_SOLID
 10
0.506496935460335
 20
1.26657207232076
 30
0
 11
0.50522110056117
 21
1.26945326194433
 31
0
  0
LINE
  5
E0
100
AcDbEntity
  8
SEMA2D
100
AcDbLine
370
9
 62
1
 48
0
  6
_SOLID
 10
0.505582571911936
 20
1.26616717813537
 30
0
 11
0.504306737012771
 21
1.26904836775894
 31
0
  0
LINE
  5
E1
100
AcDbEntity
  8
SEMA2D
100
AcDbLine
370
9
 62
1
 48
0
  6
_SOLID
 10
0.504668208363536
 20
1.26576228394999
 30
0
 11
0.503392373464371
 21
1.26864347357356
 31
0
  0
LINE
  5
E2
100
AcDbEntity
  8
SEMA2D
100
AcDbLine
370
9
 62
1
 48
0
  6
_SOLID
 10
0.503753844815137
 20
1.26535738976461
 30
0
 11
0.502478009915971
 21
1.26823857938817
 31
0
  0
LINE
  5
E3
100
AcDbEntity
  8
SEMA2D
100
AcDbLine
370
9
 62
1
 48
0
  6
_SOLID
 10
0.502839481266737
 20
1.26495249557922
 30
0
 11
0.501563646367572
 21
1.26783368520279
 31
0
  0
LINE
  5
E4
100
AcDbEntity
  8
SEMA2D
100
AcDbLine
370
9
 62
1
 48
0
  6
_SOLID
 10
0.501925117718338
 20
1.26454760139384
 30
0
 11
0.500649282819172
 21
1.2674287910174
 31
0
  0
LINE
  5
E5
100
AcDbEntity
  8
SEMA2D
100
AcDbLine
370
9
 62
1
 48
0
  6
_SOLID
 10
0.501010754169938
 20
1.26414270720845
 30
0
 11
0.499734919270773
 21
1.26702389683202
 31
0
  0
LINE
  5
E6
100
AcDbEntity
  8
SEMA2D
100
AcDbLine
370
9
 62
1
 48
0
  6
_SOLID
 10
0.500096390621539
 20
1.26373781302307
 30
0
 11
0.498820555722373
 21
1.26661900264663
 31
0
  0
LINE
  5
E7
100
AcDbEntity
  8
SEMA2D
100
AcDbLine
370
9
 62
1
 48
0
  6
_SOLID
 10
0.499182027073139
 20
1.26333291883768
 30
0
 11
0.497906192173974
 21
1.26621410846125
 31
0
  0
LINE
  5
E8
100
AcDbEntity
  8
SEMA2D
100
AcDbLine
370
9
 62
1
 48
0
  6
_SOLID
 10
0.49826766352474
 20
1.2629280246523
 30
0
 11
0.496991828625574
 21
1.26580921427587
 31
0
  0
LINE
  5
E9
100
AcDbEntity
  8
SEMA2D
100
AcDbLine
370
9
 62
1
 48
0
  6
_SOLID
 10
0.49735329997634
 20
1.26252313046691
 30
0
 11
0.496077465077175
 21
1.26540432009048
 31
0
  0
LINE
  5
EA
100
AcDbEntity
  8
SEMA2D
100
AcDbLine
370
9
 62
1
 48
0
  6
_SOLID
 10
0.49643893642794
 20
1.26211823628153
 30
0
 11
0.495163101528775
 21
1.2649994259051
 31
0
  0
LINE
  5
EB
100
AcDbEntity
  8
SEMA2D
100
AcDbLine
370
9
 62
1
 48
0
  6
_SOLID
 10
0.495524572879541
 20
1.26171334209614
 30
0
 11
0.494248737980376
 21
1.26459453171971
 31
0
  0
LINE
  5
EC
100
AcDbEntity
  8
SEMA2D
100
AcDbLine
370
9
 62
1
 48
0
  6
_SOLID
 10
0.494610209331141
 20
1.26130844791076
 30
0
 11
0.493334374431976
 21
1.26418963753433
 31
0
  0
LINE
  5
ED
100
AcDbEntity
  8
SEMA2D
100
AcDbLine
370
9
 62
1
 48
0
  6
_SOLID
 10
0.583373183175054
 20
1.42638459541362
 30
0
 11
0.582097348275889
 21
1.42926578503718
 31
0
  0
LINE
  5
EE
100
AcDbEntity
  8
SEMA2D
100
AcDbLine
370
9
 62
1
 48
0
  6
_SOLID
 10
0.581544456078255
 20
1.42557480704285
 30
0
 11
0.58026862117909
 21
1.42845599666641
 31
0
  0
LINE
  5
EF
100
AcDbEntity
  8
SEMA2D
100
AcDbLine
370
9
 62
1
 48
0
  6
_SOLID
 10
0.580630092529855
 20
1.42516991285746
 30
0
 11
0.57935425763069
 21
1.42805110248103
 31
0
  0
LINE
  5
F0
100
AcDbEntity
  8
SEMA2D
100
AcDbLine
370
9
 62
1
 48
0
  6
_SOLID
 10
0.579715728981456
 20
1.42476501867208
 30
0
 11
0.578439894082291
 21
1.42764620829565
 31
0
  0
LINE
  5
F1
100
AcDbEntity
  8
SEMA2D
100
AcDbLine
370
9
 62
1
 48
0
  6
_SOLID
 10
0.578801365433056
 20
1.42436012448669
 30
0
 11
0.577525530533891
 21
1.42724131411026
 31
0
  0
LINE
  5
F2
100
AcDbEntity
  8
SEMA2D
100
AcDbLine
370
9
 62
1
 48
0
  6
_SOLID
 10
0.577887001884657
 20
1.42395523030131
 30
0
 11
0.576611166985491
 21
1.42683641992488
 31
0
  0
LINE
  5
F3
100
AcDbEntity
  8
SEMA2D
100
AcDbLine
370
9
 62
1
 48
0
  6
_SOLID
 10
0.576972638336257
 20
1.42355033611592
 30
0
 11
0.575696803437092
 21
1.42643152573949
 31
0
  0
LINE
  5
F4
100
AcDbEntity
  8
SEMA2D
100
AcDbLine
370
9
 62
1
 48
0
  6
_SOLID
 10
0.576058274787858
 20
1.42314544193054
 30
0
 11
0.574782439888692
 21
1.42602663155411
 31
0
  0
LINE
  5
F5
100
AcDbEntity
  8
SEMA2D
100
AcDbLine
370
9
 62
1
 48
0
  6
_SOLID
 10
0.575143911239458
 20
1.42274054774516
 30
0
 11
0.573868076340293
 21
1.42562173736872
 31
0
  0
LINE
  5
F6
100
AcDbEntity
  8
SEMA2D
100
AcDbLine
370
9
 62
1
 48
0
  6
_SOLID
 10
0.556856640271467
 20
1.41464266403747
 30
0
 11
0.555580805372302
 21
1.41752385366103
 31
0
  0
LINE
  5
F7
100
AcDbEntity
  8
SEMA2D
100
AcDbLine
370
9
 62
1
 48
0
  6
_SOLID
 10
0.555942276723068
 20
1.41423776985208
 30
0
 11
0.554666441823902
 21
1.41711895947565
 31
0
  0
LINE
  5
F8
100
AcDbEntity
  8
SEMA2D
100
AcDbLine
370
9
 62
1
 48
0
  6
_SOLID
 10
0.555027913174668
 20
1.4138328756667
 30
0
 11
0.553752078275503
 21
1.41671406529026
 31
0
  0
LINE
  5
F9
100
AcDbEntity
  8
SEMA2D
100
AcDbLine
370
9
 62
1
 48
0
  6
_SOLID
 10
0.554113549626269
 20
1.41342798148131
 30
0
 11
0.552837714727103
 21
1.41630917110488
 31
0
  0
LINE
  5
FA
100
AcDbEntity
  8
SEMA2D
100
AcDbLine
370
9
 62
1
 48
0
  6
_SOLID
 10
0.553199186077869
 20
1.41302308729593
 30
0
 11
0.551923351178704
 21
1.4159042769195
 31
0
  0
LINE
  5
FB
100
AcDbEntity
  8
SEMA2D
100
AcDbLine
370
9
 62
1
 48
0
  6
_SOLID
 10
0.55228482252947
 20
1.41261819311054
 30
0
 11
0.551008987630304
 21
1.41549938273411
 31
0
  0
LINE
  5
FC
100
AcDbEntity
  8
SEMA2D
100
AcDbLine
370
9
 62
1
 48
0
  6
_SOLID
 10
0.55137045898107
 20
1.41221329892516
 30
0
 11
0.550094624081905
 21
1.41509448854873
 31
0
  0
LINE
  5
FD
100
AcDbEntity
  8
SEMA2D
100
AcDbLine
370
9
 62
1
 48
0
  6
_SOLID
 10
0.55045609543267
 20
1.41180840473977
 30
0
 11
0.549180260533505
 21
1.41468959436334
 31
0
  0
LINE
  5
FE
100
AcDbEntity
  8
SEMA2D
100
AcDbLine
370
9
 62
1
 48
0
  6
_SOLID
 10
0.549541731884271
 20
1.41140351055439
 30
0
 11
0.548265896985106
 21
1.41428470017796
 31
0
  0
LINE
  5
FF
100
AcDbEntity
  8
SEMA2D
100
AcDbLine
370
9
 62
1
 48
0
  6
_SOLID
 10
0.548627368335871
 20
1.410998616369
 30
0
 11
0.547351533436706
 21
1.41387980599257
 31
0
  0
LINE
  5
100
100
AcDbEntity
  8
SEMA2D
100
AcDbLine
370
9
 62
1
 48
0
  6
_SOLID
 10
0.547713004787472
 20
1.41059372218362
 30
0
 11
0.546437169888307
 21
1.41347491180719
 31
0
  0
LINE
  5
101
100
AcDbEntity
  8
SEMA2D
100
AcDbLine
370
9
 62
1
 48
0
  6
_SOLID
 10
0.525608809000739
 20
1.39145693389271
 30
0
 11
0.522939953201985
 21
1.39313211047661
 31
0
  0
LINE
  5
102
100
AcDbEntity
  8
SEMA2D
100
AcDbLine
370
9
 62
1
 48
0
  6
_SOLID
 10
0.525151349813659
 20
1.39071379505467
 30
0
 11
0.522453664607719
 21
1.39234213856063
 31
0
  0
LINE
  5
103
100
AcDbEntity
  8
SEMA2D
100
AcDbLine
370
9
 62
1
 48
0
  6
_SOLID
 10
0.524706929783523
 20
1.38996278569163
 30
0
 11
0.521981236855336
 21
1.39154380014126
 31
0
  0
LINE
  5
104
100
AcDbEntity
  8
SEMA2D
100
AcDbLine
370
9
 62
1
 48
0
  6
_SOLID
 10
0.524275684303428
 20
1.38920413450898
 30
0
 11
0.521522814109661
 21
1.39073733819791
 31
0
  0
LINE
  5
105
100
AcDbEntity
  8
SEMA2D
100
AcDbLine
370
9
 62
1
 48
0
  6
_SOLID
 10
0.523857744850531
 20
1.38843807263398
 30
0
 11
0.521078535838472
 21
1.38992299866086
 31
0
  0
LINE
  5
106
100
AcDbEntity
  8
SEMA2D
100
AcDbLine
370
9
 62
1
 48
0
  6
_SOLID
 10
0.523453238660789
 20
1.38766483336234
 30
0
 11
0.520648537430311
 21
1.38910102926313
 31
0
  0
LINE
  5
107
100
AcDbEntity
  8
SEMA2D
100
AcDbLine
370
9
 62
1
 48
0
  6
_SOLID
 10
0.523062289003269
 20
1.38688465227971
 30
0
 11
0.520232949800037
 21
1.38827168067816
 31
0
  0
LINE
  5
108
100
AcDbEntity
  8
SEMA2D
100
AcDbLine
370
9
 62
1
 48
0
  6
_SOLID
 10
0.52268501489538
 20
1.38609776691684
 30
0
 11
0.519831899691836
 21
1.38743520534162
 31
0
  0
LINE
  5
109
100
AcDbEntity
  8
SEMA2D
100
AcDbLine
370
9
 62
1
 48
0
  6
_SOLID
 10
0.522321531347153
 20
1.38530441718584
 30
0
 11
0.519445509080988
 21
1.38659185806147
 31
0
  0
LINE
  5
10A
100
AcDbEntity
  8
SEMA2D
100
AcDbLine
370
9
 62
1
 48
0
  6
_SOLID
 10
0.521971948964122
 20
1.38450484454815
 30
0
 11
0.519073895793011
 21
1.38574189585456
 31
0
  0
LINE
  5
10B
100
AcDbEntity
  8
SEMA2D
100
AcDbLine
370
9
 62
1
 48
0
  6
_SOLID
 10
0.521636374333982
 20
1.38369929262321
 30
0
 11
0.518717172995533
 21
1.38488557761236
 31
0
  0
LINE
  5
10C
100
AcDbEntity
  8
SEMA2D
100
AcDbLine
370
9
 62
1
 48
0
  6
_SOLID
 10
0.521314909518465
 20
1.3828880068541
 30
0
 11
0.518375449330216
 21
1.38402316404997
 31
0
  0
LINE
  5
10D
100
AcDbEntity
  8
SEMA2D
100
AcDbLine
370
9
 62
1
 48
0
  6
_SOLID
 10
0.518734929393844
 20
1.37365720050181
 30
0
 11
0.515632877196094
 21
1.37421062621881
 31
0
  0
LINE
  5
10E
100
AcDbEntity
  8
SEMA2D
100
AcDbLine
370
9
 62
1
 48
0
  6
_SOLID
 10
0.51889568738467
 20
1.37451491905054
 30
0
 11
0.515803766226543
 21
1.37512239875856
 31
0
  0
LINE
  5
10F
100
AcDbEntity
  8
SEMA2D
100
AcDbLine
370
9
 62
1
 48
0
  6
_SOLID
 10
0.51907139004975
 20
1.37536970136203
 30
0
 11
0.515990541698117
 21
1.37603105003175
 31
0
  0
LINE
  5
110
100
AcDbEntity
  8
SEMA2D
100
AcDbLine
370
9
 62
1
 48
0
  6
_SOLID
 10
0.519261983921892
 20
1.37622128709285
 30
0
 11
0.516193147044709
 21
1.37693630323023
 31
0
  0
LINE
  5
111
100
AcDbEntity
  8
SEMA2D
100
AcDbLine
370
9
 62
1
 48
0
  6
_SOLID
 10
0.519467411006593
 20
1.3770694167383
 30
0
 11
0.516411520238966
 21
1.37783788251786
 31
0
  0
LINE
  5
112
100
AcDbEntity
  8
SEMA2D
100
AcDbLine
370
9
 62
1
 48
0
  6
_SOLID
 10
0.519687608711528
 20
1.37791383203867
 30
0
 11
0.516645595021455
 21
1.37873551346543
 31
0
  0
LINE
  5
113
100
AcDbEntity
  8
SEMA2D
100
AcDbLine
370
9
 62
1
 48
0
  6
_SOLID
 10
0.519922509968007
 20
1.3787542757049
 30
0
 11
0.516895299843911
 21
1.37962892247337
 31
0
  0
LINE
  5
114
100
AcDbEntity
  8
SEMA2D
100
AcDbLine
370
9
 62
1
 48
0
  6
_SOLID
 10
0.520172043251901
 20
1.37959049186536
 30
0
 11
0.5171605588855
 21
1.38051783744049
 31
0
  0
LINE
  5
115
100
AcDbEntity
  8
SEMA2D
100
AcDbLine
370
9
 62
1
 48
0
  6
_SOLID
 10
0.520436132471281
 20
1.38042222557859
 30
0
 11
0.517441291199856
 21
1.38140198771436
 31
0
  0
LINE
  5
116
100
AcDbEntity
  8
SEMA2D
100
AcDbLine
370
9
 62
1
 48
0
  6
_SOLID
 10
0.520714697231616
 20
1.38124922371629
 30
0
 11
0.517737411283274
 21
1.3822811037961
 31
0
  0
LINE
  5
117
100
AcDbEntity
  8
SEMA2D
100
AcDbLine
370
9
 62
1
 48
0
  6
_SOLID
 10
0.521007652672473
 20
1.38207123434423
 30
0
 11
0.518048828923213
 21
1.38315491792947
 31
0
  0
LINE
  5
118
100
AcDbEntity
  8
SEMA2D
100
AcDbLine
370
9
 62
1
 48
0
  6
_SOLID
 10
0.534386362198256
 20
1.31719992904243
 30
0
 11
0.531505172574689
 21
1.31592409414327
 31
0
  0
LINE
  5
119
100
AcDbEntity
  8
SEMA2D
100
AcDbLine
370
9
 62
1
 48
0
  6
_SOLID
 10
0.534791256383641
 20
1.31628556549403
 30
0
 11
0.531910066760073
 21
1.31500973059487
 31
0
  0
LINE
  5
11A
100
AcDbEntity
  8
SEMA2D
100
AcDbLine
370
9
 62
1
 48
0
  6
_SOLID
 10
0.535196150569025
 20
1.31537120194563
 30
0
 11
0.532314960945457
 21
1.31409536704647
 31
0
  0
LINE
  5
11B
100
AcDbEntity
  8
SEMA2D
100
AcDbLine
370
9
 62
1
 48
0
  6
_SOLID
 10
0.526288478490566
 20
1.33548720001042
 30
0
 11
0.523407288866998
 21
1.33421136511126
 31
0
  0
LINE
  5
11C
100
AcDbEntity
  8
SEMA2D
100
AcDbLine
370
9
 62
1
 48
0
  6
_SOLID
 10
0.525883584305181
 20
1.33640156355882
 30
0
 11
0.523002394681614
 21
1.33512572865966
 31
0
  0
LINE
  5
11D
100
AcDbEntity
  8
SEMA2D
100
AcDbLine
370
9
 62
1
 48
0
  6
_SOLID
 10
0.525478690119797
 20
1.33731592710722
 30
0
 11
0.522597500496229
 21
1.33604009220806
 31
0
  0
LINE
  5
11E
100
AcDbEntity
  8
SEMA2D
100
AcDbLine
370
9
 62
1
 48
0
  6
_SOLID
 10
0.525073795934412
 20
1.33823029065562
 30
0
 11
0.522192606310845
 21
1.33695445575646
 31
0
  0
LINE
  5
11F
100
AcDbEntity
  8
SEMA2D
100
AcDbLine
370
9
 62
1
 48
0
  6
_SOLID
 10
0.524668901749028
 20
1.33914465420402
 30
0
 11
0.52178771212546
 21
1.33786881930485
 31
0
  0
LINE
  5
120
100
AcDbEntity
  8
SEMA2D
100
AcDbLine
370
9
 62
1
 48
0
  6
_SOLID
 10
0.524264007563643
 20
1.34005901775242
 30
0
 11
0.521382817940075
 21
1.33878318285325
 31
0
  0
LINE
  5
121
100
AcDbEntity
  8
SEMA2D
100
AcDbLine
370
9
 62
1
 48
0
  6
_SOLID
 10
0.523859113378259
 20
1.34097338130082
 30
0
 11
0.520977923754691
 21
1.33969754640165
 31
0
  0
LINE
  5
122
100
AcDbEntity
  8
SEMA2D
100
AcDbLine
370
9
 62
1
 48
0
  6
_SOLID
 10
0.523454219192874
 20
1.34188774484922
 30
0
 11
0.520573029569307
 21
1.34061190995005
 31
0
  0
LINE
  5
123
100
AcDbEntity
  8
SEMA2D
100
AcDbLine
370
9
 62
1
 48
0
  6
_SOLID
 10
0.52304932500749
 20
1.34280210839762
 30
0
 11
0.520168135383922
 21
1.34152627349845
 31
0
  0
LINE
  5
124
100
AcDbEntity
  8
SEMA2D
100
AcDbLine
370
9
 62
1
 48
0
  6
_SOLID
 10
0.522644430822105
 20
1.34371647194602
 30
0
 11
0.519763241198537
 21
1.34244063704685
 31
0
  0
LINE
  5
125
100
AcDbEntity
  8
SEMA2D
100
AcDbLine
370
9
 62
1
 48
0
  6
_SOLID
 10
0.522239536636721
 20
1.34463083549442
 30
0
 11
0.519358347013153
 21
1.34335500059525
 31
0
  0
LINE
  5
126
100
AcDbEntity
  8
SEMA2D
100
AcDbLine
370
9
 62
1
 48
0
  6
_SOLID
 10
0.54274759932073
 20
1.30819705724062
 30
0
 11
0.540890333379111
 21
1.30565155705686
 31
0
  0
LINE
  5
127
100
AcDbEntity
  8
SEMA2D
100
AcDbLine
370
9
 62
1
 48
0
  6
_SOLID
 10
0.541939768897675
 20
1.30878647220568
 30
0
 11
0.540082502956056
 21
1.30624097202192
 31
0
  0
LINE
  5
128
100
AcDbEntity
  8
SEMA2D
100
AcDbLine
370
9
 62
1
 48
0
  6
_SOLID
 10
0.54113193847462
 20
1.30937588717073
 30
0
 11
0.539274672533001
 21
1.30683038698697
 31
0
  0
LINE
  5
129
100
AcDbEntity
  8
SEMA2D
100
AcDbLine
370
9
 62
1
 48
0
  6
_SOLID
 10
0.540324108051565
 20
1.30996530213579
 30
0
 11
0.538466842109946
 21
1.30741980195203
 31
0
  0
LINE
  5
12A
100
AcDbEntity
  8
SEMA2D
100
AcDbLine
370
9
 62
1
 48
0
  6
_SOLID
 10
0.53951627762851
 20
1.31055471710084
 30
0
 11
0.537659011686891
 21
1.30800921691708
 31
0
  0
LINE
  5
12B
100
AcDbEntity
  8
SEMA2D
100
AcDbLine
370
9
 62
1
 48
0
  6
_SOLID
 10
0.538708447164965
 20
1.31114413215734
 30
0
 11
0.536851181263836
 21
1.30859863188214
 31
0
  0
LINE
  5
12C
100
AcDbEntity
  8
SEMA2D
100
AcDbLine
370
9
 62
1
 48
0
  6
_SOLID
 10
0.543555429743785
 20
1.30760764227556
 30
0
 11
0.541698163802166
 21
1.30506214209181
 31
0
  0
LINE
  5
12D
100
AcDbEntity
  8
SEMA2D
100
AcDbLine
370
9
 62
1
 48
0
  6
_SOLID
 10
0.54436326016684
 20
1.30701822731051
 30
0
 11
0.542505994225221
 21
1.30447272712675
 31
0
  0
LINE
  5
12E
100
AcDbEntity
  8
SEMA2D
100
AcDbLine
370
9
 62
1
 48
0
  6
_SOLID
 10
0.545171090589895
 20
1.30642881234545
 30
0
 11
0.543313824648276
 21
1.30388331216169
 31
0
  0
LINE
  5
12F
100
AcDbEntity
  8
SEMA2D
100
AcDbLine
370
9
 62
1
 48
0
  6
_SOLID
 10
0.54597892101295
 20
1.3058393973804
 30
0
 11
0.544121655071331
 21
1.30329389719664
 31
0
  0
LINE
  5
130
100
AcDbEntity
  8
SEMA2D
100
AcDbLine
370
9
 62
1
 48
0
  6
_SOLID
 10
0.546786751436005
 20
1.30524998241534
 30
0
 11
0.544929485494386
 21
1.30270448223158
 31
0
  0
LINE
  5
131
100
AcDbEntity
  8
SEMA2D
100
AcDbLine
370
9
 62
1
 48
0
  6
_SOLID
 10
0.547594581859061
 20
1.30466056745029
 30
0
 11
0.545737315917441
 21
1.30211506726653
 31
0
  0
LINE
  5
132
100
AcDbEntity
  8
SEMA2D
100
AcDbLine
370
9
 62
1
 48
0
  6
_SOLID
 10
0.548402412282116
 20
1.30407115248523
 30
0
 11
0.546545146340496
 21
1.30152565230147
 31
0
  0
LINE
  5
133
100
AcDbEntity
  8
SEMA2D
100
AcDbLine
370
9
 62
1
 48
0
  6
_SOLID
 10
0.549210242705171
 20
1.30348173752017
 30
0
 11
0.547352976763552
 21
1.30093623733641
 31
0
  0
LINE
  5
134
100
AcDbEntity
  8
SEMA2D
100
AcDbLine
370
9
 62
1
 48
0
  6
_SOLID
 10
0.550018073128226
 20
1.30289232255512
 30
0
 11
0.548160807186607
 21
1.30034682237136
 31
0
  0
LINE
  5
135
100
AcDbEntity
  8
SEMA2D
100
AcDbLine
370
9
 62
1
 48
0
  6
_SOLID
 10
0.550825903551281
 20
1.30230290759006
 30
0
 11
0.548968637609662
 21
1.2997574074063
 31
0
  0
LINE
  5
136
100
AcDbEntity
  8
SEMA2D
100
AcDbLine
370
9
 62
1
 48
0
  6
_SOLID
 10
0.551633733974336
 20
1.30171349262501
 30
0
 11
0.549776468032717
 21
1.29916799244125
 31
0
  0
LINE
  5
137
100
AcDbEntity
  8
SEMA2D
100
AcDbLine
370
9
 62
1
 48
0
  6
_SOLID
 10
0.552441564397391
 20
1.30112407765995
 30
0
 11
0.550584298455772
 21
1.29857857747619
 31
0
  0
LINE
  5
138
100
AcDbEntity
  8
SEMA2D
100
AcDbLine
370
9
 62
1
 48
0
  6
_SOLID
 10
0.535424481451296
 20
1.314889414746
 30
0
 11
0.532614009418786
 21
1.31346453698657
 31
0
  0
LINE
  5
139
100
AcDbEntity
  8
SEMA2D
100
AcDbLine
370
9
 62
1
 48
0
  6
_SOLID
 10
0.536559550279722
 20
1.31313382405763
 30
0
 11
0.534106742479791
 21
1.31115575327908
 31
0
  0
LINE
  5
13A
100
AcDbEntity
  8
SEMA2D
100
AcDbLine
370
9
 62
1
 48
0
  6
_SOLID
 10
0.536140614029352
 20
1.31369210927041
 30
0
 11
0.533555797920987
 21
1.31188995626962
 31
0
  0
LINE
  5
13B
100
AcDbEntity
  8
SEMA2D
100
AcDbLine
370
9
 62
1
 48
0
  6
_SOLID
 10
0.535761642364484
 20
1.3142782581577
 30
0
 11
0.533057410922672
 21
1.31266080261793
 31
0
  0
LINE
  5
13C
100
AcDbEntity
  8
SEMA2D
100
AcDbLine
370
9
 62
1
 48
0
  6
_SOLID
 10
0.538034822902219
 20
1.31165259135138
 30
0
 11
0.536046878952246
 21
1.3092077787272
 31
0
  0
LINE
  5
13D
100
AcDbEntity
  8
SEMA2D
100
AcDbLine
370
9
 62
1
 48
0
  6
_SOLID
 10
0.537016410000139
 20
1.31260612229556
 30
0
 11
0.534707560341963
 21
1.31046177084481
 31
0
  0
LINE
  5
13E
100
AcDbEntity
  8
SEMA2D
100
AcDbLine
370
9
 62
1
 48
0
  6
_SOLID
 10
0.537508967414472
 20
1.31211157494865
 30
0
 11
0.535355324487669
 21
1.30981138975192
 31
0
  0
LINE
  5
13F
100
AcDbEntity
  8
SEMA2D
100
AcDbLine
370
9
 62
1
 48
0
  6
_SOLID
 10
0.571973028057207
 20
1.31635234347641
 30
0
 11
0.572302198934631
 21
1.31649810538315
 31
0
  0
LINE
  5
140
100
AcDbEntity
  8
SEMA2D
100
AcDbLine
370
9
 62
1
 48
0
  6
_SOLID
 10
0.504459058008275
 20
1.26129504138562
 30
0
 11
0.502839481266737
 21
1.26495249557922
 31
0
  0
LINE
  5
141
100
AcDbEntity
  8
SEMA2D
100
AcDbLine
370
9
 62
1
 48
0
  6
_SOLID
 10
0.526079168157188
 20
1.39219197564789
 30
0
 11
0.523439954678841
 21
1.39391347505738
 31
0
  0
LINE
  5
142
100
AcDbEntity
  8
SEMA2D
100
AcDbLine
370
9
 62
1
 48
0
  6
_SOLID
 10
0.526562283977041
 20
1.3929186966414
 30
0
 11
0.523953516788183
 21
1.3946859944925
 31
0
  0
LINE
  5
143
100
AcDbEntity
  8
SEMA2D
100
AcDbLine
370
9
 62
1
 48
0
  6
_SOLID
 10
0.527566192822965
 20
1.39434629319931
 30
0
 11
0.525020692639205
 21
1.39620355914093
 31
0
  0
LINE
  5
144
100
AcDbEntity
  8
SEMA2D
100
AcDbLine
370
9
 62
1
 48
0
  6
_SOLID
 10
0.527058009096009
 20
1.39363687544388
 30
0
 11
0.524480482825808
 21
1.39544943337384
 31
0
  0
LINE
  5
145
100
AcDbEntity
  8
SEMA2D
100
AcDbLine
370
9
 62
1
 48
0
  6
_SOLID
 10
0.518589165291469
 20
1.37279680701952
 30
0
 11
0.515477926919881
 21
1.37329601018089
 31
0
  0
LINE
  5
146
100
AcDbEntity
  8
SEMA2D
100
AcDbLine
370
9
 62
1
 48
0
  6
_SOLID
 10
0.518458439307254
 20
1.37193400054362
 30
0
 11
0.515338962503163
 21
1.37237882905991
 31
0
  0
LINE
  5
147
100
AcDbEntity
  8
SEMA2D
100
AcDbLine
370
9
 62
1
 48
0
  6
_SOLID
 10
0.518342791154057
 20
1.37106904407618
 30
0
 11
0.515216026138576
 21
1.37145936248595
 31
0
  0
LINE
  5
148
100
AcDbEntity
  8
SEMA2D
100
AcDbLine
370
9
 62
1
 48
0
  6
_SOLID
 10
0.518242256351805
 20
1.37020220094989
 30
0
 11
0.51510915555151
 21
1.37053789029826
 31
0
  0
LINE
  5
149
100
AcDbEntity
  8
SEMA2D
100
AcDbLine
370
9
 62
1
 48
0
  6
_SOLID
 10
0.554859181863904
 20
1.30307376906858
 30
0
 11
0.560444384815909
 21
1.29046082925845
 31
0
  0
LINE
  5
14A
100
AcDbEntity
  8
SEMA2D
100
AcDbLine
370
9
 62
1
 48
0
  6
_SOLID
 10
0.558419913888986
 20
1.29503264700044
 30
0
 11
0.560444384815909
 21
1.29046082925845
 31
0
  0
LINE
  5
14B
100
AcDbEntity
  8
SEMA2D
100
AcDbLine
370
9
 62
1
 48
0
  6
_SOLID
 10
0.560444384815909
 20
1.29046082925845
 30
0
 11
0.565016202557906
 21
1.29248530018537
 31
0
  0
LINE
  5
14C
100
AcDbEntity
  8
SEMA2D
100
AcDbLine
370
9
 62
1
 48
0
  6
_SOLID
 10
0.565016202557906
 20
1.29248530018537
 30
0
 11
0.558419913888986
 21
1.29503264700044
 31
0
  0
LINE
  5
14D
100
AcDbEntity
  8
SEMA2D
100
AcDbLine
370
9
 62
1
 48
0
  6
_SOLID
 10
0.558419913888986
 20
1.29503264700044
 30
0
 11
0.560444384815909
 21
1.29046082925845
 31
0
  0
LINE
  5
14E
100
AcDbEntity
  8
SEMA2D
100
AcDbLine
370
9
 62
1
 48
0
  6
_SOLID
 10
0.560444384815909
 20
1.29046082925845
 30
0
 11
0.565016202557906
 21
1.29248530018537
 31
0
  0
LINE
  5
14F
100
AcDbEntity
  8
SEMA2D
100
AcDbLine
370
9
 62
1
 48
0
  6
_SOLID
 10
0.565016202557906
 20
1.29248530018537
 30
0
 11
0.558419913888986
 21
1.29503264700044
 31
0
  0
LINE
  5
150
100
AcDbEntity
  8
SEMA2D
100
AcDbLine
370
9
 62
1
 48
0
  6
_SOLID
 10
0.584287546723454
 20
1.426789489599
 30
0
 11
0.583011711824288
 21
1.42967067922257
 31
0
  0
LINE
  5
151
100
AcDbEntity
  8
SEMA2D
100
AcDbLine
370
9
 62
1
 48
0
  6
_SOLID
 10
0.61263281672384
 20
1.43934120934592
 30
0
 11
0.611356981824674
 21
1.44222239896949
 31
0
  0
LINE
  5
152
100
AcDbEntity
  8
SEMA2D
100
AcDbLine
370
9
 62
1
 48
0
  6
_SOLID
 10
0.613547180272239
 20
1.43974610353131
 30
0
 11
0.612271345373074
 21
1.44262729315487
 31
0
  0
LINE
  5
153
100
AcDbEntity
  8
SEMA2D
100
AcDbLine
370
9
 62
1
 48
0
  6
_SOLID
 10
0.61171845317544
 20
1.43893631516054
 30
0
 11
0.610442618276275
 21
1.4418175047841
 31
0
  0
LINE
  5
154
100
AcDbEntity
  8
SEMA2D
100
AcDbLine
370
9
 62
1
 48
0
  6
_SOLID
 10
0.61080408962704
 20
1.43853142097515
 30
0
 11
0.609528254727875
 21
1.44141261059872
 31
0
  0
LINE
  5
155
100
AcDbEntity
  8
SEMA2D
100
AcDbLine
370
9
 62
1
 48
0
  6
_SOLID
 10
0.609889726078641
 20
1.43812652678977
 30
0
 11
0.608613891179476
 21
1.44100771641334
 31
0
  0
LINE
  5
156
100
AcDbEntity
  8
SEMA2D
100
AcDbLine
370
9
 62
1
 48
0
  6
_SOLID
 10
0.608975362530241
 20
1.43772163260438
 30
0
 11
0.607699527631076
 21
1.44060282222795
 31
0
  0
LINE
  5
157
100
AcDbEntity
  8
SEMA2D
100
AcDbLine
370
9
 62
1
 48
0
  6
_SOLID
 10
0.608060998981842
 20
1.437316738419
 30
0
 11
0.606785164082676
 21
1.44019792804257
 31
0
  0
LINE
  5
158
100
AcDbEntity
  8
SEMA2D
100
AcDbLine
370
9
 62
1
 48
0
  6
_SOLID
 10
0.607146635433442
 20
1.43691184423361
 30
0
 11
0.605870800534277
 21
1.43979303385718
 31
0
  0
LINE
  5
159
100
AcDbEntity
  8
SEMA2D
100
AcDbLine
370
9
 62
1
 48
0
  6
_SOLID
 10
0.606232271885043
 20
1.43650695004823
 30
0
 11
0.604956436985877
 21
1.4393881396718
 31
0
  0
LINE
  5
15A
100
AcDbEntity
  8
SEMA2D
100
AcDbLine
370
9
 62
1
 48
0
  6
_SOLID
 10
0.605317908336643
 20
1.43610205586285
 30
0
 11
0.604042073437478
 21
1.43898324548641
 31
0
  0
LINE
  5
15B
100
AcDbEntity
  8
SEMA2D
100
AcDbLine
370
9
 62
1
 48
0
  6
_SOLID
 10
0.842773570916107
 20
1.41110588997789
 30
0
 11
0.841153994174568
 21
1.41476334417149
 31
0
  0
LINE
  5
15C
100
AcDbEntity
  8
SEMA2D
100
AcDbLine
370
9
 62
1
 48
0
  6
_DOT
 10
0.852420321103621
 20
1.42636756448713
 30
0
 11
0.859287326487743
 21
1.41085995870627
 31
0
  0
LINE
  5
15D
100
AcDbEntity
  8
SEMA2D
100
AcDbLine
370
9
 62
1
 48
0
  6
_DOT
 10
0.853517342609801
 20
1.41586339665616
 30
0
 11
0.853011224878071
 21
1.41700635109166
 31
0
  0
LINE
  5
15E
100
AcDbEntity
  8
SEMA2D
100
AcDbLine
370
9
 62
1
 48
0
  6
_DOT
 10
0.852970735459532
 20
1.4170977874465
 30
0
 11
0.849474702465004
 21
1.41844788125849
 31
0
  0
LINE
  5
15F
100
AcDbEntity
  8
SEMA2D
100
AcDbLine
370
9
 62
1
 48
0
  6
_DOT
 10
0.859460705674398
 20
1.41849520886116
 30
0
 11
0.858954587942668
 21
1.41963816329666
 31
0
  0
LINE
  5
160
100
AcDbEntity
  8
SEMA2D
100
AcDbLine
370
9
 62
1
 48
0
  6
_DOT
 10
0.858914098524129
 20
1.4197295996515
 30
0
 11
0.860264192336119
 21
1.42322563264603
 31
0
  0
LINE
  5
161
100
AcDbEntity
  8
SEMA2D
100
AcDbLine
370
9
 62
1
 48
0
  6
_DOT
 10
0.858954587942668
 20
1.41963816329666
 30
0
 11
0.853011224878071
 21
1.41700635109166
 31
0
  0
LINE
  5
162
100
AcDbEntity
  8
SEMA2D
100
AcDbLine
370
9
 62
1
 48
0
  6
_DOT
 10
0.715080518941429
 20
1.36605182758591
 30
0
 11
0.72194752432555
 21
1.35054422180505
 31
0
  0
LINE
  5
163
100
AcDbEntity
  8
SEMA2D
100
AcDbLine
370
9
 62
1
 48
0
  6
_DOT
 10
0.716362810349869
 20
1.35512926884848
 30
0
 11
0.715856692618139
 21
1.35627222328398
 31
0
  0
LINE
  5
164
100
AcDbEntity
  8
SEMA2D
100
AcDbLine
370
9
 62
1
 48
0
  6
_DOT
 10
0.715856692618139
 20
1.35627222328398
 30
0
 11
0.712228733850233
 21
1.35767326403228
 31
0
  0
LINE
  5
165
100
AcDbEntity
  8
SEMA2D
100
AcDbLine
370
9
 62
1
 48
0
  6
_DOT
 10
0.722306173414467
 20
1.35776108105348
 30
0
 11
0.721800055682736
 21
1.35890403548898
 31
0
  0
LINE
  5
166
100
AcDbEntity
  8
SEMA2D
100
AcDbLine
370
9
 62
1
 48
0
  6
_DOT
 10
0.721800055682736
 20
1.35890403548898
 30
0
 11
0.723201096431027
 21
1.36253199425689
 31
0
  0
LINE
  5
167
100
AcDbEntity
  8
SEMA2D
100
AcDbLine
370
9
 62
1
 48
0
  6
_DOT
 10
0.721800055682736
 20
1.35890403548898
 30
0
 11
0.715856692618139
 21
1.35627222328398
 31
0
  0
LINE
  5
168
100
AcDbEntity
  8
SEMA2D
100
AcDbLine
370
9
 62
1
 48
0
  6
_SOLID
 10
0.72302711788969
 20
1.35808032631049
 30
0
 11
0.877519385755289
 21
1.42649186902251
 31
0
  0
LINE
  5
169
100
AcDbEntity
  8
SEMA2D
100
AcDbLine
370
9
 62
0
 48
0
  6
_SOLID
 10
0.00224891523269086
 20
0.973118366613873
 30
0
 11
0.003341259976934
 21
0.970544963663853
 31
0
  0
LINE
  5
16A
100
AcDbEntity
  8
SEMA2D
100
AcDbLine
370
9
 62
0
 48
0
  6
_SOLID
 10
0.00172501423459873
 20
0.976648405330792
 30
0
 11
0.00290477494077583
 21
0.973396762542922
 31
0
  0
LINE
  5
16B
100
AcDbEntity
  8
SEMA2D
100
AcDbLine
370
9
 62
0
 48
0
  6
_SOLID
 10
0.00465297939310374
 20
0.97110175552195
 30
0
 11
0.00592573246424957
 21
0.968498940939021
 31
0
  0
LINE
  5
16C
100
AcDbEntity
  8
SEMA2D
100
AcDbLine
370
9
 62
9
 48
0
  6
_SOLID
 10
0.00699336937480182
 20
0.968952150906695
 30
0
 11
0.00573974270347038
 21
0.971563059178381
 31
0
  0
LINE
  5
16D
100
AcDbEntity
  8
SEMA2D
100
AcDbLine
370
9
 62
9
 48
0
  6
_SOLID
 10
0.0046042551381505
 20
0.971081073302784
 30
0
 11
0.00351191039390736
 21
0.973654476252804
 31
0
  0
LINE
  5
16E
100
AcDbEntity
  8
SEMA2D
100
AcDbLine
370
9
 62
9
 48
0
  6
_SOLID
 10
0.00407965422259244
 20
0.973895469210139
 30
0
 11
0.00283974446424867
 21
0.977238143123652
 31
0
  0
LINE
  5
16F
100
AcDbEntity
  8
SEMA2D
100
AcDbLine
370
9
 62
9
 48
0
  6
_SOLID
 10
0.047454209547364
 20
0.986126758602629
 30
0
 11
0.0462005828760325
 21
0.988737666874316
 31
0
  0
LINE
  5
170
100
AcDbEntity
  8
SEMA2D
100
AcDbLine
370
9
 62
9
 48
0
  6
_SOLID
 10
0.0450650953107126
 20
0.988255680998718
 30
0
 11
0.0439727505664695
 21
0.990829083948738
 31
0
  0
LINE
  5
171
100
AcDbEntity
  8
SEMA2D
100
AcDbLine
370
9
 62
9
 48
0
  6
_SOLID
 10
0.0445404943951546
 20
0.991070076906074
 30
0
 11
0.0422837369118989
 21
0.99715387633509
 31
0
  0
LINE
  5
172
100
AcDbEntity
  8
SEMA2D
100
AcDbLine
370
9
 62
9
 48
0
  6
_SOLID
 10
0.0550233305391179
 20
0.987420908092783
 30
0
 11
0.049648382770377
 21
1.00008349150995
 31
0
  0
LINE
  5
173
100
AcDbEntity
  8
SEMA2D
100
AcDbLine
370
9
 62
0
 48
0
  6
_SOLID
 10
0.00794150537089442
 20
0.985556718704885
 30
0
 11
0.00739677813439206
 21
0.984748744596929
 31
0
  0
LINE
  5
174
100
AcDbEntity
  8
SEMA2D
100
AcDbLine
370
9
 62
0
 48
0
  6
_SOLID
 10
0.00739905894568077
 20
0.984751973677099
 30
0
 11
0.00697812651519488
 21
0.984186639771874
 31
0
  0
LINE
  5
175
100
AcDbEntity
  8
SEMA2D
100
AcDbLine
370
9
 62
0
 48
0
  6
_SOLID
 10
0.00818780190253924
 20
0.985881999794528
 30
0
 11
0.00794150537089442
 21
0.985556718704885
 31
0
  0
LINE
  5
176
100
AcDbEntity
  8
SEMA2D
100
AcDbLine
370
9
 62
0
 48
0
  6
_SOLID
 10
0.042300762331375
 20
1.00039857281894
 30
0
 11
0.041756224623122
 21
0.999542789462345
 31
0
  0
LINE
  5
177
100
AcDbEntity
  8
SEMA2D
100
AcDbLine
370
9
 62
0
 48
0
  6
_SOLID
 10
0.041756224623122
 20
0.999542789462345
 30
0
 11
0.041328488464018
 21
0.998938634655277
 31
0
  0
LINE
  5
178
100
AcDbEntity
  8
SEMA2D
100
AcDbLine
370
9
 62
0
 48
0
  6
_SOLID
 10
0.041328488464018
 20
0.998938634655277
 30
0
 11
0.0408801535953431
 21
0.998371834722369
 31
0
  0
LINE
  5
179
100
AcDbEntity
  8
SEMA2D
100
AcDbLine
370
9
 62
0
 48
0
  6
_SOLID
 10
0.0408801535953431
 20
0.998371834722369
 30
0
 11
0.0404091577475769
 21
0.997840882563586
 31
0
  0
LINE
  5
17A
100
AcDbEntity
  8
SEMA2D
100
AcDbLine
370
9
 62
0
 48
0
  6
_SOLID
 10
0.0404091577475769
 20
0.997840882563586
 30
0
 11
0.0399132178247319
 21
0.997345155502501
 31
0
  0
LINE
  5
17B
100
AcDbEntity
  8
SEMA2D
100
AcDbLine
370
9
 62
0
 48
0
  6
_SOLID
 10
0.0399132178247319
 20
0.997345155502501
 30
0
 11
0.039393053091089
 21
0.996887756987113
 31
0
  0
LINE
  5
17C
100
AcDbEntity
  8
SEMA2D
100
AcDbLine
370
9
 62
0
 48
0
  6
_SOLID
 10
0.039393053091089
 20
0.996887756987113
 30
0
 11
0.0388503256085162
 21
0.996472574253101
 31
0
  0
LINE
  5
17D
100
AcDbEntity
  8
SEMA2D
100
AcDbLine
370
9
 62
0
 48
0
  6
_SOLID
 10
0.0388503256085162
 20
0.996472574253101
 30
0
 11
0.0382792638768453
 21
0.996098214255366
 31
0
  0
LINE
  5
17E
100
AcDbEntity
  8
SEMA2D
100
AcDbLine
370
9
 62
0
 48
0
  6
_SOLID
 10
0.0382792638768453
 20
0.996098214255366
 30
0
 11
0.0376727523838212
 21
0.995764737556184
 31
0
  0
LINE
  5
17F
100
AcDbEntity
  8
SEMA2D
100
AcDbLine
370
9
 62
0
 48
0
  6
_SOLID
 10
0.0376727523838212
 20
0.995764737556184
 30
0
 11
0.0372003281854713
 21
0.995547051207877
 31
0
  0
LINE
  5
180
100
AcDbEntity
  8
SEMA2D
100
AcDbLine
370
9
 62
0
 48
0
  6
_SOLID
 10
0.0244702686944472
 20
0.991991591833178
 30
0
 11
0.0240545977003143
 21
0.99143391286528
 31
0
  0
LINE
  5
181
100
AcDbEntity
  8
SEMA2D
100
AcDbLine
370
9
 62
0
 48
0
  6
_SOLID
 10
0.0240545977003143
 20
0.99143391286528
 30
0
 11
0.0236207122757605
 21
0.99091068385702
 31
0
  0
LINE
  5
182
100
AcDbEntity
  8
SEMA2D
100
AcDbLine
370
9
 62
0
 48
0
  6
_SOLID
 10
0.0236207122757605
 20
0.99091068385702
 30
0
 11
0.0231669024027217
 21
0.990420649674017
 31
0
  0
LINE
  5
183
100
AcDbEntity
  8
SEMA2D
100
AcDbLine
370
9
 62
0
 48
0
  6
_SOLID
 10
0.0231669024027217
 20
0.990420649674017
 30
0
 11
0.022691420495707
 21
0.989963373342963
 31
0
  0
LINE
  5
184
100
AcDbEntity
  8
SEMA2D
100
AcDbLine
370
9
 62
0
 48
0
  6
_SOLID
 10
0.022691420495707
 20
0.989963373342963
 30
0
 11
0.0221945559889905
 21
0.989541118503178
 31
0
  0
LINE
  5
185
100
AcDbEntity
  8
SEMA2D
100
AcDbLine
370
9
 62
0
 48
0
  6
_SOLID
 10
0.0221945559889905
 20
0.989541118503178
 30
0
 11
0.0216775920945336
 21
0.989157006475367
 31
0
  0
LINE
  5
186
100
AcDbEntity
  8
SEMA2D
100
AcDbLine
370
9
 62
0
 48
0
  6
_SOLID
 10
0.0216775920945336
 20
0.989157006475367
 30
0
 11
0.0211350377864347
 21
0.988809512210812
 31
0
  0
LINE
  5
187
100
AcDbEntity
  8
SEMA2D
100
AcDbLine
370
9
 62
0
 48
0
  6
_SOLID
 10
0.0211350377864347
 20
0.988809512210812
 30
0
 11
0.0205601142038346
 21
0.988498383552282
 31
0
  0
LINE
  5
188
100
AcDbEntity
  8
SEMA2D
100
AcDbLine
370
9
 62
0
 48
0
  6
_SOLID
 10
0.0205601142038346
 20
0.988498383552282
 30
0
 11
0.020122775705268
 21
0.988298060148897
 31
0
  0
LINE
  5
189
100
AcDbEntity
  8
SEMA2D
100
AcDbLine
370
9
 62
0
 48
0
  6
_SOLID
 10
0.00698050170969044
 20
0.984189664158345
 30
0
 11
0.00653094735603831
 21
0.983648058127644
 31
0
  0
LINE
  5
18A
100
AcDbEntity
  8
SEMA2D
100
AcDbLine
370
9
 62
0
 48
0
  6
_SOLID
 10
0.00844421701452707
 20
0.986180692262077
 30
0
 11
0.0081838654715518
 21
0.985877117162889
 31
0
  0
LINE
  5
18B
100
AcDbEntity
  8
SEMA2D
100
AcDbLine
370
9
 62
0
 48
0
  6
_SOLID
 10
0.0430052046376926
 20
1.00132586606905
 30
0
 11
0.0427559430719828
 21
1.00102495961341
 31
0
  0
LINE
  5
18C
100
AcDbEntity
  8
SEMA2D
100
AcDbLine
370
9
 62
0
 48
0
  6
_SOLID
 10
0.0427559430719828
 20
1.00102495961341
 30
0
 11
0.0425201861396214
 21
1.00071505981097
 31
0
  0
LINE
  5
18D
100
AcDbEntity
  8
SEMA2D
100
AcDbLine
370
9
 62
0
 48
0
  6
_SOLID
 10
0.0425201861396214
 20
1.00071505981097
 30
0
 11
0.042300762331375
 21
1.00039857281894
 31
0
  0
LINE
  5
18E
100
AcDbEntity
  8
SEMA2D
100
AcDbLine
370
9
 62
0
 48
0
  6
_SOLID
 10
0.00653342252435716
 20
0.983650876934411
 30
0
 11
0.0060594162362018
 21
0.9831414770001
 31
0
  0
LINE
  5
18F
100
AcDbEntity
  8
SEMA2D
100
AcDbLine
370
9
 62
0
 48
0
  6
_SOLID
 10
0.00871379608648462
 20
0.986458333964937
 30
0
 11
0.00844042253981879
 21
0.98617653321895
 31
0
  0
LINE
  5
190
100
AcDbEntity
  8
SEMA2D
100
AcDbLine
370
9
 62
0
 48
0
  6
_SOLID
 10
0.00606197909339501
 20
0.983144072845276
 30
0
 11
0.0055665499340659
 21
0.982671990277888
 31
0
  0
LINE
  5
191
100
AcDbEntity
  8
SEMA2D
100
AcDbLine
370
9
 62
0
 48
0
  6
_SOLID
 10
0.0432669315751109
 20
1.00161775139764
 30
0
 11
0.0430052046376926
 21
1.00132586606905
 31
0
  0
LINE
  5
192
100
AcDbEntity
  8
SEMA2D
100
AcDbLine
370
9
 62
0
 48
0
  6
_SOLID
 10
0.0434817199855027
 20
1.00184199466719
 30
0
 11
0.0432643168206881
 21
1.00161502162828
 31
0
  0
LINE
  5
193
100
AcDbEntity
  8
SEMA2D
100
AcDbLine
370
9
 62
0
 48
0
  6
_SOLID
 10
0.00899517763676173
 20
0.986714456167652
 30
0
 11
0.00871018256072043
 21
0.986454832498337
 31
0
  0
LINE
  5
194
100
AcDbEntity
  8
SEMA2D
100
AcDbLine
370
9
 62
0
 48
0
  6
_SOLID
 10
0.00556916748189113
 20
0.982674332641871
 30
0
 11
0.00505685588435874
 21
0.982244776418285
 31
0
  0
LINE
  5
195
100
AcDbEntity
  8
SEMA2D
100
AcDbLine
370
9
 62
0
 48
0
  6
_SOLID
 10
0.0092880346147767
 20
0.986949504833277
 30
0
 11
0.00899178086058173
 21
0.986711549690646
 31
0
  0
LINE
  5
196
100
AcDbEntity
  8
SEMA2D
100
AcDbLine
370
9
 62
0
 48
0
  6
_SOLID
 10
0.00505949978059731
 20
0.982246848381897
 30
0
 11
0.00453682590221031
 21
0.98186479036991
 31
0
  0
LINE
  5
197
100
AcDbEntity
  8
SEMA2D
100
AcDbLine
370
9
 62
0
 48
0
  6
_SOLID
 10
0.00453682590221031
 20
0.98186479036991
 30
0
 11
0.00403664404252884
 21
0.981548311948976
 31
0
  0
LINE
  5
198
100
AcDbEntity
  8
SEMA2D
100
AcDbLine
370
9
 62
0
 48
0
  6
_SOLID
 10
0.00959195104171877
 20
0.987163685244957
 30
0
 11
0.00928488573789271
 21
0.986947133781989
 31
0
  0
LINE
  5
199
100
AcDbEntity
  8
SEMA2D
100
AcDbLine
370
9
 62
0
 48
0
  6
_SOLID
 10
0.00332885790320151
 20
0.981123085210105
 30
0
 11
0.00313795330776292
 21
0.980998139461499
 31
0
  0
LINE
  5
19A
100
AcDbEntity
  8
SEMA2D
100
AcDbLine
370
9
 62
0
 48
0
  6
_SOLID
 10
0.00313795330776292
 20
0.980998139461499
 30
0
 11
0.00295471168657913
 21
0.980862280313161
 31
0
  0
LINE
  5
19B
100
AcDbEntity
  8
SEMA2D
100
AcDbLine
370
9
 62
0
 48
0
  6
_SOLID
 10
0.00295471168657913
 20
0.980862280313161
 30
0
 11
0.00277978182279828
 21
0.980715994780199
 31
0
  0
LINE
  5
19C
100
AcDbEntity
  8
SEMA2D
100
AcDbLine
370
9
 62
0
 48
0
  6
_SOLID
 10
0.00277978182279828
 20
0.980715994780199
 30
0
 11
0.0026138616277632
 21
0.980559813327699
 31
0
  0
LINE
  5
19D
100
AcDbEntity
  8
SEMA2D
100
AcDbLine
370
9
 62
0
 48
0
  6
_SOLID
 10
0.0026138616277632
 20
0.980559813327699
 30
0
 11
0.00245762150697106
 21
0.980394252137945
 31
0
  0
LINE
  5
19E
100
AcDbEntity
  8
SEMA2D
100
AcDbLine
370
9
 62
0
 48
0
  6
_SOLID
 10
0.00245762150697106
 20
0.980394252137945
 30
0
 11
0.00231176445335682
 21
0.980219875772025
 31
0
  0
LINE
  5
19F
100
AcDbEntity
  8
SEMA2D
100
AcDbLine
370
9
 62
0
 48
0
  6
_SOLID
 10
0.00231176445335682
 20
0.980219875772025
 30
0
 11
0.00217693009741511
 21
0.980037269586489
 31
0
  0
LINE
  5
1A0
100
AcDbEntity
  8
SEMA2D
100
AcDbLine
370
9
 62
0
 48
0
  6
_SOLID
 10
0.00217693009741511
 20
0.980037269586489
 30
0
 11
0.00205354514738581
 21
0.979847217529612
 31
0
  0
LINE
  5
1A1
100
AcDbEntity
  8
SEMA2D
100
AcDbLine
370
9
 62
0
 48
0
  6
_SOLID
 10
0.00205354514738581
 20
0.979847217529612
 30
0
 11
0.00194194337618563
 21
0.979650580450162
 31
0
  0
LINE
  5
1A2
100
AcDbEntity
  8
SEMA2D
100
AcDbLine
370
9
 62
0
 48
0
  6
_SOLID
 10
0.00194194337618563
 20
0.979650580450162
 30
0
 11
0.00184240921346574
 21
0.97944816294522
 31
0
  0
LINE
  5
1A3
100
AcDbEntity
  8
SEMA2D
100
AcDbLine
370
9
 62
0
 48
0
  6
_SOLID
 10
0.00184240921346574
 20
0.97944816294522
 30
0
 11
0.00175523748281676
 21
0.979240813458715
 31
0
  0
LINE
  5
1A4
100
AcDbEntity
  8
SEMA2D
100
AcDbLine
370
9
 62
0
 48
0
  6
_SOLID
 10
0.00175523748281676
 20
0.979240813458715
 30
0
 11
0.0016806618789708
 21
0.979029250087682
 31
0
  0
LINE
  5
1A5
100
AcDbEntity
  8
SEMA2D
100
AcDbLine
370
9
 62
0
 48
0
  6
_SOLID
 10
0.0016806618789708
 20
0.979029250087682
 30
0
 11
0.00161893603235793
 21
0.978814214600404
 31
0
  0
LINE
  5
1A6
100
AcDbEntity
  8
SEMA2D
100
AcDbLine
370
9
 62
0
 48
0
  6
_SOLID
 10
0.00161893603235793
 20
0.978814214600404
 30
0
 11
0.00157031440275272
 21
0.978596430431801
 31
0
  0
LINE
  5
1A7
100
AcDbEntity
  8
SEMA2D
100
AcDbLine
370
9
 62
0
 48
0
  6
_SOLID
 10
0.00157031440275272
 20
0.978596430431801
 30
0
 11
0.00153505415020972
 21
0.97837659315717
 31
0
  0
LINE
  5
1A8
100
AcDbEntity
  8
SEMA2D
100
AcDbLine
370
9
 62
0
 48
0
  6
_SOLID
 10
0.00153505415020972
 20
0.97837659315717
 30
0
 11
0.00151331900980404
 21
0.978155496880301
 31
0
  0
LINE
  5
1A9
100
AcDbEntity
  8
SEMA2D
100
AcDbLine
370
9
 62
0
 48
0
  6
_SOLID
 10
0.00151331900980404
 20
0.978155496880301
 30
0
 11
0.00150500345690927
 21
0.977933939172483
 31
0
  0
LINE
  5
1AA
100
AcDbEntity
  8
SEMA2D
100
AcDbLine
370
9
 62
0
 48
0
  6
_SOLID
 10
0.00150500345690927
 20
0.977933939172483
 30
0
 11
0.00150996222027378
 21
0.977712702471741
 31
0
  0
LINE
  5
1AB
100
AcDbEntity
  8
SEMA2D
100
AcDbLine
370
9
 62
0
 48
0
  6
_SOLID
 10
0.00150996222027378
 20
0.977712702471741
 30
0
 11
0.00152804846836035
 21
0.977492573659693
 31
0
  0
LINE
  5
1AC
100
AcDbEntity
  8
SEMA2D
100
AcDbLine
370
9
 62
0
 48
0
  6
_SOLID
 10
0.00152804846836035
 20
0.977492573659693
 30
0
 11
0.001559117365369
 21
0.977274305484292
 31
0
  0
LINE
  5
1AD
100
AcDbEntity
  8
SEMA2D
100
AcDbLine
370
9
 62
0
 48
0
  6
_SOLID
 10
0.001559117365369
 20
0.977274305484292
 30
0
 11
0.00160302848477544
 21
0.97705864235333
 31
0
  0
LINE
  5
1AE
100
AcDbEntity
  8
SEMA2D
100
AcDbLine
370
9
 62
0
 48
0
  6
_SOLID
 10
0.00160302848477544
 20
0.97705864235333
 30
0
 11
0.00165963460642985
 21
0.976846361314861
 31
0
  0
LINE
  5
1AF
100
AcDbEntity
  8
SEMA2D
100
AcDbLine
370
9
 62
0
 48
0
  6
_SOLID
 10
0.00165963460642985
 20
0.976846361314861
 30
0
 11
0.00172506837489436
 21
0.976648424944267
 31
0
  0
LINE
  5
1B0
100
AcDbEntity
  8
SEMA2D
100
AcDbLine
370
9
 62
0
 48
0
  6
_SOLID
 10
0.00990598337691088
 20
0.987356870547614
 30
0
 11
0.00958907453850973
 21
0.987161788634267
 31
0
  0
LINE
  5
1B1
100
AcDbEntity
  8
SEMA2D
100
AcDbLine
370
9
 62
0
 48
0
  6
_SOLID
 10
0.0035118118396754
 20
0.981234735678513
 30
0
 11
0.00332885790320151
 21
0.981123085210105
 31
0
  0
LINE
  5
1B2
100
AcDbEntity
  8
SEMA2D
100
AcDbLine
370
9
 62
0
 48
0
  6
_SOLID
 10
0.00369037431856563
 20
0.981342493848946
 30
0
 11
0.0035118118396754
 21
0.981234735678513
 31
0
  0
LINE
  5
1B3
100
AcDbEntity
  8
SEMA2D
100
AcDbLine
370
9
 62
0
 48
0
  6
_SOLID
 10
0.00392861482278388
 20
0.981484410516278
 30
0
 11
0.00369037431856563
 21
0.981342493848946
 31
0
  0
LINE
  5
1B4
100
AcDbEntity
  8
SEMA2D
100
AcDbLine
370
9
 62
0
 48
0
  6
_SOLID
 10
0.0102294260764662
 20
0.987529040667527
 30
0
 11
0.00990341022284016
 21
0.98735539536648
 31
0
  0
LINE
  5
1B5
100
AcDbEntity
  8
SEMA2D
100
AcDbLine
370
9
 62
0
 48
0
  6
_SOLID
 10
0.045153153748074
 20
1.00297178284413
 30
0
 11
0.044867360134183
 21
1.00283878706381
 31
0
  0
LINE
  5
1B6
100
AcDbEntity
  8
SEMA2D
100
AcDbLine
370
9
 62
0
 48
0
  6
_SOLID
 10
0.044867360134183
 20
1.00283878706381
 30
0
 11
0.0445888650331528
 21
1.00268992124894
 31
0
  0
LINE
  5
1B7
100
AcDbEntity
  8
SEMA2D
100
AcDbLine
370
9
 62
0
 48
0
  6
_SOLID
 10
0.0445888650331528
 20
1.00268992124894
 30
0
 11
0.0443198836393565
 21
1.00252551939601
 31
0
  0
LINE
  5
1B8
100
AcDbEntity
  8
SEMA2D
100
AcDbLine
370
9
 62
0
 48
0
  6
_SOLID
 10
0.0443198836393565
 20
1.00252551939601
 30
0
 11
0.0440615321475524
 21
1.00234557904119
 31
0
  0
LINE
  5
1B9
100
AcDbEntity
  8
SEMA2D
100
AcDbLine
370
9
 62
0
 48
0
  6
_SOLID
 10
0.0440615321475524
 20
1.00234557904119
 30
0
 11
0.0438168091909175
 21
1.00215187210272
 31
0
  0
LINE
  5
1BA
100
AcDbEntity
  8
SEMA2D
100
AcDbLine
370
9
 62
0
 48
0
  6
_SOLID
 10
0.0438168091909175
 20
1.00215187210272
 30
0
 11
0.0435882915106749
 21
1.00194686702276
 31
0
  0
LINE
  5
1BB
100
AcDbEntity
  8
SEMA2D
100
AcDbLine
370
9
 62
0
 48
0
  6
_SOLID
 10
0.0105300243129368
 20
0.987666801036396
 30
0
 11
0.0102271941613427
 21
0.987527939881679
 31
0
  0
LINE
  5
1BC
100
AcDbEntity
  8
SEMA2D
100
AcDbLine
370
9
 62
0
 48
0
  6
_SOLID
 10
0.0276079801974401
 20
0.994915963221707
 30
0
 11
0.0273051499537953
 21
0.994777102027916
 31
0
  0
LINE
  5
1BD
100
AcDbEntity
  8
SEMA2D
100
AcDbLine
370
9
 62
0
 48
0
  6
_SOLID
 10
0.0273051499537953
 20
0.994777102027916
 30
0
 11
0.0269813661073435
 21
0.99460455755179
 31
0
  0
LINE
  5
1BE
100
AcDbEntity
  8
SEMA2D
100
AcDbLine
370
9
 62
0
 48
0
  6
_SOLID
 10
0.0269813661073435
 20
0.99460455755179
 30
0
 11
0.0266670304230131
 21
0.994410950819577
 31
0
  0
LINE
  5
1BF
100
AcDbEntity
  8
SEMA2D
100
AcDbLine
370
9
 62
0
 48
0
  6
_SOLID
 10
0.0266670304230131
 20
0.994410950819577
 30
0
 11
0.026362841622396
 21
0.9941962959673
 31
0
  0
LINE
  5
1C0
100
AcDbEntity
  8
SEMA2D
100
AcDbLine
370
9
 62
0
 48
0
  6
_SOLID
 10
0.026362841622396
 20
0.9941962959673
 30
0
 11
0.0260697367450851
 21
0.993960711875957
 31
0
  0
LINE
  5
1C1
100
AcDbEntity
  8
SEMA2D
100
AcDbLine
370
9
 62
0
 48
0
  6
_SOLID
 10
0.0260697367450851
 20
0.993960711875957
 30
0
 11
0.0257881385372742
 21
0.99370399472272
 31
0
  0
LINE
  5
1C2
100
AcDbEntity
  8
SEMA2D
100
AcDbLine
370
9
 62
0
 48
0
  6
_SOLID
 10
0.0257881385372742
 20
0.99370399472272
 30
0
 11
0.0255183785163726
 21
0.993425695443333
 31
0
  0
LINE
  5
1C3
100
AcDbEntity
  8
SEMA2D
100
AcDbLine
370
9
 62
0
 48
0
  6
_SOLID
 10
0.0255183785163726
 20
0.993425695443333
 30
0
 11
0.0252618214481054
 21
0.993126279387272
 31
0
  0
LINE
  5
1C4
100
AcDbEntity
  8
SEMA2D
100
AcDbLine
370
9
 62
0
 48
0
  6
_SOLID
 10
0.0252618214481054
 20
0.993126279387272
 30
0
 11
0.0250194613474482
 21
0.992805880929269
 31
0
  0
LINE
  5
1C5
100
AcDbEntity
  8
SEMA2D
100
AcDbLine
370
9
 62
0
 48
0
  6
_SOLID
 10
0.0250194613474482
 20
0.992805880929269
 30
0
 11
0.0244702686944472
 21
0.991991591833178
 31
0
  0
LINE
  5
1C6
100
AcDbEntity
  8
SEMA2D
100
AcDbLine
370
9
 62
0
 48
0
  6
_SOLID
 10
0.346322557725453
 20
1.13081108661441
 30
0
 11
0.045153153748074
 21
1.00297178284413
 31
0
  0
LINE
  5
1C7
100
AcDbEntity
  8
SEMA2D
100
AcDbLine
370
9
 62
0
 48
0
  6
_SOLID
 10
0.0431877005263544
 20
1.00152952183884
 30
0
 11
0.0105296393176622
 21
0.987666997309519
 31
0
  0
LINE
  5
1C8
100
AcDbEntity
  8
SEMA2D
100
AcDbLine
370
9
 62
9
 48
0
  6
_SOLID
 10
0.0119628074642626
 20
0.987486689088284
 30
0
 11
0.0252692407871547
 21
0.993134938186505
 31
0
  0
LINE
  5
1C9
100
AcDbEntity
  8
SEMA2D
100
AcDbLine
370
9
 62
9
 48
0
  6
_SOLID
 10
0.0290407629553951
 20
0.994735851432527
 30
0
 11
0.042271182076257
 21
1.0003518298536
 31
0
  0
LINE
  5
1CA
100
AcDbEntity
  8
SEMA2D
100
AcDbLine
370
9
 62
9
 48
0
  6
_SOLID
 10
0.348178143837875
 20
1.12680185697217
 30
0
 11
0.049648382770377
 21
1.00008349150995
 31
0
  0
LINE
  5
1CB
100
AcDbEntity
  8
SEMA2D
100
AcDbLine
370
9
 62
0
 48
0
  6
_SOLID
 10
0.353352478960788
 20
1.12215298729789
 30
0
 11
0.00224895711566189
 21
0.973118384392139
 31
0
  0
LINE
  5
1CC
100
AcDbEntity
  8
SEMA2D
100
AcDbLine
370
9
 62
0
 48
0
  6
_SOLID
 10
0.354444823705031
 20
1.11957958434787
 30
0
 11
0.00334130185990503
 21
0.970544981442119
 31
0
  0
LINE
  5
1CD
100
AcDbEntity
  8
SEMA2D
100
AcDbLine
370
9
 62
9
 48
0
  6
_SOLID
 10
0.352374713635684
 20
1.11555783353406
 30
0
 11
0.0059257223728279
 21
0.968498961641755
 31
0
  0
LINE
  5
1CE
100
AcDbEntity
  8
SEMA2D
100
AcDbLine
370
9
 62
0
 48
0
  6
_SOLID
 10
0.353064830886663
 20
1.11393201917564
 30
0
 11
0.00836241400139279
 21
0.967614524121261
 31
0
  0
LINE
  5
1CF
100
AcDbEntity
  8
SEMA2D
100
AcDbLine
370
9
 62
9
 48
0
  6
_SOLID
 10
0.338281469947756
 20
1.1054058320805
 30
0
 11
0.350932264091063
 21
1.11077577559938
 31
0
  0
LINE
  5
1D0
100
AcDbEntity
  8
SEMA2D
100
AcDbLine
370
9
 62
9
 48
0
  6
_SOLID
 10
0.344334668204623
 20
1.09451687068444
 30
0
 11
0.348954853646206
 21
1.09647802305061
 31
0
  0
LINE
  5
1D1
100
AcDbEntity
  8
SEMA2D
100
AcDbLine
370
9
 62
0
 48
0
  6
_SOLID
 10
0.344026356795791
 20
1.09288531843454
 30
0
 11
0.352137714300422
 21
1.09632838542053
 31
0
  0
LINE
  5
1D2
100
AcDbEntity
  8
SEMA2D
100
AcDbLine
370
9
 62
0
 48
0
  6
_SOLID
 10
0.341702194186102
 20
1.09357189865012
 30
0
 11
0.334255001824994
 21
1.10495656521147
 31
0
  0
LINE
  5
1D3
100
AcDbEntity
  8
SEMA2D
100
AcDbLine
370
9
 62
9
 48
0
  6
_SOLID
 10
0.344334668204623
 20
1.09451687068444
 30
0
 11
0.33739446959409
 21
1.10512637016545
 31
0
  0
LINE
  5
1D4
100
AcDbEntity
  8
SEMA2D
100
AcDbLine
370
9
 62
9
 48
0
  6
_SOLID
 10
0.348954853646206
 20
1.09647802305061
 30
0
 11
0.350932264091063
 21
1.11077577559938
 31
0
  0
LINE
  5
1D5
100
AcDbEntity
  8
SEMA2D
100
AcDbLine
370
9
 62
0
 48
0
  6
_SOLID
 10
0.353286537268546
 20
1.09781646415214
 30
0
 11
0.355242579586017
 21
1.11195968835487
 31
0
  0
LINE
  5
1D6
100
AcDbEntity
  8
SEMA2D
100
AcDbLine
370
9
 62
0
 48
0
  6
_SOLID
 10
0.352696619252703
 20
1.12187459136885
 30
0
 11
0.348759237348381
 21
1.12992664410646
 31
0
  0
LINE
  5
1D7
100
AcDbEntity
  8
SEMA2D
100
AcDbLine
370
9
 62
9
 48
0
  6
_SOLID
 10
0.338281469947756
 20
1.1054058320805
 30
0
 11
0.33747184484601
 21
1.10731318929188
 31
0
  0
LINE
  5
1D8
100
AcDbEntity
  8
SEMA2D
100
AcDbLine
370
9
 62
9
 48
0
  6
_SOLID
 10
0.344334668204623
 20
1.09451687068444
 30
0
 11
0.344874418285478
 21
1.09324529917951
 31
0
  0
LINE
  5
1D9
100
AcDbEntity
  8
SEMA2D
100
AcDbLine
370
9
 62
9
 48
0
  6
_SOLID
 10
0.348954853646206
 20
1.09647802305061
 30
0
 11
0.349494603727061
 21
1.09520645154568
 31
0
  0
LINE
  5
1DA
100
AcDbEntity
  8
SEMA2D
100
AcDbLine
370
9
 62
9
 48
0
  6
_SOLID
 10
0.336565404371501
 20
1.12666942073776
 30
0
 11
0.336201289456753
 21
1.1275272217211
 31
0
  0
LINE
  5
1DB
100
AcDbEntity
  8
SEMA2D
100
AcDbLine
370
9
 62
9
 48
0
  6
_SOLID
 10
0.336693866715031
 20
1.12672394976742
 30
0
 11
0.336329751800284
 21
1.12758175075076
 31
0
  0
LINE
  5
1DC
100
AcDbEntity
  8
SEMA2D
100
AcDbLine
370
9
 62
9
 48
0
  6
_SOLID
 10
0.350932267773082
 20
1.11077577716231
 30
0
 11
0.350122642671336
 21
1.11268313437369
 31
0
  0
LINE
  5
1DD
100
AcDbEntity
  8
SEMA2D
100
AcDbLine
370
9
 62
9
 48
0
  6
_SOLID
 10
0.353064830886663
 20
1.11393201917564
 30
0
 11
0.352374713635684
 21
1.11555783353406
 31
0
  0
LINE
  5
1DE
100
AcDbEntity
  8
SEMA2D
100
AcDbLine
370
9
 62
0
 48
0
  6
_SOLID
 10
0.354444823705031
 20
1.11957958434787
 30
0
 11
0.353352478960788
 21
1.12215298729789
 31
0
  0
LINE
  5
1DF
100
AcDbEntity
  8
SEMA2D
100
AcDbLine
370
9
 62
9
 48
0
  6
_SOLID
 10
0.35138654196989
 20
1.11828142077043
 30
0
 11
0.352374713635684
 21
1.11555783353406
 31
0
  0
LINE
  5
1E0
100
AcDbEntity
  8
SEMA2D
100
AcDbLine
370
9
 62
0
 48
0
  6
_SOLID
 10
0.353133104288862
 20
1.11902279248978
 30
0
 11
0.355057823824826
 21
1.11371790295511
 31
0
  0
ARC
  5
1E1
100
AcDbEntity
  8
SEMA2D
100
AcDbCircle
370
9
 62
9
 48
0
  6
_SOLID
 10
0.272225587628474
 20
1.30922972367036
 30
0
 40
0.2133334286
100
AcDbArc
 50
291.816524828806
 51
292.191266365231
  0
ARC
  5
1E2
100
AcDbEntity
  8
SEMA2D
100
AcDbCircle
370
9
 62
9
 48
0
  6
_SOLID
 10
0.00550889436024052
 20
0.979042965710667
 30
0
 40
0.00290590669999992
100
AcDbArc
 50
120.629149908182
 51
135.759116658632
  0
ARC
  5
1E3
100
AcDbEntity
  8
SEMA2D
100
AcDbCircle
370
9
 62
9
 48
0
  6
_SOLID
 10
0.00550147227053628
 20
0.979054224270006
 30
0
 40
0.00289243759999994
100
AcDbArc
 50
120.426580826631
 51
120.61626370401
  0
ARC
  5
1E4
100
AcDbEntity
  8
SEMA2D
100
AcDbCircle
370
9
 62
9
 48
0
  6
_SOLID
 10
0.399153176788376
 20
1.0419508560703
 30
0
 40
0.0840364567
100
AcDbArc
 50
124.538468276698
 51
125.016300374066
  0
ARC
  5
1E5
100
AcDbEntity
  8
SEMA2D
100
AcDbCircle
370
9
 62
0
 48
0
  6
_SOLID
 10
0.336512916380454
 20
1.11883920956078
 30
0
 40
0.00950144259999995
100
AcDbArc
 50
75.8730577430121
 51
83.4158117365813
  0
ARC
  5
1E6
100
AcDbEntity
  8
SEMA2D
100
AcDbCircle
370
9
 62
0
 48
0
  6
_SOLID
 10
0.336514455273457
 20
1.11884641462154
 30
0
 40
0.00949407989999992
100
AcDbArc
 50
75.8714508150412
 51
78.3992031504739
  0
ARC
  5
1E7
100
AcDbEntity
  8
SEMA2D
100
AcDbCircle
370
9
 62
0
 48
0
  6
_SOLID
 10
0.336369703646032
 20
1.11879471378959
 30
0
 40
0.00948286719999999
100
AcDbArc
 50
148.7683677874
 51
153.857857630251
  0
ARC
  5
1E8
100
AcDbEntity
  8
SEMA2D
100
AcDbCircle
370
9
 62
9
 48
0
  6
_SOLID
 10
0.336390645180683
 20
1.10985984955755
 30
0
 40
0.00483874890000001
100
AcDbArc
 50
281.973271791383
 51
293.002250996478
  0
ARC
  5
1E9
100
AcDbEntity
  8
SEMA2D
100
AcDbCircle
370
9
 62
0
 48
0
  6
_SOLID
 10
0.351604647923968
 20
1.1124664118714
 30
0
 40
0.00367285089999999
100
AcDbArc
 50
352.070352108695
 51
16.4462787530881
  0
ARC
  5
1EA
100
AcDbEntity
  8
SEMA2D
100
AcDbCircle
370
9
 62
0
 48
0
  6
_SOLID
 10
0.351612043410732
 20
1.11247000364701
 30
0
 40
0.00366474139999998
100
AcDbArc
 50
16.42515632975
 51
17.927112851609
  0
ARC
  5
1EB
100
AcDbEntity
  8
SEMA2D
100
AcDbCircle
370
9
 62
0
 48
0
  6
_SOLID
 10
0.351625205185127
 20
1.11247428772542
 30
0
 40
0.00365090000000003
100
AcDbArc
 50
17.9267237501514
 51
19.9151206646261
  0
ARC
  5
1EC
100
AcDbEntity
  8
SEMA2D
100
AcDbCircle
370
9
 62
9
 48
0
  6
_SOLID
 10
0.351797727046743
 20
1.1124177488184
 30
0
 40
0.00347514389999997
100
AcDbArc
 50
352.425656753343
 51
19.6871691420188
  0
ARC
  5
1ED
100
AcDbEntity
  8
SEMA2D
100
AcDbCircle
370
9
 62
9
 48
0
  6
_SOLID
 10
0.351865611085751
 20
1.11241249562194
 30
0
 40
0.00340716180000001
100
AcDbArc
 50
352.125827897616
 51
352.362754560974
  0
ARC
  5
1EE
100
AcDbEntity
  8
SEMA2D
100
AcDbCircle
370
9
 62
0
 48
0
  6
_SOLID
 10
0.352303510600018
 20
1.11572102437109
 30
0
 40
0.00194432990000008
100
AcDbArc
 50
300.530714214161
 51
304.801070007157
  0
ARC
  5
1EF
100
AcDbEntity
  8
SEMA2D
100
AcDbCircle
370
9
 62
0
 48
0
  6
_SOLID
 10
0.352306750739357
 20
1.11571528189544
 30
0
 40
0.00193773620000001
100
AcDbArc
 50
297.065593770426
 51
300.532079825819
  0
ARC
  5
1F0
100
AcDbEntity
  8
SEMA2D
100
AcDbCircle
370
9
 62
0
 48
0
  6
_SOLID
 10
0.352309660735436
 20
1.11571281327842
 30
0
 40
0.00193408029999996
100
AcDbArc
 50
304.792915814958
 51
312.380665702993
  0
ARC
  5
1F1
100
AcDbEntity
  8
SEMA2D
100
AcDbCircle
370
9
 62
0
 48
0
  6
_SOLID
 10
0.352308891210987
 20
1.11571115062868
 30
0
 40
0.00193308340000008
100
AcDbArc
 50
296.843160050868
 51
297.064815281734
  0
ARC
  5
1F2
100
AcDbEntity
  8
SEMA2D
100
AcDbCircle
370
9
 62
0
 48
0
  6
_SOLID
 10
0.351385805598882
 20
1.09809939842324
 30
0
 40
0.00192402020000003
100
AcDbArc
 50
293.004339840175
 51
297.208823906751
  0
ARC
  5
1F3
100
AcDbEntity
  8
SEMA2D
100
AcDbCircle
370
9
 62
0
 48
0
  6
_SOLID
 10
0.352313311210909
 20
1.11570217276353
 30
0
 40
0.00192307709999995
100
AcDbArc
 50
293.003258090126
 51
296.846442729499
  0
ARC
  5
1F4
100
AcDbEntity
  8
SEMA2D
100
AcDbCircle
370
9
 62
0
 48
0
  6
_SOLID
 10
0.33929915311929
 20
1.12991720397543
 30
0
 40
0.00192144110000006
100
AcDbArc
 50
255.928050259678
 51
293.073948847007
  0
ARC
  5
1F5
100
AcDbEntity
  8
SEMA2D
100
AcDbCircle
370
9
 62
0
 48
0
  6
_SOLID
 10
0.352323679195699
 20
1.11569568881553
 30
0
 40
0.001912028
100
AcDbArc
 50
318.500846261516
 51
321.562800724366
  0
ARC
  5
1F6
100
AcDbEntity
  8
SEMA2D
100
AcDbCircle
370
9
 62
0
 48
0
  6
_SOLID
 10
0.352325549401659
 20
1.11569406280313
 30
0
 40
0.00190954989999992
100
AcDbArc
 50
317.164989486741
 51
319.601279439705
  0
ARC
  5
1F7
100
AcDbEntity
  8
SEMA2D
100
AcDbCircle
370
9
 62
0
 48
0
  6
_SOLID
 10
0.35232735610052
 20
1.11569242721532
 30
0
 40
0.00190711300000002
100
AcDbArc
 50
316.846002427931
 51
318.501039552052
  0
ARC
  5
1F8
100
AcDbEntity
  8
SEMA2D
100
AcDbCircle
370
9
 62
0
 48
0
  6
_SOLID
 10
0.339296081152093
 20
1.12990064261439
 30
0
 40
0.00190463009999999
100
AcDbArc
 50
255.896555147919
 51
256.121748724584
  0
ARC
  5
1F9
100
AcDbEntity
  8
SEMA2D
100
AcDbCircle
370
9
 62
0
 48
0
  6
_SOLID
 10
0.352331614970663
 20
1.11568846436075
 30
0
 40
0.00190129590000003
100
AcDbArc
 50
312.386549736791
 51
316.845662534255
  0
ARC
  5
1FA
100
AcDbEntity
  8
SEMA2D
100
AcDbCircle
370
9
 62
0
 48
0
  6
_SOLID
 10
0.351432971778068
 20
1.09807357172011
 30
0
 40
0.00187121139999994
100
AcDbArc
 50
347.838290350707
 51
352.102908281629
  0
LINE
  5
1FB
100
AcDbEntity
  8
SEMA2D
100
AcDbLine
370
9
 62
9
 48
0
  6
_SOLID
 10
0.00172418760938232
 20
0.976650820322726
 30
0
 11
0.00283974572585289
 21
0.977238139639638
 31
0
  0
LINE
  5
1FC
100
AcDbEntity
  8
SEMA2D
100
AcDbLine
370
9
 62
9
 48
0
  6
_SOLID
 10
0.348178143837875
 20
1.12680185697217
 30
0
 11
0.346322557725453
 21
1.13081108661441
 31
0
  0
LINE
  5
1FD
100
AcDbEntity
  8
SEMA2D
100
AcDbLine
370
9
 62
0
 48
0
  6
_SOLID
 10
0.0164836240132222
 20
0.998901637232192
 30
0
 11
0.0175759687574653
 21
0.996328234282172
 31
0
  0
LINE
  5
1FE
100
AcDbEntity
  8
SEMA2D
100
AcDbLine
370
9
 62
0
 48
0
  6
_SOLID
 10
0.01595972301513
 20
1.00243167594911
 30
0
 11
0.0171394837213071
 21
0.999180033161241
 31
0
  0
LINE
  5
1FF
100
AcDbEntity
  8
SEMA2D
100
AcDbLine
370
9
 62
0
 48
0
  6
_SOLID
 10
0.018887688173635
 20
0.996885026140269
 30
0
 11
0.0201604412447809
 21
0.99428221155734
 31
0
  0
LINE
  5
200
100
AcDbEntity
  8
SEMA2D
100
AcDbLine
370
9
 62
9
 48
0
  6
_SOLID
 10
0.0212280781553331
 20
0.994735421525014
 30
0
 11
0.0199744514840017
 21
0.997346329796701
 31
0
  0
LINE
  5
201
100
AcDbEntity
  8
SEMA2D
100
AcDbLine
370
9
 62
9
 48
0
  6
_SOLID
 10
0.0188389639186818
 20
0.996864343921103
 30
0
 11
0.0177466191744386
 21
0.999437746871124
 31
0
  0
LINE
  5
202
100
AcDbEntity
  8
SEMA2D
100
AcDbLine
370
9
 62
9
 48
0
  6
_SOLID
 10
0.0183143630031237
 20
0.999678739828459
 30
0
 11
0.01707445324478
 21
1.00302141374197
 31
0
  0
LINE
  5
203
100
AcDbEntity
  8
SEMA2D
100
AcDbLine
370
9
 62
9
 48
0
  6
_SOLID
 10
0.0616889183278952
 20
1.01191002922095
 30
0
 11
0.0604352916565638
 21
1.01452093749263
 31
0
  0
LINE
  5
204
100
AcDbEntity
  8
SEMA2D
100
AcDbLine
370
9
 62
9
 48
0
  6
_SOLID
 10
0.0592998040912439
 20
1.01403895161704
 30
0
 11
0.0582074593470008
 21
1.01661235456706
 31
0
  0
LINE
  5
205
100
AcDbEntity
  8
SEMA2D
100
AcDbLine
370
9
 62
9
 48
0
  6
_SOLID
 10
0.0587752031756859
 20
1.01685334752439
 30
0
 11
0.0565184456924302
 21
1.02293714695341
 31
0
  0
LINE
  5
206
100
AcDbEntity
  8
SEMA2D
100
AcDbLine
370
9
 62
9
 48
0
  6
_SOLID
 10
0.0692580393196492
 20
1.0132041787111
 30
0
 11
0.0638830915509083
 21
1.02586676212827
 31
0
  0
LINE
  5
207
100
AcDbEntity
  8
SEMA2D
100
AcDbLine
370
9
 62
0
 48
0
  6
_SOLID
 10
0.0221762141514257
 20
1.0113399893232
 30
0
 11
0.0216314869149234
 21
1.01053201521525
 31
0
  0
LINE
  5
208
100
AcDbEntity
  8
SEMA2D
100
AcDbLine
370
9
 62
0
 48
0
  6
_SOLID
 10
0.0216337677262121
 20
1.01053524429542
 30
0
 11
0.0212128352957262
 21
1.00996991039019
 31
0
  0
LINE
  5
209
100
AcDbEntity
  8
SEMA2D
100
AcDbLine
370
9
 62
0
 48
0
  6
_SOLID
 10
0.0224225106830705
 20
1.01166527041285
 30
0
 11
0.0221762141514257
 21
1.0113399893232
 31
0
  0
LINE
  5
20A
100
AcDbEntity
  8
SEMA2D
100
AcDbLine
370
9
 62
0
 48
0
  6
_SOLID
 10
0.0565354711119063
 20
1.02618184343726
 30
0
 11
0.0559909334036533
 21
1.02532606008066
 31
0
  0
LINE
  5
20B
100
AcDbEntity
  8
SEMA2D
100
AcDbLine
370
9
 62
0
 48
0
  6
_SOLID
 10
0.0559909334036533
 20
1.02532606008066
 30
0
 11
0.0555631972445493
 21
1.0247219052736
 31
0
  0
LINE
  5
20C
100
AcDbEntity
  8
SEMA2D
100
AcDbLine
370
9
 62
0
 48
0
  6
_SOLID
 10
0.0555631972445493
 20
1.0247219052736
 30
0
 11
0.0551148623758744
 21
1.02415510534069
 31
0
  0
LINE
  5
20D
100
AcDbEntity
  8
SEMA2D
100
AcDbLine
370
9
 62
0
 48
0
  6
_SOLID
 10
0.0551148623758744
 20
1.02415510534069
 30
0
 11
0.0546438665281082
 21
1.02362415318191
 31
0
  0
LINE
  5
20E
100
AcDbEntity
  8
SEMA2D
100
AcDbLine
370
9
 62
0
 48
0
  6
_SOLID
 10
0.0546438665281082
 20
1.02362415318191
 30
0
 11
0.0541479266052632
 21
1.02312842612082
 31
0
  0
LINE
  5
20F
100
AcDbEntity
  8
SEMA2D
100
AcDbLine
370
9
 62
0
 48
0
  6
_SOLID
 10
0.0541479266052632
 20
1.02312842612082
 30
0
 11
0.0536277618716203
 21
1.02267102760543
 31
0
  0
LINE
  5
210
100
AcDbEntity
  8
SEMA2D
100
AcDbLine
370
9
 62
0
 48
0
  6
_SOLID
 10
0.0536277618716203
 20
1.02267102760543
 30
0
 11
0.0530850343890475
 21
1.02225584487142
 31
0
  0
LINE
  5
211
100
AcDbEntity
  8
SEMA2D
100
AcDbLine
370
9
 62
0
 48
0
  6
_SOLID
 10
0.0530850343890475
 20
1.02225584487142
 30
0
 11
0.0525139726573765
 21
1.02188148487369
 31
0
  0
LINE
  5
212
100
AcDbEntity
  8
SEMA2D
100
AcDbLine
370
9
 62
0
 48
0
  6
_SOLID
 10
0.0525139726573765
 20
1.02188148487369
 30
0
 11
0.0519074611643525
 21
1.0215480081745
 31
0
  0
LINE
  5
213
100
AcDbEntity
  8
SEMA2D
100
AcDbLine
370
9
 62
0
 48
0
  6
_SOLID
 10
0.0519074611643525
 20
1.0215480081745
 30
0
 11
0.0514350369660026
 21
1.0213303218262
 31
0
  0
LINE
  5
214
100
AcDbEntity
  8
SEMA2D
100
AcDbLine
370
9
 62
0
 48
0
  6
_SOLID
 10
0.0387049774749785
 20
1.0177748624515
 30
0
 11
0.0382893064808456
 21
1.0172171834836
 31
0
  0
LINE
  5
215
100
AcDbEntity
  8
SEMA2D
100
AcDbLine
370
9
 62
0
 48
0
  6
_SOLID
 10
0.0382893064808456
 20
1.0172171834836
 30
0
 11
0.0378554210562918
 21
1.01669395447534
 31
0
  0
LINE
  5
216
100
AcDbEntity
  8
SEMA2D
100
AcDbLine
370
9
 62
0
 48
0
  6
_SOLID
 10
0.0378554210562918
 20
1.01669395447534
 30
0
 11
0.037401611183253
 21
1.01620392029234
 31
0
  0
LINE
  5
217
100
AcDbEntity
  8
SEMA2D
100
AcDbLine
370
9
 62
0
 48
0
  6
_SOLID
 10
0.037401611183253
 20
1.01620392029234
 30
0
 11
0.0369261292762383
 21
1.01574664396128
 31
0
  0
LINE
  5
218
100
AcDbEntity
  8
SEMA2D
100
AcDbLine
370
9
 62
0
 48
0
  6
_SOLID
 10
0.0369261292762383
 20
1.01574664396128
 30
0
 11
0.0364292647695218
 21
1.0153243891215
 31
0
  0
LINE
  5
219
100
AcDbEntity
  8
SEMA2D
100
AcDbLine
370
9
 62
0
 48
0
  6
_SOLID
 10
0.0364292647695218
 20
1.0153243891215
 30
0
 11
0.0359123008750649
 21
1.01494027709369
 31
0
  0
LINE
  5
21A
100
AcDbEntity
  8
SEMA2D
100
AcDbLine
370
9
 62
0
 48
0
  6
_SOLID
 10
0.0359123008750649
 20
1.01494027709369
 30
0
 11
0.035369746566966
 21
1.01459278282913
 31
0
  0
LINE
  5
21B
100
AcDbEntity
  8
SEMA2D
100
AcDbLine
370
9
 62
0
 48
0
  6
_SOLID
 10
0.035369746566966
 20
1.01459278282913
 30
0
 11
0.0347948229843659
 21
1.0142816541706
 31
0
  0
LINE
  5
21C
100
AcDbEntity
  8
SEMA2D
100
AcDbLine
370
9
 62
0
 48
0
  6
_SOLID
 10
0.0347948229843659
 20
1.0142816541706
 30
0
 11
0.0343574844857993
 21
1.01408133076722
 31
0
  0
LINE
  5
21D
100
AcDbEntity
  8
SEMA2D
100
AcDbLine
370
9
 62
0
 48
0
  6
_SOLID
 10
0.0212152104902217
 20
1.00997293477666
 30
0
 11
0.0207656561365696
 21
1.00943132874596
 31
0
  0
LINE
  5
21E
100
AcDbEntity
  8
SEMA2D
100
AcDbLine
370
9
 62
0
 48
0
  6
_SOLID
 10
0.0226789257950584
 20
1.0119639628804
 30
0
 11
0.0224185742520831
 21
1.01166038778121
 31
0
  0
LINE
  5
21F
100
AcDbEntity
  8
SEMA2D
100
AcDbLine
370
9
 62
0
 48
0
  6
_SOLID
 10
0.0572399134182239
 20
1.02710913668737
 30
0
 11
0.0569906518525141
 21
1.02680823023173
 31
0
  0
LINE
  5
220
100
AcDbEntity
  8
SEMA2D
100
AcDbLine
370
9
 62
0
 48
0
  6
_SOLID
 10
0.0569906518525141
 20
1.02680823023173
 30
0
 11
0.0567548949201527
 21
1.02649833042929
 31
0
  0
LINE
  5
221
100
AcDbEntity
  8
SEMA2D
100
AcDbLine
370
9
 62
0
 48
0
  6
_SOLID
 10
0.0567548949201527
 20
1.02649833042929
 30
0
 11
0.0565354711119063
 21
1.02618184343726
 31
0
  0
LINE
  5
222
100
AcDbEntity
  8
SEMA2D
100
AcDbLine
370
9
 62
0
 48
0
  6
_SOLID
 10
0.0207681313048885
 20
1.00943414755273
 30
0
 11
0.0202941250167331
 21
1.00892474761842
 31
0
  0
LINE
  5
223
100
AcDbEntity
  8
SEMA2D
100
AcDbLine
370
9
 62
0
 48
0
  6
_SOLID
 10
0.0229485048670159
 20
1.01224160458326
 30
0
 11
0.0226751313203501
 21
1.01195980383727
 31
0
  0
LINE
  5
224
100
AcDbEntity
  8
SEMA2D
100
AcDbLine
370
9
 62
0
 48
0
  6
_SOLID
 10
0.0202966878739263
 20
1.0089273434636
 30
0
 11
0.0198012587145972
 21
1.00845526089621
 31
0
  0
LINE
  5
225
100
AcDbEntity
  8
SEMA2D
100
AcDbLine
370
9
 62
0
 48
0
  6
_SOLID
 10
0.0575016403556422
 20
1.02740102201596
 30
0
 11
0.0572399134182239
 21
1.02710913668737
 31
0
  0
LINE
  5
226
100
AcDbEntity
  8
SEMA2D
100
AcDbLine
370
9
 62
0
 48
0
  6
_SOLID
 10
0.057716428766034
 20
1.02762526528551
 30
0
 11
0.0574990256012194
 21
1.0273982922466
 31
0
  0
LINE
  5
227
100
AcDbEntity
  8
SEMA2D
100
AcDbLine
370
9
 62
0
 48
0
  6
_SOLID
 10
0.023229886417293
 20
1.01249772678597
 30
0
 11
0.0229448913412517
 21
1.01223810311666
 31
0
  0
LINE
  5
228
100
AcDbEntity
  8
SEMA2D
100
AcDbLine
370
9
 62
0
 48
0
  6
_SOLID
 10
0.0198038762624224
 20
1.00845760326019
 30
0
 11
0.01929156466489
 21
1.0080280470366
 31
0
  0
LINE
  5
229
100
AcDbEntity
  8
SEMA2D
100
AcDbLine
370
9
 62
0
 48
0
  6
_SOLID
 10
0.023522743395308
 20
1.0127327754516
 30
0
 11
0.023226489641113
 21
1.01249482030897
 31
0
  0
LINE
  5
22A
100
AcDbEntity
  8
SEMA2D
100
AcDbLine
370
9
 62
0
 48
0
  6
_SOLID
 10
0.0192942085611286
 20
1.00803011900022
 30
0
 11
0.0187715346827416
 21
1.00764806098823
 31
0
  0
LINE
  5
22B
100
AcDbEntity
  8
SEMA2D
100
AcDbLine
370
9
 62
0
 48
0
  6
_SOLID
 10
0.0187715346827416
 20
1.00764806098823
 30
0
 11
0.0182713528230601
 21
1.0073315825673
 31
0
  0
LINE
  5
22C
100
AcDbEntity
  8
SEMA2D
100
AcDbLine
370
9
 62
0
 48
0
  6
_SOLID
 10
0.0238266598222501
 20
1.01294695586328
 30
0
 11
0.023519594518424
 21
1.01273040440031
 31
0
  0
LINE
  5
22D
100
AcDbEntity
  8
SEMA2D
100
AcDbLine
370
9
 62
0
 48
0
  6
_SOLID
 10
0.0175635666837328
 20
1.00690635582842
 30
0
 11
0.0173726620882942
 21
1.00678141007982
 31
0
  0
LINE
  5
22E
100
AcDbEntity
  8
SEMA2D
100
AcDbLine
370
9
 62
0
 48
0
  6
_SOLID
 10
0.0173726620882942
 20
1.00678141007982
 30
0
 11
0.0171894204671104
 21
1.00664555093148
 31
0
  0
LINE
  5
22F
100
AcDbEntity
  8
SEMA2D
100
AcDbLine
370
9
 62
0
 48
0
  6
_SOLID
 10
0.0171894204671104
 20
1.00664555093148
 30
0
 11
0.0170144906033296
 21
1.00649926539852
 31
0
  0
LINE
  5
230
100
AcDbEntity
  8
SEMA2D
100
AcDbLine
370
9
 62
0
 48
0
  6
_SOLID
 10
0.0170144906033296
 20
1.00649926539852
 30
0
 11
0.0168485704082945
 21
1.00634308394602
 31
0
  0
LINE
  5
231
100
AcDbEntity
  8
SEMA2D
100
AcDbLine
370
9
 62
0
 48
0
  6
_SOLID
 10
0.0168485704082945
 20
1.00634308394602
 30
0
 11
0.0166923302875024
 21
1.00617752275626
 31
0
  0
LINE
  5
232
100
AcDbEntity
  8
SEMA2D
100
AcDbLine
370
9
 62
0
 48
0
  6
_SOLID
 10
0.0166923302875024
 20
1.00617752275626
 30
0
 11
0.0165464732338881
 21
1.00600314639034
 31
0
  0
LINE
  5
233
100
AcDbEntity
  8
SEMA2D
100
AcDbLine
370
9
 62
0
 48
0
  6
_SOLID
 10
0.0165464732338881
 20
1.00600314639034
 30
0
 11
0.0164116388779464
 21
1.00582054020481
 31
0
  0
LINE
  5
234
100
AcDbEntity
  8
SEMA2D
100
AcDbLine
370
9
 62
0
 48
0
  6
_SOLID
 10
0.0164116388779464
 20
1.00582054020481
 30
0
 11
0.0162882539279171
 21
1.00563048814793
 31
0
  0
LINE
  5
235
100
AcDbEntity
  8
SEMA2D
100
AcDbLine
370
9
 62
0
 48
0
  6
_SOLID
 10
0.0162882539279171
 20
1.00563048814793
 30
0
 11
0.0161766521567169
 21
1.00543385106848
 31
0
  0
LINE
  5
236
100
AcDbEntity
  8
SEMA2D
100
AcDbLine
370
9
 62
0
 48
0
  6
_SOLID
 10
0.0161766521567169
 20
1.00543385106848
 30
0
 11
0.016077117993997
 21
1.00523143356354
 31
0
  0
LINE
  5
237
100
AcDbEntity
  8
SEMA2D
100
AcDbLine
370
9
 62
0
 48
0
  6
_SOLID
 10
0.016077117993997
 20
1.00523143356354
 30
0
 11
0.015989946263348
 21
1.00502408407703
 31
0
  0
LINE
  5
238
100
AcDbEntity
  8
SEMA2D
100
AcDbLine
370
9
 62
0
 48
0
  6
_SOLID
 10
0.015989946263348
 20
1.00502408407703
 30
0
 11
0.0159153706595021
 21
1.004812520706
 31
0
  0
LINE
  5
239
100
AcDbEntity
  8
SEMA2D
100
AcDbLine
370
9
 62
0
 48
0
  6
_SOLID
 10
0.0159153706595021
 20
1.004812520706
 30
0
 11
0.0158536448128892
 21
1.00459748521872
 31
0
  0
LINE
  5
23A
100
AcDbEntity
  8
SEMA2D
100
AcDbLine
370
9
 62
0
 48
0
  6
_SOLID
 10
0.0158536448128892
 20
1.00459748521872
 30
0
 11
0.015805023183284
 21
1.00437970105012
 31
0
  0
LINE
  5
23B
100
AcDbEntity
  8
SEMA2D
100
AcDbLine
370
9
 62
0
 48
0
  6
_SOLID
 10
0.015805023183284
 20
1.00437970105012
 30
0
 11
0.015769762930741
 21
1.00415986377549
 31
0
  0
LINE
  5
23C
100
AcDbEntity
  8
SEMA2D
100
AcDbLine
370
9
 62
0
 48
0
  6
_SOLID
 10
0.015769762930741
 20
1.00415986377549
 30
0
 11
0.0157480277903353
 21
1.00393876749862
 31
0
  0
LINE
  5
23D
100
AcDbEntity
  8
SEMA2D
100
AcDbLine
370
9
 62
0
 48
0
  6
_SOLID
 10
0.0157480277903353
 20
1.00393876749862
 30
0
 11
0.0157397122374406
 21
1.0037172097908
 31
0
  0
LINE
  5
23E
100
AcDbEntity
  8
SEMA2D
100
AcDbLine
370
9
 62
0
 48
0
  6
_SOLID
 10
0.0157397122374406
 20
1.0037172097908
 30
0
 11
0.0157446710008051
 21
1.00349597309006
 31
0
  0
LINE
  5
23F
100
AcDbEntity
  8
SEMA2D
100
AcDbLine
370
9
 62
0
 48
0
  6
_SOLID
 10
0.0157446710008051
 20
1.00349597309006
 30
0
 11
0.0157627572488916
 21
1.00327584427801
 31
0
  0
LINE
  5
240
100
AcDbEntity
  8
SEMA2D
100
AcDbLine
370
9
 62
0
 48
0
  6
_SOLID
 10
0.0157627572488916
 20
1.00327584427801
 30
0
 11
0.0157938261459003
 21
1.00305757610261
 31
0
  0
LINE
  5
241
100
AcDbEntity
  8
SEMA2D
100
AcDbLine
370
9
 62
0
 48
0
  6
_SOLID
 10
0.0157938261459003
 20
1.00305757610261
 30
0
 11
0.0158377372653067
 21
1.00284191297165
 31
0
  0
LINE
  5
242
100
AcDbEntity
  8
SEMA2D
100
AcDbLine
370
9
 62
0
 48
0
  6
_SOLID
 10
0.0158377372653067
 20
1.00284191297165
 30
0
 11
0.0158943433869611
 21
1.00262963193318
 31
0
  0
LINE
  5
243
100
AcDbEntity
  8
SEMA2D
100
AcDbLine
370
9
 62
0
 48
0
  6
_SOLID
 10
0.0158943433869611
 20
1.00262963193318
 30
0
 11
0.0159597771554256
 21
1.00243169556259
 31
0
  0
LINE
  5
244
100
AcDbEntity
  8
SEMA2D
100
AcDbLine
370
9
 62
0
 48
0
  6
_SOLID
 10
0.0241406921574422
 20
1.01314014116593
 30
0
 11
0.023823783319041
 21
1.01294505925259
 31
0
  0
LINE
  5
245
100
AcDbEntity
  8
SEMA2D
100
AcDbLine
370
9
 62
0
 48
0
  6
_SOLID
 10
0.0177465206202067
 20
1.00701800629683
 30
0
 11
0.0175635666837328
 21
1.00690635582842
 31
0
  0
LINE
  5
246
100
AcDbEntity
  8
SEMA2D
100
AcDbLine
370
9
 62
0
 48
0
  6
_SOLID
 10
0.0179250830990969
 20
1.00712576446727
 30
0
 11
0.0177465206202067
 21
1.00701800629683
 31
0
  0
LINE
  5
247
100
AcDbEntity
  8
SEMA2D
100
AcDbLine
370
9
 62
0
 48
0
  6
_SOLID
 10
0.0181633236033152
 20
1.0072676811346
 30
0
 11
0.0179250830990969
 21
1.00712576446727
 31
0
  0
LINE
  5
248
100
AcDbEntity
  8
SEMA2D
100
AcDbLine
370
9
 62
0
 48
0
  6
_SOLID
 10
0.0244641348569975
 20
1.01331231128585
 30
0
 11
0.0241381190033715
 21
1.0131386659848
 31
0
  0
LINE
  5
249
100
AcDbEntity
  8
SEMA2D
100
AcDbLine
370
9
 62
0
 48
0
  6
_SOLID
 10
0.0593878625286053
 20
1.02875505346245
 30
0
 11
0.0591020689147143
 21
1.02862205768213
 31
0
  0
LINE
  5
24A
100
AcDbEntity
  8
SEMA2D
100
AcDbLine
370
9
 62
0
 48
0
  6
_SOLID
 10
0.0591020689147143
 20
1.02862205768213
 30
0
 11
0.0588235738136841
 21
1.02847319186726
 31
0
  0
LINE
  5
24B
100
AcDbEntity
  8
SEMA2D
100
AcDbLine
370
9
 62
0
 48
0
  6
_SOLID
 10
0.0588235738136841
 20
1.02847319186726
 30
0
 11
0.0585545924198878
 21
1.02830879001433
 31
0
  0
LINE
  5
24C
100
AcDbEntity
  8
SEMA2D
100
AcDbLine
370
9
 62
0
 48
0
  6
_SOLID
 10
0.0585545924198878
 20
1.02830879001433
 30
0
 11
0.0582962409280837
 21
1.02812884965951
 31
0
  0
LINE
  5
24D
100
AcDbEntity
  8
SEMA2D
100
AcDbLine
370
9
 62
0
 48
0
  6
_SOLID
 10
0.0582962409280837
 20
1.02812884965951
 30
0
 11
0.0580515179714488
 21
1.02793514272104
 31
0
  0
LINE
  5
24E
100
AcDbEntity
  8
SEMA2D
100
AcDbLine
370
9
 62
0
 48
0
  6
_SOLID
 10
0.0580515179714488
 20
1.02793514272104
 30
0
 11
0.0578230002912061
 21
1.02773013764108
 31
0
  0
LINE
  5
24F
100
AcDbEntity
  8
SEMA2D
100
AcDbLine
370
9
 62
0
 48
0
  6
_SOLID
 10
0.0247647330934681
 20
1.01345007165472
 30
0
 11
0.024461902941874
 21
1.0133112105
 31
0
  0
LINE
  5
250
100
AcDbEntity
  8
SEMA2D
100
AcDbLine
370
9
 62
0
 48
0
  6
_SOLID
 10
0.0418426889779714
 20
1.02069923384003
 30
0
 11
0.0415398587343266
 21
1.02056037264624
 31
0
  0
LINE
  5
251
100
AcDbEntity
  8
SEMA2D
100
AcDbLine
370
9
 62
0
 48
0
  6
_SOLID
 10
0.0415398587343266
 20
1.02056037264624
 30
0
 11
0.0412160748878748
 21
1.02038782817011
 31
0
  0
LINE
  5
252
100
AcDbEntity
  8
SEMA2D
100
AcDbLine
370
9
 62
0
 48
0
  6
_SOLID
 10
0.0412160748878748
 20
1.02038782817011
 30
0
 11
0.0409017392035443
 21
1.0201942214379
 31
0
  0
LINE
  5
253
100
AcDbEntity
  8
SEMA2D
100
AcDbLine
370
9
 62
0
 48
0
  6
_SOLID
 10
0.0409017392035443
 20
1.0201942214379
 30
0
 11
0.0405975504029273
 21
1.01997956658562
 31
0
  0
LINE
  5
254
100
AcDbEntity
  8
SEMA2D
100
AcDbLine
370
9
 62
0
 48
0
  6
_SOLID
 10
0.0405975504029273
 20
1.01997956658562
 30
0
 11
0.0403044455256163
 21
1.01974398249428
 31
0
  0
LINE
  5
255
100
AcDbEntity
  8
SEMA2D
100
AcDbLine
370
9
 62
0
 48
0
  6
_SOLID
 10
0.0403044455256163
 20
1.01974398249428
 30
0
 11
0.0400228473178055
 21
1.01948726534104
 31
0
  0
LINE
  5
256
100
AcDbEntity
  8
SEMA2D
100
AcDbLine
370
9
 62
0
 48
0
  6
_SOLID
 10
0.0400228473178055
 20
1.01948726534104
 30
0
 11
0.0397530872969039
 21
1.01920896606165
 31
0
  0
LINE
  5
257
100
AcDbEntity
  8
SEMA2D
100
AcDbLine
370
9
 62
0
 48
0
  6
_SOLID
 10
0.0397530872969039
 20
1.01920896606165
 30
0
 11
0.0394965302286367
 21
1.01890955000559
 31
0
  0
LINE
  5
258
100
AcDbEntity
  8
SEMA2D
100
AcDbLine
370
9
 62
0
 48
0
  6
_SOLID
 10
0.0394965302286367
 20
1.01890955000559
 30
0
 11
0.0392541701279795
 21
1.01858915154759
 31
0
  0
LINE
  5
259
100
AcDbEntity
  8
SEMA2D
100
AcDbLine
370
9
 62
0
 48
0
  6
_SOLID
 10
0.0392541701279795
 20
1.01858915154759
 30
0
 11
0.0387049774749785
 21
1.0177748624515
 31
0
  0
LINE
  5
25A
100
AcDbEntity
  8
SEMA2D
100
AcDbLine
370
9
 62
0
 48
0
  6
_SOLID
 10
0.360557266505984
 20
1.15659435723273
 30
0
 11
0.0593878625286053
 21
1.02875505346245
 31
0
  0
LINE
  5
25B
100
AcDbEntity
  8
SEMA2D
100
AcDbLine
370
9
 62
0
 48
0
  6
_SOLID
 10
0.0574224093068857
 20
1.02731279245716
 30
0
 11
0.0247643480981935
 21
1.01345026792784
 31
0
  0
LINE
  5
25C
100
AcDbEntity
  8
SEMA2D
100
AcDbLine
370
9
 62
9
 48
0
  6
_SOLID
 10
0.0261975162447939
 20
1.0132699597066
 30
0
 11
0.039503949567686
 21
1.01891820880482
 31
0
  0
LINE
  5
25D
100
AcDbEntity
  8
SEMA2D
100
AcDbLine
370
9
 62
9
 48
0
  6
_SOLID
 10
0.0432754717359264
 20
1.02051912205085
 30
0
 11
0.0565058908567883
 21
1.02613510047192
 31
0
  0
LINE
  5
25E
100
AcDbEntity
  8
SEMA2D
100
AcDbLine
370
9
 62
9
 48
0
  6
_SOLID
 10
0.362412852618406
 20
1.15258512759049
 30
0
 11
0.0638830915509083
 21
1.02586676212827
 31
0
  0
LINE
  5
25F
100
AcDbEntity
  8
SEMA2D
100
AcDbLine
370
9
 62
0
 48
0
  6
_SOLID
 10
0.367587187741319
 20
1.14793625791621
 30
0
 11
0.0164836658961932
 21
0.998901655010459
 31
0
  0
LINE
  5
260
100
AcDbEntity
  8
SEMA2D
100
AcDbLine
370
9
 62
0
 48
0
  6
_SOLID
 10
0.368679532485563
 20
1.14536285496619
 30
0
 11
0.0175760106404363
 21
0.996328252060439
 31
0
  0
LINE
  5
261
100
AcDbEntity
  8
SEMA2D
100
AcDbLine
370
9
 62
9
 48
0
  6
_SOLID
 10
0.366609422416215
 20
1.14134110415238
 30
0
 11
0.0201604311533592
 21
0.994282232260075
 31
0
  0
LINE
  5
262
100
AcDbEntity
  8
SEMA2D
100
AcDbLine
370
9
 62
0
 48
0
  6
_SOLID
 10
0.367299539667194
 20
1.13971528979396
 30
0
 11
0.0225971227819241
 21
0.99339779473958
 31
0
  0
LINE
  5
263
100
AcDbEntity
  8
SEMA2D
100
AcDbLine
370
9
 62
9
 48
0
  6
_SOLID
 10
0.352516178728287
 20
1.13118910269882
 30
0
 11
0.365166972871594
 21
1.1365590462177
 31
0
  0
LINE
  5
264
100
AcDbEntity
  8
SEMA2D
100
AcDbLine
370
9
 62
9
 48
0
  6
_SOLID
 10
0.358569376985155
 20
1.12030014130276
 30
0
 11
0.363189562426737
 21
1.12226129366893
 31
0
  0
LINE
  5
265
100
AcDbEntity
  8
SEMA2D
100
AcDbLine
370
9
 62
0
 48
0
  6
_SOLID
 10
0.358261065576322
 20
1.11866858905286
 30
0
 11
0.366372423080953
 21
1.12211165603885
 31
0
  0
LINE
  5
266
100
AcDbEntity
  8
SEMA2D
100
AcDbLine
370
9
 62
0
 48
0
  6
_SOLID
 10
0.355936902966633
 20
1.11935516926844
 30
0
 11
0.348489710605526
 21
1.13073983582979
 31
0
  0
LINE
  5
267
100
AcDbEntity
  8
SEMA2D
100
AcDbLine
370
9
 62
9
 48
0
  6
_SOLID
 10
0.358569376985155
 20
1.12030014130276
 30
0
 11
0.351629178374621
 21
1.13090964078377
 31
0
  0
LINE
  5
268
100
AcDbEntity
  8
SEMA2D
100
AcDbLine
370
9
 62
9
 48
0
  6
_SOLID
 10
0.363189562426737
 20
1.12226129366893
 30
0
 11
0.365166972871594
 21
1.1365590462177
 31
0
  0
LINE
  5
269
100
AcDbEntity
  8
SEMA2D
100
AcDbLine
370
9
 62
0
 48
0
  6
_SOLID
 10
0.367521246049077
 20
1.12359973477046
 30
0
 11
0.369477288366548
 21
1.13774295897319
 31
0
  0
LINE
  5
26A
100
AcDbEntity
  8
SEMA2D
100
AcDbLine
370
9
 62
0
 48
0
  6
_SOLID
 10
0.366931328033235
 20
1.14765786198716
 30
0
 11
0.362993946128913
 21
1.15570991472478
 31
0
  0
LINE
  5
26B
100
AcDbEntity
  8
SEMA2D
100
AcDbLine
370
9
 62
9
 48
0
  6
_SOLID
 10
0.352516178728287
 20
1.13118910269882
 30
0
 11
0.351706553626541
 21
1.1330964599102
 31
0
  0
LINE
  5
26C
100
AcDbEntity
  8
SEMA2D
100
AcDbLine
370
9
 62
9
 48
0
  6
_SOLID
 10
0.358569376985155
 20
1.12030014130276
 30
0
 11
0.35910912706601
 21
1.11902856979783
 31
0
  0
LINE
  5
26D
100
AcDbEntity
  8
SEMA2D
100
AcDbLine
370
9
 62
9
 48
0
  6
_SOLID
 10
0.363189562426737
 20
1.12226129366893
 30
0
 11
0.363729312507592
 21
1.120989722164
 31
0
  0
LINE
  5
26E
100
AcDbEntity
  8
SEMA2D
100
AcDbLine
370
9
 62
9
 48
0
  6
_SOLID
 10
0.350800113152032
 20
1.15245269135608
 30
0
 11
0.350435998237285
 21
1.15331049233942
 31
0
  0
LINE
  5
26F
100
AcDbEntity
  8
SEMA2D
100
AcDbLine
370
9
 62
9
 48
0
  6
_SOLID
 10
0.350928575495563
 20
1.15250722038574
 30
0
 11
0.350564460580815
 21
1.15336502136908
 31
0
  0
LINE
  5
270
100
AcDbEntity
  8
SEMA2D
100
AcDbLine
370
9
 62
9
 48
0
  6
_SOLID
 10
0.365166976553614
 20
1.13655904778063
 30
0
 11
0.364357351451868
 21
1.13846640499201
 31
0
  0
LINE
  5
271
100
AcDbEntity
  8
SEMA2D
100
AcDbLine
370
9
 62
9
 48
0
  6
_SOLID
 10
0.367299539667194
 20
1.13971528979396
 30
0
 11
0.366609422416215
 21
1.14134110415238
 31
0
  0
LINE
  5
272
100
AcDbEntity
  8
SEMA2D
100
AcDbLine
370
9
 62
0
 48
0
  6
_SOLID
 10
0.368679532485563
 20
1.14536285496619
 30
0
 11
0.367587187741319
 21
1.14793625791621
 31
0
  0
LINE
  5
273
100
AcDbEntity
  8
SEMA2D
100
AcDbLine
370
9
 62
9
 48
0
  6
_SOLID
 10
0.365621250750421
 20
1.14406469138875
 30
0
 11
0.366609422416215
 21
1.14134110415238
 31
0
  0
LINE
  5
274
100
AcDbEntity
  8
SEMA2D
100
AcDbLine
370
9
 62
0
 48
0
  6
_SOLID
 10
0.367367813069393
 20
1.1448060631081
 30
0
 11
0.369292532605357
 21
1.13950117357343
 31
0
  0
ARC
  5
275
100
AcDbEntity
  8
SEMA2D
100
AcDbCircle
370
9
 62
9
 48
0
  6
_SOLID
 10
0.286460296409005
 20
1.33501299428868
 30
0
 40
0.2133334286
100
AcDbArc
 50
291.816524828806
 51
292.191266365231
  0
ARC
  5
276
100
AcDbEntity
  8
SEMA2D
100
AcDbCircle
370
9
 62
9
 48
0
  6
_SOLID
 10
0.0197436031407718
 20
1.00482623632899
 30
0
 40
0.00290590670000002
100
AcDbArc
 50
120.629149908179
 51
135.759116658629
  0
ARC
  5
277
100
AcDbEntity
  8
SEMA2D
100
AcDbCircle
370
9
 62
9
 48
0
  6
_SOLID
 10
0.0197361810510676
 20
1.00483749488833
 30
0
 40
0.00289243760000002
100
AcDbArc
 50
120.42658082663
 51
120.616263704008
  0
ARC
  5
278
100
AcDbEntity
  8
SEMA2D
100
AcDbCircle
370
9
 62
9
 48
0
  6
_SOLID
 10
0.413387885568907
 20
1.06773412668862
 30
0
 40
0.0840364567000001
100
AcDbArc
 50
124.538468276698
 51
125.016300374066
  0
ARC
  5
279
100
AcDbEntity
  8
SEMA2D
100
AcDbCircle
370
9
 62
0
 48
0
  6
_SOLID
 10
0.350747625160986
 20
1.1446224801791
 30
0
 40
0.00950144260000001
100
AcDbArc
 50
75.8730577430121
 51
83.4158117365813
  0
ARC
  5
27A
100
AcDbEntity
  8
SEMA2D
100
AcDbCircle
370
9
 62
0
 48
0
  6
_SOLID
 10
0.350749164053988
 20
1.14462968523986
 30
0
 40
0.00949407989999992
100
AcDbArc
 50
75.8714508150412
 51
78.3992031504739
  0
ARC
  5
27B
100
AcDbEntity
  8
SEMA2D
100
AcDbCircle
370
9
 62
0
 48
0
  6
_SOLID
 10
0.350604412426564
 20
1.14457798440791
 30
0
 40
0.00948286720000004
100
AcDbArc
 50
148.768367787401
 51
153.857857630252
  0
ARC
  5
27C
100
AcDbEntity
  8
SEMA2D
100
AcDbCircle
370
9
 62
9
 48
0
  6
_SOLID
 10
0.350625353961214
 20
1.13564312017587
 30
0
 40
0.00483874890000001
100
AcDbArc
 50
281.973271791383
 51
293.002250996478
  0
ARC
  5
27D
100
AcDbEntity
  8
SEMA2D
100
AcDbCircle
370
9
 62
0
 48
0
  6
_SOLID
 10
0.365839356704499
 20
1.13824968248971
 30
0
 40
0.00367285089999993
100
AcDbArc
 50
352.070352108699
 51
16.4462787530914
  0
ARC
  5
27E
100
AcDbEntity
  8
SEMA2D
100
AcDbCircle
370
9
 62
0
 48
0
  6
_SOLID
 10
0.365846752191263
 20
1.13825327426533
 30
0
 40
0.00366474139999991
100
AcDbArc
 50
16.4251563297533
 51
17.9271128516123
  0
ARC
  5
27F
100
AcDbEntity
  8
SEMA2D
100
AcDbCircle
370
9
 62
0
 48
0
  6
_SOLID
 10
0.365859913965658
 20
1.13825755834374
 30
0
 40
0.00365090000000003
100
AcDbArc
 50
17.9267237501514
 51
19.9151206646261
  0
ARC
  5
280
100
AcDbEntity
  8
SEMA2D
100
AcDbCircle
370
9
 62
9
 48
0
  6
_SOLID
 10
0.366032435827274
 20
1.13820101943671
 30
0
 40
0.00347514390000008
100
AcDbArc
 50
352.425656753339
 51
19.6871691420188
  0
ARC
  5
281
100
AcDbEntity
  8
SEMA2D
100
AcDbCircle
370
9
 62
9
 48
0
  6
_SOLID
 10
0.366100319866282
 20
1.13819576624026
 30
0
 40
0.00340716180000001
100
AcDbArc
 50
352.125827897616
 51
352.362754560974
  0
ARC
  5
282
100
AcDbEntity
  8
SEMA2D
100
AcDbCircle
370
9
 62
0
 48
0
  6
_SOLID
 10
0.366538219380549
 20
1.14150429498941
 30
0
 40
0.00194432990000008
100
AcDbArc
 50
300.530714214161
 51
304.801070007157
  0
ARC
  5
283
100
AcDbEntity
  8
SEMA2D
100
AcDbCircle
370
9
 62
0
 48
0
  6
_SOLID
 10
0.366541459519889
 20
1.14149855251376
 30
0
 40
0.00193773620000001
100
AcDbArc
 50
297.065593770426
 51
300.532079825819
  0
ARC
  5
284
100
AcDbEntity
  8
SEMA2D
100
AcDbCircle
370
9
 62
0
 48
0
  6
_SOLID
 10
0.366544369515968
 20
1.14149608389674
 30
0
 40
0.0019340803
100
AcDbArc
 50
304.792915814958
 51
312.380665702993
  0
ARC
  5
285
100
AcDbEntity
  8
SEMA2D
100
AcDbCircle
370
9
 62
0
 48
0
  6
_SOLID
 10
0.366543599991518
 20
1.141494421247
 30
0
 40
0.00193308340000008
100
AcDbArc
 50
296.843160050868
 51
297.064815281734
  0
ARC
  5
286
100
AcDbEntity
  8
SEMA2D
100
AcDbCircle
370
9
 62
0
 48
0
  6
_SOLID
 10
0.365620514379414
 20
1.12388266904156
 30
0
 40
0.00192402019999994
100
AcDbArc
 50
293.004339840178
 51
297.208823906754
  0
ARC
  5
287
100
AcDbEntity
  8
SEMA2D
100
AcDbCircle
370
9
 62
0
 48
0
  6
_SOLID
 10
0.366548019991441
 20
1.14148544338185
 30
0
 40
0.00192307709999995
100
AcDbArc
 50
293.003258090126
 51
296.846442729499
  0
ARC
  5
288
100
AcDbEntity
  8
SEMA2D
100
AcDbCircle
370
9
 62
0
 48
0
  6
_SOLID
 10
0.353533861899822
 20
1.15570047459375
 30
0
 40
0.00192144110000006
100
AcDbArc
 50
255.928050259678
 51
293.073948847007
  0
ARC
  5
289
100
AcDbEntity
  8
SEMA2D
100
AcDbCircle
370
9
 62
0
 48
0
  6
_SOLID
 10
0.36655838797623
 20
1.14147895943385
 30
0
 40
0.001912028
100
AcDbArc
 50
318.500846261516
 51
321.562800724366
  0
ARC
  5
28A
100
AcDbEntity
  8
SEMA2D
100
AcDbCircle
370
9
 62
0
 48
0
  6
_SOLID
 10
0.36656025818219
 20
1.14147733342144
 30
0
 40
0.00190954989999992
100
AcDbArc
 50
317.164989486741
 51
319.601279439705
  0
ARC
  5
28B
100
AcDbEntity
  8
SEMA2D
100
AcDbCircle
370
9
 62
0
 48
0
  6
_SOLID
 10
0.366562064881051
 20
1.14147569783364
 30
0
 40
0.00190711300000002
100
AcDbArc
 50
316.846002427931
 51
318.501039552052
  0
ARC
  5
28C
100
AcDbEntity
  8
SEMA2D
100
AcDbCircle
370
9
 62
0
 48
0
  6
_SOLID
 10
0.353530789932625
 20
1.15568391323271
 30
0
 40
0.00190463009999999
100
AcDbArc
 50
255.896555147919
 51
256.121748724584
  0
ARC
  5
28D
100
AcDbEntity
  8
SEMA2D
100
AcDbCircle
370
9
 62
0
 48
0
  6
_SOLID
 10
0.366566323751194
 20
1.14147173497907
 30
0
 40
0.00190129590000003
100
AcDbArc
 50
312.386549736791
 51
316.845662534255
  0
ARC
  5
28E
100
AcDbEntity
  8
SEMA2D
100
AcDbCircle
370
9
 62
0
 48
0
  6
_SOLID
 10
0.365667680558599
 20
1.12385684233843
 30
0
 40
0.00187121139999994
100
AcDbArc
 50
347.838290350707
 51
352.102908281629
  0
LINE
  5
28F
100
AcDbEntity
  8
SEMA2D
100
AcDbLine
370
9
 62
9
 48
0
  6
_SOLID
 10
0.0159588963899136
 20
1.00243409094105
 30
0
 11
0.0170744545063842
 21
1.00302141025796
 31
0
  0
LINE
  5
290
100
AcDbEntity
  8
SEMA2D
100
AcDbLine
370
9
 62
9
 48
0
  6
_SOLID
 10
0.362412852618406
 20
1.15258512759049
 30
0
 11
0.360557266505984
 21
1.15659435723273
 31
0
  0
LINE
  5
291
100
AcDbEntity
  8
SEMA2D
100
AcDbLine
370
9
 62
0
 48
0
  6
_SOLID
 10
0.210270845232691
 20
1.09541381491387
 30
0
 11
0.211363189976934
 21
1.09284041196385
 31
0
  0
LINE
  5
292
100
AcDbEntity
  8
SEMA2D
100
AcDbLine
370
9
 62
0
 48
0
  6
_SOLID
 10
0.209746944234599
 20
1.09894385363079
 30
0
 11
0.210926704940776
 21
1.09569221084292
 31
0
  0
LINE
  5
293
100
AcDbEntity
  8
SEMA2D
100
AcDbLine
370
9
 62
0
 48
0
  6
_SOLID
 10
0.212674909393104
 20
1.09339720382195
 30
0
 11
0.21394766246425
 21
1.09079438923902
 31
0
  0
LINE
  5
294
100
AcDbEntity
  8
SEMA2D
100
AcDbLine
370
9
 62
9
 48
0
  6
_SOLID
 10
0.215015299374802
 20
1.09124759920669
 30
0
 11
0.21376167270347
 21
1.09385850747838
 31
0
  0
LINE
  5
295
100
AcDbEntity
  8
SEMA2D
100
AcDbLine
370
9
 62
9
 48
0
  6
_SOLID
 10
0.21262618513815
 20
1.09337652160278
 30
0
 11
0.211533840393907
 21
1.0959499245528
 31
0
  0
LINE
  5
296
100
AcDbEntity
  8
SEMA2D
100
AcDbLine
370
9
 62
9
 48
0
  6
_SOLID
 10
0.212101584222592
 20
1.09619091751014
 30
0
 11
0.210861674464249
 21
1.09953359142365
 31
0
  0
LINE
  5
297
100
AcDbEntity
  8
SEMA2D
100
AcDbLine
370
9
 62
9
 48
0
  6
_SOLID
 10
0.255476139547364
 20
1.10842220690263
 30
0
 11
0.254222512876032
 21
1.11103311517432
 31
0
  0
LINE
  5
298
100
AcDbEntity
  8
SEMA2D
100
AcDbLine
370
9
 62
9
 48
0
  6
_SOLID
 10
0.253087025310713
 20
1.11055112929872
 30
0
 11
0.251994680566469
 21
1.11312453224874
 31
0
  0
LINE
  5
299
100
AcDbEntity
  8
SEMA2D
100
AcDbLine
370
9
 62
9
 48
0
  6
_SOLID
 10
0.252562424395154
 20
1.11336552520607
 30
0
 11
0.250305666911899
 21
1.11944932463509
 31
0
  0
LINE
  5
29A
100
AcDbEntity
  8
SEMA2D
100
AcDbLine
370
9
 62
9
 48
0
  6
_SOLID
 10
0.263045260539118
 20
1.10971635639278
 30
0
 11
0.257670312770377
 21
1.12237893980995
 31
0
  0
LINE
  5
29B
100
AcDbEntity
  8
SEMA2D
100
AcDbLine
370
9
 62
0
 48
0
  6
_SOLID
 10
0.215963435370894
 20
1.10785216700489
 30
0
 11
0.215418708134392
 21
1.10704419289693
 31
0
  0
LINE
  5
29C
100
AcDbEntity
  8
SEMA2D
100
AcDbLine
370
9
 62
0
 48
0
  6
_SOLID
 10
0.215420988945681
 20
1.1070474219771
 30
0
 11
0.215000056515195
 21
1.10648208807187
 31
0
  0
LINE
  5
29D
100
AcDbEntity
  8
SEMA2D
100
AcDbLine
370
9
 62
0
 48
0
  6
_SOLID
 10
0.216209731902539
 20
1.10817744809453
 30
0
 11
0.215963435370894
 21
1.10785216700489
 31
0
  0
LINE
  5
29E
100
AcDbEntity
  8
SEMA2D
100
AcDbLine
370
9
 62
0
 48
0
  6
_SOLID
 10
0.250322692331375
 20
1.12269402111894
 30
0
 11
0.249778154623122
 21
1.12183823776235
 31
0
  0
LINE
  5
29F
100
AcDbEntity
  8
SEMA2D
100
AcDbLine
370
9
 62
0
 48
0
  6
_SOLID
 10
0.249778154623122
 20
1.12183823776235
 30
0
 11
0.249350418464018
 21
1.12123408295528
 31
0
  0
LINE
  5
2A0
100
AcDbEntity
  8
SEMA2D
100
AcDbLine
370
9
 62
0
 48
0
  6
_SOLID
 10
0.249350418464018
 20
1.12123408295528
 30
0
 11
0.248902083595343
 21
1.12066728302237
 31
0
  0
LINE
  5
2A1
100
AcDbEntity
  8
SEMA2D
100
AcDbLine
370
9
 62
0
 48
0
  6
_SOLID
 10
0.248902083595343
 20
1.12066728302237
 30
0
 11
0.248431087747577
 21
1.12013633086359
 31
0
  0
LINE
  5
2A2
100
AcDbEntity
  8
SEMA2D
100
AcDbLine
370
9
 62
0
 48
0
  6
_SOLID
 10
0.248431087747577
 20
1.12013633086359
 30
0
 11
0.247935147824732
 21
1.1196406038025
 31
0
  0
LINE
  5
2A3
100
AcDbEntity
  8
SEMA2D
100
AcDbLine
370
9
 62
0
 48
0
  6
_SOLID
 10
0.247935147824732
 20
1.1196406038025
 30
0
 11
0.247414983091089
 21
1.11918320528711
 31
0
  0
LINE
  5
2A4
100
AcDbEntity
  8
SEMA2D
100
AcDbLine
370
9
 62
0
 48
0
  6
_SOLID
 10
0.247414983091089
 20
1.11918320528711
 30
0
 11
0.246872255608516
 21
1.1187680225531
 31
0
  0
LINE
  5
2A5
100
AcDbEntity
  8
SEMA2D
100
AcDbLine
370
9
 62
0
 48
0
  6
_SOLID
 10
0.246872255608516
 20
1.1187680225531
 30
0
 11
0.246301193876845
 21
1.11839366255537
 31
0
  0
LINE
  5
2A6
100
AcDbEntity
  8
SEMA2D
100
AcDbLine
370
9
 62
0
 48
0
  6
_SOLID
 10
0.246301193876845
 20
1.11839366255537
 30
0
 11
0.245694682383821
 21
1.11806018585618
 31
0
  0
LINE
  5
2A7
100
AcDbEntity
  8
SEMA2D
100
AcDbLine
370
9
 62
0
 48
0
  6
_SOLID
 10
0.245694682383821
 20
1.11806018585618
 30
0
 11
0.245222258185471
 21
1.11784249950788
 31
0
  0
LINE
  5
2A8
100
AcDbEntity
  8
SEMA2D
100
AcDbLine
370
9
 62
0
 48
0
  6
_SOLID
 10
0.232492198694447
 20
1.11428704013318
 30
0
 11
0.232076527700314
 21
1.11372936116528
 31
0
  0
LINE
  5
2A9
100
AcDbEntity
  8
SEMA2D
100
AcDbLine
370
9
 62
0
 48
0
  6
_SOLID
 10
0.232076527700314
 20
1.11372936116528
 30
0
 11
0.23164264227576
 21
1.11320613215702
 31
0
  0
LINE
  5
2AA
100
AcDbEntity
  8
SEMA2D
100
AcDbLine
370
9
 62
0
 48
0
  6
_SOLID
 10
0.23164264227576
 20
1.11320613215702
 30
0
 11
0.231188832402722
 21
1.11271609797402
 31
0
  0
LINE
  5
2AB
100
AcDbEntity
  8
SEMA2D
100
AcDbLine
370
9
 62
0
 48
0
  6
_SOLID
 10
0.231188832402722
 20
1.11271609797402
 30
0
 11
0.230713350495707
 21
1.11225882164296
 31
0
  0
LINE
  5
2AC
100
AcDbEntity
  8
SEMA2D
100
AcDbLine
370
9
 62
0
 48
0
  6
_SOLID
 10
0.230713350495707
 20
1.11225882164296
 30
0
 11
0.23021648598899
 21
1.11183656680318
 31
0
  0
LINE
  5
2AD
100
AcDbEntity
  8
SEMA2D
100
AcDbLine
370
9
 62
0
 48
0
  6
_SOLID
 10
0.23021648598899
 20
1.11183656680318
 30
0
 11
0.229699522094534
 21
1.11145245477537
 31
0
  0
LINE
  5
2AE
100
AcDbEntity
  8
SEMA2D
100
AcDbLine
370
9
 62
0
 48
0
  6
_SOLID
 10
0.229699522094534
 20
1.11145245477537
 30
0
 11
0.229156967786435
 21
1.11110496051081
 31
0
  0
LINE
  5
2AF
100
AcDbEntity
  8
SEMA2D
100
AcDbLine
370
9
 62
0
 48
0
  6
_SOLID
 10
0.229156967786435
 20
1.11110496051081
 30
0
 11
0.228582044203835
 21
1.11079383185228
 31
0
  0
LINE
  5
2B0
100
AcDbEntity
  8
SEMA2D
100
AcDbLine
370
9
 62
0
 48
0
  6
_SOLID
 10
0.228582044203835
 20
1.11079383185228
 30
0
 11
0.228144705705268
 21
1.1105935084489
 31
0
  0
LINE
  5
2B1
100
AcDbEntity
  8
SEMA2D
100
AcDbLine
370
9
 62
0
 48
0
  6
_SOLID
 10
0.21500243170969
 20
1.10648511245835
 30
0
 11
0.214552877356038
 21
1.10594350642764
 31
0
  0
LINE
  5
2B2
100
AcDbEntity
  8
SEMA2D
100
AcDbLine
370
9
 62
0
 48
0
  6
_SOLID
 10
0.216466147014527
 20
1.10847614056208
 30
0
 11
0.216205795471552
 21
1.10817256546289
 31
0
  0
LINE
  5
2B3
100
AcDbEntity
  8
SEMA2D
100
AcDbLine
370
9
 62
0
 48
0
  6
_SOLID
 10
0.251027134637693
 20
1.12362131436905
 30
0
 11
0.250777873071983
 21
1.12332040791341
 31
0
  0
LINE
  5
2B4
100
AcDbEntity
  8
SEMA2D
100
AcDbLine
370
9
 62
0
 48
0
  6
_SOLID
 10
0.250777873071983
 20
1.12332040791341
 30
0
 11
0.250542116139621
 21
1.12301050811097
 31
0
  0
LINE
  5
2B5
100
AcDbEntity
  8
SEMA2D
100
AcDbLine
370
9
 62
0
 48
0
  6
_SOLID
 10
0.250542116139621
 20
1.12301050811097
 30
0
 11
0.250322692331375
 21
1.12269402111894
 31
0
  0
LINE
  5
2B6
100
AcDbEntity
  8
SEMA2D
100
AcDbLine
370
9
 62
0
 48
0
  6
_SOLID
 10
0.214555352524357
 20
1.10594632523441
 30
0
 11
0.214081346236202
 21
1.1054369253001
 31
0
  0
LINE
  5
2B7
100
AcDbEntity
  8
SEMA2D
100
AcDbLine
370
9
 62
0
 48
0
  6
_SOLID
 10
0.216735726086485
 20
1.10875378226494
 30
0
 11
0.216462352539819
 21
1.10847198151895
 31
0
  0
LINE
  5
2B8
100
AcDbEntity
  8
SEMA2D
100
AcDbLine
370
9
 62
0
 48
0
  6
_SOLID
 10
0.214083909093395
 20
1.10543952114528
 30
0
 11
0.213588479934066
 21
1.10496743857789
 31
0
  0
LINE
  5
2B9
100
AcDbEntity
  8
SEMA2D
100
AcDbLine
370
9
 62
0
 48
0
  6
_SOLID
 10
0.251288861575111
 20
1.12391319969764
 30
0
 11
0.251027134637693
 21
1.12362131436905
 31
0
  0
LINE
  5
2BA
100
AcDbEntity
  8
SEMA2D
100
AcDbLine
370
9
 62
0
 48
0
  6
_SOLID
 10
0.251503649985503
 20
1.12413744296719
 30
0
 11
0.251286246820688
 21
1.12391046992828
 31
0
  0
LINE
  5
2BB
100
AcDbEntity
  8
SEMA2D
100
AcDbLine
370
9
 62
0
 48
0
  6
_SOLID
 10
0.217017107636762
 20
1.10900990446765
 30
0
 11
0.21673211256072
 21
1.10875028079834
 31
0
  0
LINE
  5
2BC
100
AcDbEntity
  8
SEMA2D
100
AcDbLine
370
9
 62
0
 48
0
  6
_SOLID
 10
0.213591097481891
 20
1.10496978094187
 30
0
 11
0.213078785884359
 21
1.10454022471829
 31
0
  0
LINE
  5
2BD
100
AcDbEntity
  8
SEMA2D
100
AcDbLine
370
9
 62
0
 48
0
  6
_SOLID
 10
0.217309964614777
 20
1.10924495313328
 30
0
 11
0.217013710860582
 21
1.10900699799065
 31
0
  0
LINE
  5
2BE
100
AcDbEntity
  8
SEMA2D
100
AcDbLine
370
9
 62
0
 48
0
  6
_SOLID
 10
0.213081429780597
 20
1.1045422966819
 30
0
 11
0.21255875590221
 21
1.10416023866991
 31
0
  0
LINE
  5
2BF
100
AcDbEntity
  8
SEMA2D
100
AcDbLine
370
9
 62
0
 48
0
  6
_SOLID
 10
0.21255875590221
 20
1.10416023866991
 30
0
 11
0.212058574042529
 21
1.10384376024898
 31
0
  0
LINE
  5
2C0
100
AcDbEntity
  8
SEMA2D
100
AcDbLine
370
9
 62
0
 48
0
  6
_SOLID
 10
0.217613881041719
 20
1.10945913354496
 30
0
 11
0.217306815737893
 21
1.10924258208199
 31
0
  0
LINE
  5
2C1
100
AcDbEntity
  8
SEMA2D
100
AcDbLine
370
9
 62
0
 48
0
  6
_SOLID
 10
0.211350787903201
 20
1.1034185335101
 30
0
 11
0.211159883307763
 21
1.1032935877615
 31
0
  0
LINE
  5
2C2
100
AcDbEntity
  8
SEMA2D
100
AcDbLine
370
9
 62
0
 48
0
  6
_SOLID
 10
0.211159883307763
 20
1.1032935877615
 30
0
 11
0.210976641686579
 21
1.10315772861316
 31
0
  0
LINE
  5
2C3
100
AcDbEntity
  8
SEMA2D
100
AcDbLine
370
9
 62
0
 48
0
  6
_SOLID
 10
0.210976641686579
 20
1.10315772861316
 30
0
 11
0.210801711822798
 21
1.1030114430802
 31
0
  0
LINE
  5
2C4
100
AcDbEntity
  8
SEMA2D
100
AcDbLine
370
9
 62
0
 48
0
  6
_SOLID
 10
0.210801711822798
 20
1.1030114430802
 30
0
 11
0.210635791627763
 21
1.1028552616277
 31
0
  0
LINE
  5
2C5
100
AcDbEntity
  8
SEMA2D
100
AcDbLine
370
9
 62
0
 48
0
  6
_SOLID
 10
0.210635791627763
 20
1.1028552616277
 30
0
 11
0.210479551506971
 21
1.10268970043794
 31
0
  0
LINE
  5
2C6
100
AcDbEntity
  8
SEMA2D
100
AcDbLine
370
9
 62
0
 48
0
  6
_SOLID
 10
0.210479551506971
 20
1.10268970043794
 30
0
 11
0.210333694453357
 21
1.10251532407202
 31
0
  0
LINE
  5
2C7
100
AcDbEntity
  8
SEMA2D
100
AcDbLine
370
9
 62
0
 48
0
  6
_SOLID
 10
0.210333694453357
 20
1.10251532407202
 30
0
 11
0.210198860097415
 21
1.10233271788649
 31
0
  0
LINE
  5
2C8
100
AcDbEntity
  8
SEMA2D
100
AcDbLine
370
9
 62
0
 48
0
  6
_SOLID
 10
0.210198860097415
 20
1.10233271788649
 30
0
 11
0.210075475147386
 21
1.10214266582961
 31
0
  0
LINE
  5
2C9
100
AcDbEntity
  8
SEMA2D
100
AcDbLine
370
9
 62
0
 48
0
  6
_SOLID
 10
0.210075475147386
 20
1.10214266582961
 30
0
 11
0.209963873376186
 21
1.10194602875016
 31
0
  0
LINE
  5
2CA
100
AcDbEntity
  8
SEMA2D
100
AcDbLine
370
9
 62
0
 48
0
  6
_SOLID
 10
0.209963873376186
 20
1.10194602875016
 30
0
 11
0.209864339213466
 21
1.10174361124522
 31
0
  0
LINE
  5
2CB
100
AcDbEntity
  8
SEMA2D
100
AcDbLine
370
9
 62
0
 48
0
  6
_SOLID
 10
0.209864339213466
 20
1.10174361124522
 30
0
 11
0.209777167482817
 21
1.10153626175872
 31
0
  0
LINE
  5
2CC
100
AcDbEntity
  8
SEMA2D
100
AcDbLine
370
9
 62
0
 48
0
  6
_SOLID
 10
0.209777167482817
 20
1.10153626175872
 30
0
 11
0.209702591878971
 21
1.10132469838768
 31
0
  0
LINE
  5
2CD
100
AcDbEntity
  8
SEMA2D
100
AcDbLine
370
9
 62
0
 48
0
  6
_SOLID
 10
0.209702591878971
 20
1.10132469838768
 30
0
 11
0.209640866032358
 21
1.1011096629004
 31
0
  0
LINE
  5
2CE
100
AcDbEntity
  8
SEMA2D
100
AcDbLine
370
9
 62
0
 48
0
  6
_SOLID
 10
0.209640866032358
 20
1.1011096629004
 30
0
 11
0.209592244402753
 21
1.1008918787318
 31
0
  0
LINE
  5
2CF
100
AcDbEntity
  8
SEMA2D
100
AcDbLine
370
9
 62
0
 48
0
  6
_SOLID
 10
0.209592244402753
 20
1.1008918787318
 30
0
 11
0.20955698415021
 21
1.10067204145717
 31
0
  0
LINE
  5
2D0
100
AcDbEntity
  8
SEMA2D
100
AcDbLine
370
9
 62
0
 48
0
  6
_SOLID
 10
0.20955698415021
 20
1.10067204145717
 30
0
 11
0.209535249009804
 21
1.1004509451803
 31
0
  0
LINE
  5
2D1
100
AcDbEntity
  8
SEMA2D
100
AcDbLine
370
9
 62
0
 48
0
  6
_SOLID
 10
0.209535249009804
 20
1.1004509451803
 30
0
 11
0.209526933456909
 21
1.10022938747248
 31
0
  0
LINE
  5
2D2
100
AcDbEntity
  8
SEMA2D
100
AcDbLine
370
9
 62
0
 48
0
  6
_SOLID
 10
0.209526933456909
 20
1.10022938747248
 30
0
 11
0.209531892220274
 21
1.10000815077174
 31
0
  0
LINE
  5
2D3
100
AcDbEntity
  8
SEMA2D
100
AcDbLine
370
9
 62
0
 48
0
  6
_SOLID
 10
0.209531892220274
 20
1.10000815077174
 30
0
 11
0.20954997846836
 21
1.09978802195969
 31
0
  0
LINE
  5
2D4
100
AcDbEntity
  8
SEMA2D
100
AcDbLine
370
9
 62
0
 48
0
  6
_SOLID
 10
0.20954997846836
 20
1.09978802195969
 30
0
 11
0.209581047365369
 21
1.09956975378429
 31
0
  0
LINE
  5
2D5
100
AcDbEntity
  8
SEMA2D
100
AcDbLine
370
9
 62
0
 48
0
  6
_SOLID
 10
0.209581047365369
 20
1.09956975378429
 30
0
 11
0.209624958484775
 21
1.09935409065333
 31
0
  0
LINE
  5
2D6
100
AcDbEntity
  8
SEMA2D
100
AcDbLine
370
9
 62
0
 48
0
  6
_SOLID
 10
0.209624958484775
 20
1.09935409065333
 30
0
 11
0.20968156460643
 21
1.09914180961486
 31
0
  0
LINE
  5
2D7
100
AcDbEntity
  8
SEMA2D
100
AcDbLine
370
9
 62
0
 48
0
  6
_SOLID
 10
0.20968156460643
 20
1.09914180961486
 30
0
 11
0.209746998374894
 21
1.09894387324427
 31
0
  0
LINE
  5
2D8
100
AcDbEntity
  8
SEMA2D
100
AcDbLine
370
9
 62
0
 48
0
  6
_SOLID
 10
0.217927913376911
 20
1.10965231884761
 30
0
 11
0.21761100453851
 21
1.10945723693427
 31
0
  0
LINE
  5
2D9
100
AcDbEntity
  8
SEMA2D
100
AcDbLine
370
9
 62
0
 48
0
  6
_SOLID
 10
0.211533741839675
 20
1.10353018397851
 30
0
 11
0.211350787903201
 21
1.1034185335101
 31
0
  0
LINE
  5
2DA
100
AcDbEntity
  8
SEMA2D
100
AcDbLine
370
9
 62
0
 48
0
  6
_SOLID
 10
0.211712304318566
 20
1.10363794214895
 30
0
 11
0.211533741839675
 21
1.10353018397851
 31
0
  0
LINE
  5
2DB
100
AcDbEntity
  8
SEMA2D
100
AcDbLine
370
9
 62
0
 48
0
  6
_SOLID
 10
0.211950544822784
 20
1.10377985881628
 30
0
 11
0.211712304318566
 21
1.10363794214895
 31
0
  0
LINE
  5
2DC
100
AcDbEntity
  8
SEMA2D
100
AcDbLine
370
9
 62
0
 48
0
  6
_SOLID
 10
0.218251356076466
 20
1.10982448896753
 30
0
 11
0.21792534022284
 21
1.10965084366648
 31
0
  0
LINE
  5
2DD
100
AcDbEntity
  8
SEMA2D
100
AcDbLine
370
9
 62
0
 48
0
  6
_SOLID
 10
0.253175083748074
 20
1.12526723114413
 30
0
 11
0.252889290134183
 21
1.12513423536381
 31
0
  0
LINE
  5
2DE
100
AcDbEntity
  8
SEMA2D
100
AcDbLine
370
9
 62
0
 48
0
  6
_SOLID
 10
0.252889290134183
 20
1.12513423536381
 30
0
 11
0.252610795033153
 21
1.12498536954894
 31
0
  0
LINE
  5
2DF
100
AcDbEntity
  8
SEMA2D
100
AcDbLine
370
9
 62
0
 48
0
  6
_SOLID
 10
0.252610795033153
 20
1.12498536954894
 30
0
 11
0.252341813639356
 21
1.12482096769601
 31
0
  0
LINE
  5
2E0
100
AcDbEntity
  8
SEMA2D
100
AcDbLine
370
9
 62
0
 48
0
  6
_SOLID
 10
0.252341813639356
 20
1.12482096769601
 30
0
 11
0.252083462147552
 21
1.12464102734119
 31
0
  0
LINE
  5
2E1
100
AcDbEntity
  8
SEMA2D
100
AcDbLine
370
9
 62
0
 48
0
  6
_SOLID
 10
0.252083462147552
 20
1.12464102734119
 30
0
 11
0.251838739190917
 21
1.12444732040272
 31
0
  0
LINE
  5
2E2
100
AcDbEntity
  8
SEMA2D
100
AcDbLine
370
9
 62
0
 48
0
  6
_SOLID
 10
0.251838739190917
 20
1.12444732040272
 30
0
 11
0.251610221510675
 21
1.12424231532276
 31
0
  0
LINE
  5
2E3
100
AcDbEntity
  8
SEMA2D
100
AcDbLine
370
9
 62
0
 48
0
  6
_SOLID
 10
0.218551954312937
 20
1.1099622493364
 30
0
 11
0.218249124161343
 21
1.10982338818168
 31
0
  0
LINE
  5
2E4
100
AcDbEntity
  8
SEMA2D
100
AcDbLine
370
9
 62
0
 48
0
  6
_SOLID
 10
0.23562991019744
 20
1.11721141152171
 30
0
 11
0.235327079953795
 21
1.11707255032792
 31
0
  0
LINE
  5
2E5
100
AcDbEntity
  8
SEMA2D
100
AcDbLine
370
9
 62
0
 48
0
  6
_SOLID
 10
0.235327079953795
 20
1.11707255032792
 30
0
 11
0.235003296107343
 21
1.11690000585179
 31
0
  0
LINE
  5
2E6
100
AcDbEntity
  8
SEMA2D
100
AcDbLine
370
9
 62
0
 48
0
  6
_SOLID
 10
0.235003296107343
 20
1.11690000585179
 30
0
 11
0.234688960423013
 21
1.11670639911958
 31
0
  0
LINE
  5
2E7
100
AcDbEntity
  8
SEMA2D
100
AcDbLine
370
9
 62
0
 48
0
  6
_SOLID
 10
0.234688960423013
 20
1.11670639911958
 30
0
 11
0.234384771622396
 21
1.1164917442673
 31
0
  0
LINE
  5
2E8
100
AcDbEntity
  8
SEMA2D
100
AcDbLine
370
9
 62
0
 48
0
  6
_SOLID
 10
0.234384771622396
 20
1.1164917442673
 30
0
 11
0.234091666745085
 21
1.11625616017596
 31
0
  0
LINE
  5
2E9
100
AcDbEntity
  8
SEMA2D
100
AcDbLine
370
9
 62
0
 48
0
  6
_SOLID
 10
0.234091666745085
 20
1.11625616017596
 30
0
 11
0.233810068537274
 21
1.11599944302272
 31
0
  0
LINE
  5
2EA
100
AcDbEntity
  8
SEMA2D
100
AcDbLine
370
9
 62
0
 48
0
  6
_SOLID
 10
0.233810068537274
 20
1.11599944302272
 30
0
 11
0.233540308516373
 21
1.11572114374333
 31
0
  0
LINE
  5
2EB
100
AcDbEntity
  8
SEMA2D
100
AcDbLine
370
9
 62
0
 48
0
  6
_SOLID
 10
0.233540308516373
 20
1.11572114374333
 30
0
 11
0.233283751448105
 21
1.11542172768727
 31
0
  0
LINE
  5
2EC
100
AcDbEntity
  8
SEMA2D
100
AcDbLine
370
9
 62
0
 48
0
  6
_SOLID
 10
0.233283751448105
 20
1.11542172768727
 30
0
 11
0.233041391347448
 21
1.11510132922927
 31
0
  0
LINE
  5
2ED
100
AcDbEntity
  8
SEMA2D
100
AcDbLine
370
9
 62
0
 48
0
  6
_SOLID
 10
0.233041391347448
 20
1.11510132922927
 30
0
 11
0.232492198694447
 21
1.11428704013318
 31
0
  0
LINE
  5
2EE
100
AcDbEntity
  8
SEMA2D
100
AcDbLine
370
9
 62
0
 48
0
  6
_SOLID
 10
0.554344487725453
 20
1.25310653491441
 30
0
 11
0.253175083748074
 21
1.12526723114413
 31
0
  0
LINE
  5
2EF
100
AcDbEntity
  8
SEMA2D
100
AcDbLine
370
9
 62
0
 48
0
  6
_SOLID
 10
0.251209630526354
 20
1.12382497013884
 30
0
 11
0.218551569317662
 21
1.10996244560952
 31
0
  0
LINE
  5
2F0
100
AcDbEntity
  8
SEMA2D
100
AcDbLine
370
9
 62
9
 48
0
  6
_SOLID
 10
0.219984737464263
 20
1.10978213738828
 30
0
 11
0.233291170787155
 21
1.11543038648651
 31
0
  0
LINE
  5
2F1
100
AcDbEntity
  8
SEMA2D
100
AcDbLine
370
9
 62
9
 48
0
  6
_SOLID
 10
0.237062692955395
 20
1.11703129973253
 30
0
 11
0.250293112076257
 21
1.1226472781536
 31
0
  0
LINE
  5
2F2
100
AcDbEntity
  8
SEMA2D
100
AcDbLine
370
9
 62
9
 48
0
  6
_SOLID
 10
0.556200073837875
 20
1.24909730527217
 30
0
 11
0.257670312770377
 21
1.12237893980995
 31
0
  0
LINE
  5
2F3
100
AcDbEntity
  8
SEMA2D
100
AcDbLine
370
9
 62
0
 48
0
  6
_SOLID
 10
0.561374408960788
 20
1.24444843559789
 30
0
 11
0.210270887115662
 21
1.09541383269214
 31
0
  0
LINE
  5
2F4
100
AcDbEntity
  8
SEMA2D
100
AcDbLine
370
9
 62
0
 48
0
  6
_SOLID
 10
0.562466753705031
 20
1.24187503264787
 30
0
 11
0.211363231859905
 21
1.09284042974212
 31
0
  0
LINE
  5
2F5
100
AcDbEntity
  8
SEMA2D
100
AcDbLine
370
9
 62
9
 48
0
  6
_SOLID
 10
0.560396643635683
 20
1.23785328183406
 30
0
 11
0.213947652372828
 21
1.09079440994176
 31
0
  0
LINE
  5
2F6
100
AcDbEntity
  8
SEMA2D
100
AcDbLine
370
9
 62
0
 48
0
  6
_SOLID
 10
0.561086760886663
 20
1.23622746747564
 30
0
 11
0.216384344001393
 21
1.08990997242126
 31
0
  0
LINE
  5
2F7
100
AcDbEntity
  8
SEMA2D
100
AcDbLine
370
9
 62
9
 48
0
  6
_SOLID
 10
0.546303399947755
 20
1.2277012803805
 30
0
 11
0.558954194091063
 21
1.23307122389938
 31
0
  0
LINE
  5
2F8
100
AcDbEntity
  8
SEMA2D
100
AcDbLine
370
9
 62
9
 48
0
  6
_SOLID
 10
0.552356598204623
 20
1.21681231898444
 30
0
 11
0.556976783646206
 21
1.21877347135061
 31
0
  0
LINE
  5
2F9
100
AcDbEntity
  8
SEMA2D
100
AcDbLine
370
9
 62
0
 48
0
  6
_SOLID
 10
0.552048286795791
 20
1.21518076673454
 30
0
 11
0.560159644300421
 21
1.21862383372053
 31
0
  0
LINE
  5
2FA
100
AcDbEntity
  8
SEMA2D
100
AcDbLine
370
9
 62
0
 48
0
  6
_SOLID
 10
0.549724124186102
 20
1.21586734695012
 30
0
 11
0.542276931824994
 21
1.22725201351147
 31
0
  0
LINE
  5
2FB
100
AcDbEntity
  8
SEMA2D
100
AcDbLine
370
9
 62
9
 48
0
  6
_SOLID
 10
0.552356598204623
 20
1.21681231898444
 30
0
 11
0.54541639959409
 21
1.22742181846545
 31
0
  0
LINE
  5
2FC
100
AcDbEntity
  8
SEMA2D
100
AcDbLine
370
9
 62
9
 48
0
  6
_SOLID
 10
0.556976783646206
 20
1.21877347135061
 30
0
 11
0.558954194091063
 21
1.23307122389938
 31
0
  0
LINE
  5
2FD
100
AcDbEntity
  8
SEMA2D
100
AcDbLine
370
9
 62
0
 48
0
  6
_SOLID
 10
0.561308467268545
 20
1.22011191245214
 30
0
 11
0.563264509586017
 21
1.23425513665487
 31
0
  0
LINE
  5
2FE
100
AcDbEntity
  8
SEMA2D
100
AcDbLine
370
9
 62
0
 48
0
  6
_SOLID
 10
0.560718549252703
 20
1.24417003966885
 30
0
 11
0.556781167348381
 21
1.25222209240646
 31
0
  0
LINE
  5
2FF
100
AcDbEntity
  8
SEMA2D
100
AcDbLine
370
9
 62
9
 48
0
  6
_SOLID
 10
0.546303399947755
 20
1.2277012803805
 30
0
 11
0.545493774846009
 21
1.22960863759188
 31
0
  0
LINE
  5
300
100
AcDbEntity
  8
SEMA2D
100
AcDbLine
370
9
 62
9
 48
0
  6
_SOLID
 10
0.552356598204623
 20
1.21681231898444
 30
0
 11
0.552896348285478
 21
1.21554074747951
 31
0
  0
LINE
  5
301
100
AcDbEntity
  8
SEMA2D
100
AcDbLine
370
9
 62
9
 48
0
  6
_SOLID
 10
0.556976783646206
 20
1.21877347135061
 30
0
 11
0.557516533727061
 21
1.21750189984568
 31
0
  0
LINE
  5
302
100
AcDbEntity
  8
SEMA2D
100
AcDbLine
370
9
 62
9
 48
0
  6
_SOLID
 10
0.544587334371501
 20
1.24896486903776
 30
0
 11
0.544223219456753
 21
1.2498226700211
 31
0
  0
LINE
  5
303
100
AcDbEntity
  8
SEMA2D
100
AcDbLine
370
9
 62
9
 48
0
  6
_SOLID
 10
0.544715796715031
 20
1.24901939806742
 30
0
 11
0.544351681800284
 21
1.24987719905076
 31
0
  0
LINE
  5
304
100
AcDbEntity
  8
SEMA2D
100
AcDbLine
370
9
 62
9
 48
0
  6
_SOLID
 10
0.558954197773082
 20
1.23307122546231
 30
0
 11
0.558144572671336
 21
1.23497858267369
 31
0
  0
LINE
  5
305
100
AcDbEntity
  8
SEMA2D
100
AcDbLine
370
9
 62
9
 48
0
  6
_SOLID
 10
0.561086760886663
 20
1.23622746747564
 30
0
 11
0.560396643635683
 21
1.23785328183406
 31
0
  0
LINE
  5
306
100
AcDbEntity
  8
SEMA2D
100
AcDbLine
370
9
 62
0
 48
0
  6
_SOLID
 10
0.562466753705031
 20
1.24187503264787
 30
0
 11
0.561374408960788
 21
1.24444843559789
 31
0
  0
LINE
  5
307
100
AcDbEntity
  8
SEMA2D
100
AcDbLine
370
9
 62
9
 48
0
  6
_SOLID
 10
0.55940847196989
 20
1.24057686907043
 30
0
 11
0.560396643635683
 21
1.23785328183406
 31
0
  0
LINE
  5
308
100
AcDbEntity
  8
SEMA2D
100
AcDbLine
370
9
 62
0
 48
0
  6
_SOLID
 10
0.561155034288861
 20
1.24131824078978
 30
0
 11
0.563079753824826
 21
1.23601335125511
 31
0
  0
ARC
  5
309
100
AcDbEntity
  8
SEMA2D
100
AcDbCircle
370
9
 62
9
 48
0
  6
_SOLID
 10
0.480247517628474
 20
1.43152517197036
 30
0
 40
0.2133334286
100
AcDbArc
 50
291.816524828806
 51
292.191266365231
  0
ARC
  5
30A
100
AcDbEntity
  8
SEMA2D
100
AcDbCircle
370
9
 62
9
 48
0
  6
_SOLID
 10
0.21353082436024
 20
1.10133841401067
 30
0
 40
0.00290590669999991
100
AcDbArc
 50
120.629149908181
 51
135.759116658632
  0
ARC
  5
30B
100
AcDbEntity
  8
SEMA2D
100
AcDbCircle
370
9
 62
9
 48
0
  6
_SOLID
 10
0.213523402270536
 20
1.10134967257001
 30
0
 40
0.00289243759999996
100
AcDbArc
 50
120.426580826632
 51
120.616263704011
  0
ARC
  5
30C
100
AcDbEntity
  8
SEMA2D
100
AcDbCircle
370
9
 62
9
 48
0
  6
_SOLID
 10
0.607175106788375
 20
1.1642463043703
 30
0
 40
0.0840364567000003
100
AcDbArc
 50
124.538468276698
 51
125.016300374066
  0
ARC
  5
30D
100
AcDbEntity
  8
SEMA2D
100
AcDbCircle
370
9
 62
0
 48
0
  6
_SOLID
 10
0.544534846380454
 20
1.24113465786078
 30
0
 40
0.00950144259999994
100
AcDbArc
 50
75.8730577430118
 51
83.415811736581
  0
ARC
  5
30E
100
AcDbEntity
  8
SEMA2D
100
AcDbCircle
370
9
 62
0
 48
0
  6
_SOLID
 10
0.544536385273457
 20
1.24114186292154
 30
0
 40
0.00949407990000002
100
AcDbArc
 50
75.8714508150415
 51
78.3992031504745
  0
ARC
  5
30F
100
AcDbEntity
  8
SEMA2D
100
AcDbCircle
370
9
 62
0
 48
0
  6
_SOLID
 10
0.544391633646032
 20
1.24109016208959
 30
0
 40
0.00948286720000001
100
AcDbArc
 50
148.7683677874
 51
153.857857630251
  0
ARC
  5
310
100
AcDbEntity
  8
SEMA2D
100
AcDbCircle
370
9
 62
9
 48
0
  6
_SOLID
 10
0.544412575180683
 20
1.23215529785755
 30
0
 40
0.00483874890000005
100
AcDbArc
 50
281.973271791383
 51
293.002250996478
  0
ARC
  5
311
100
AcDbEntity
  8
SEMA2D
100
AcDbCircle
370
9
 62
0
 48
0
  6
_SOLID
 10
0.559626577923968
 20
1.2347618601714
 30
0
 40
0.00367285089999996
100
AcDbArc
 50
352.070352108699
 51
16.4462787530912
  0
ARC
  5
312
100
AcDbEntity
  8
SEMA2D
100
AcDbCircle
370
9
 62
0
 48
0
  6
_SOLID
 10
0.559633973410732
 20
1.23476545194701
 30
0
 40
0.00366474139999996
100
AcDbArc
 50
16.42515632975
 51
17.927112851609
  0
ARC
  5
313
100
AcDbEntity
  8
SEMA2D
100
AcDbCircle
370
9
 62
0
 48
0
  6
_SOLID
 10
0.559647135185127
 20
1.23476973602542
 30
0
 40
0.0036509000000001
100
AcDbArc
 50
17.9267237501547
 51
19.9151206646294
  0
ARC
  5
314
100
AcDbEntity
  8
SEMA2D
100
AcDbCircle
370
9
 62
9
 48
0
  6
_SOLID
 10
0.559819657046743
 20
1.2347131971184
 30
0
 40
0.00347514390000004
100
AcDbArc
 50
352.425656753336
 51
19.6871691420156
  0
ARC
  5
315
100
AcDbEntity
  8
SEMA2D
100
AcDbCircle
370
9
 62
9
 48
0
  6
_SOLID
 10
0.55988754108575
 20
1.23470794392194
 30
0
 40
0.00340716180000006
100
AcDbArc
 50
352.125827897616
 51
352.362754560978
  0
ARC
  5
316
100
AcDbEntity
  8
SEMA2D
100
AcDbCircle
370
9
 62
0
 48
0
  6
_SOLID
 10
0.560325440600018
 20
1.23801647267109
 30
0
 40
0.00194432990000009
100
AcDbArc
 50
300.530714214163
 51
304.801070007158
  0
ARC
  5
317
100
AcDbEntity
  8
SEMA2D
100
AcDbCircle
370
9
 62
0
 48
0
  6
_SOLID
 10
0.560328680739357
 20
1.23801073019544
 30
0
 40
0.00193773619999994
100
AcDbArc
 50
297.065593770427
 51
300.532079825819
  0
ARC
  5
318
100
AcDbEntity
  8
SEMA2D
100
AcDbCircle
370
9
 62
0
 48
0
  6
_SOLID
 10
0.560331590735436
 20
1.23800826157842
 30
0
 40
0.00193408030000001
100
AcDbArc
 50
304.792915814961
 51
312.380665702993
  0
ARC
  5
319
100
AcDbEntity
  8
SEMA2D
100
AcDbCircle
370
9
 62
0
 48
0
  6
_SOLID
 10
0.560330821210987
 20
1.23800659892868
 30
0
 40
0.00193308340000005
100
AcDbArc
 50
296.84316005087
 51
297.064815281734
  0
ARC
  5
31A
100
AcDbEntity
  8
SEMA2D
100
AcDbCircle
370
9
 62
0
 48
0
  6
_SOLID
 10
0.559407735598882
 20
1.22039484672324
 30
0
 40
0.0019240202
100
AcDbArc
 50
293.004339840175
 51
297.208823906749
  0
ARC
  5
31B
100
AcDbEntity
  8
SEMA2D
100
AcDbCircle
370
9
 62
0
 48
0
  6
_SOLID
 10
0.560335241210909
 20
1.23799762106353
 30
0
 40
0.00192307709999992
100
AcDbArc
 50
293.003258090128
 51
296.846442729502
  0
ARC
  5
31C
100
AcDbEntity
  8
SEMA2D
100
AcDbCircle
370
9
 62
0
 48
0
  6
_SOLID
 10
0.54732108311929
 20
1.25221265227543
 30
0
 40
0.0019214411000001
100
AcDbArc
 50
255.928050259678
 51
293.073948847008
  0
ARC
  5
31D
100
AcDbEntity
  8
SEMA2D
100
AcDbCircle
370
9
 62
0
 48
0
  6
_SOLID
 10
0.560345609195698
 20
1.23799113711553
 30
0
 40
0.00191202800000001
100
AcDbArc
 50
318.500846261517
 51
321.562800724366
  0
ARC
  5
31E
100
AcDbEntity
  8
SEMA2D
100
AcDbCircle
370
9
 62
0
 48
0
  6
_SOLID
 10
0.560347479401659
 20
1.23798951110313
 30
0
 40
0.00190954990000002
100
AcDbArc
 50
317.164989486737
 51
319.601279439701
  0
ARC
  5
31F
100
AcDbEntity
  8
SEMA2D
100
AcDbCircle
370
9
 62
0
 48
0
  6
_SOLID
 10
0.56034928610052
 20
1.23798787551532
 30
0
 40
0.00190711300000007
100
AcDbArc
 50
316.846002427936
 51
318.501039552051
  0
ARC
  5
320
100
AcDbEntity
  8
SEMA2D
100
AcDbCircle
370
9
 62
0
 48
0
  6
_SOLID
 10
0.547318011152093
 20
1.25219609091439
 30
0
 40
0.00190463009999996
100
AcDbArc
 50
255.896555147919
 51
256.121748724584
  0
ARC
  5
321
100
AcDbEntity
  8
SEMA2D
100
AcDbCircle
370
9
 62
0
 48
0
  6
_SOLID
 10
0.560353544970663
 20
1.23798391266075
 30
0
 40
0.00190129590000013
100
AcDbArc
 50
312.386549736786
 51
316.84566253425
  0
ARC
  5
322
100
AcDbEntity
  8
SEMA2D
100
AcDbCircle
370
9
 62
0
 48
0
  6
_SOLID
 10
0.559454901778068
 20
1.22036902002011
 30
0
 40
0.00187121139999997
100
AcDbArc
 50
347.838290350707
 51
352.102908281629
  0
LINE
  5
323
100
AcDbEntity
  8
SEMA2D
100
AcDbLine
370
9
 62
9
 48
0
  6
_SOLID
 10
0.209746117609382
 20
1.09894626862273
 30
0
 11
0.210861675725853
 21
1.09953358793964
 31
0
  0
LINE
  5
324
100
AcDbEntity
  8
SEMA2D
100
AcDbLine
370
9
 62
9
 48
0
  6
_SOLID
 10
0.556200073837875
 20
1.24909730527217
 30
0
 11
0.554344487725453
 21
1.25310653491441
 31
0
  0
LINE
  5
325
100
AcDbEntity
  8
SEMA2D
100
AcDbLine
370
9
 62
0
 48
0
  6
_SOLID
 10
0.422947042344147
 20
1.20392546419906
 30
0
 11
0.424128532129255
 21
1.20139175117839
 31
0
  0
LINE
  5
326
100
AcDbEntity
  8
SEMA2D
100
AcDbLine
370
9
 62
0
 48
0
  6
_SOLID
 10
0.422300263917827
 20
1.20743506863062
 30
0
 11
0.423592786642411
 21
1.20422657971055
 31
0
  0
LINE
  5
327
100
AcDbEntity
  8
SEMA2D
100
AcDbLine
370
9
 62
0
 48
0
  6
_SOLID
 10
0.425420020725782
 20
1.20199398220137
 30
0
 11
0.4267828353891
 21
1.19943717162437
 31
0
  0
LINE
  5
328
100
AcDbEntity
  8
SEMA2D
100
AcDbLine
370
9
 62
9
 48
0
  6
_SOLID
 10
0.42783400512432
 20
1.19992736549961
 30
0
 11
0.426490022743867
 21
1.20249293233664
 31
0
  0
LINE
  5
329
100
AcDbEntity
  8
SEMA2D
100
AcDbLine
370
9
 62
9
 48
0
  6
_SOLID
 10
0.425372047951368
 20
1.20197161212928
 30
0
 11
0.424190558166261
 21
1.20450532514995
 31
0
  0
LINE
  5
32A
100
AcDbEntity
  8
SEMA2D
100
AcDbLine
370
9
 62
9
 48
0
  6
_SOLID
 10
0.424749545607825
 20
1.20476598527477
 30
0
 11
0.423393733531783
 21
1.20806335069512
 31
0
  0
LINE
  5
32B
100
AcDbEntity
  8
SEMA2D
100
AcDbLine
370
9
 62
9
 48
0
  6
_SOLID
 10
0.467670812481614
 20
1.21850357384677
 30
0
 11
0.46632683010116
 21
1.2210691406838
 31
0
  0
LINE
  5
32C
100
AcDbEntity
  8
SEMA2D
100
AcDbLine
370
9
 62
9
 48
0
  6
_SOLID
 10
0.465208855308662
 20
1.22054782047643
 30
0
 11
0.464027365523554
 21
1.2230815334971
 31
0
  0
LINE
  5
32D
100
AcDbEntity
  8
SEMA2D
100
AcDbLine
370
9
 62
9
 48
0
  6
_SOLID
 10
0.464586352965119
 20
1.22334219362192
 30
0
 11
0.462118648699435
 21
1.22934352726436
 31
0
  0
LINE
  5
32E
100
AcDbEntity
  8
SEMA2D
100
AcDbLine
370
9
 62
9
 48
0
  6
_SOLID
 10
0.475190157403506
 20
1.22006109348911
 30
0
 11
0.469376566119507
 21
1.23252838023066
 31
0
  0
LINE
  5
32F
100
AcDbEntity
  8
SEMA2D
100
AcDbLine
370
9
 62
0
 48
0
  6
_SOLID
 10
0.428202072482463
 20
1.21655490771281
 30
0
 11
0.427685874968791
 21
1.21572841509446
 31
0
  0
LINE
  5
330
100
AcDbEntity
  8
SEMA2D
100
AcDbLine
370
9
 62
0
 48
0
  6
_SOLID
 10
0.427688041697398
 20
1.21573172180673
 30
0
 11
0.427287095556337
 21
1.21515204195767
 31
0
  0
LINE
  5
331
100
AcDbEntity
  8
SEMA2D
100
AcDbLine
370
9
 62
0
 48
0
  6
_SOLID
 10
0.4284368668306
 20
1.216888586275
 30
0
 11
0.428202072482463
 21
1.21655490771281
 31
0
  0
LINE
  5
332
100
AcDbEntity
  8
SEMA2D
100
AcDbLine
370
9
 62
0
 48
0
  6
_SOLID
 10
0.462022425473246
 20
1.23258684134535
 30
0
 11
0.461508085891084
 21
1.2317125752169
 31
0
  0
LINE
  5
333
100
AcDbEntity
  8
SEMA2D
100
AcDbLine
370
9
 62
0
 48
0
  6
_SOLID
 10
0.461508085891084
 20
1.2317125752169
 30
0
 11
0.461101694995988
 21
1.23109386066794
 31
0
  0
LINE
  5
334
100
AcDbEntity
  8
SEMA2D
100
AcDbLine
370
9
 62
0
 48
0
  6
_SOLID
 10
0.461101694995988
 20
1.23109386066794
 30
0
 11
0.460673414273191
 21
1.23051175935296
 31
0
  0
LINE
  5
335
100
AcDbEntity
  8
SEMA2D
100
AcDbLine
370
9
 62
0
 48
0
  6
_SOLID
 10
0.460673414273191
 20
1.23051175935296
 30
0
 11
0.460221235306484
 21
1.22996469311785
 31
0
  0
LINE
  5
336
100
AcDbEntity
  8
SEMA2D
100
AcDbLine
370
9
 62
0
 48
0
  6
_SOLID
 10
0.460221235306484
 20
1.22996469311785
 30
0
 11
0.459742898121774
 21
1.2294519599866
 31
0
  0
LINE
  5
337
100
AcDbEntity
  8
SEMA2D
100
AcDbLine
370
9
 62
0
 48
0
  6
_SOLID
 10
0.459742898121774
 20
1.2294519599866
 30
0
 11
0.459239013236412
 21
1.22897668661862
 31
0
  0
LINE
  5
338
100
AcDbEntity
  8
SEMA2D
100
AcDbLine
370
9
 62
0
 48
0
  6
_SOLID
 10
0.459239013236412
 20
1.22897668661862
 30
0
 11
0.458711106037214
 21
1.22854281588673
 31
0
  0
LINE
  5
339
100
AcDbEntity
  8
SEMA2D
100
AcDbLine
370
9
 62
0
 48
0
  6
_SOLID
 10
0.458711106037214
 20
1.22854281588673
 30
0
 11
0.458153457156427
 21
1.22814875417197
 31
0
  0
LINE
  5
33A
100
AcDbEntity
  8
SEMA2D
100
AcDbLine
370
9
 62
0
 48
0
  6
_SOLID
 10
0.458153457156427
 20
1.22814875417197
 30
0
 11
0.457558953302781
 21
1.22779431367193
 31
0
  0
LINE
  5
33B
100
AcDbEntity
  8
SEMA2D
100
AcDbLine
370
9
 62
0
 48
0
  6
_SOLID
 10
0.457558953302781
 20
1.22779431367193
 30
0
 11
0.457094414036483
 21
1.22756027256551
 31
0
  0
LINE
  5
33C
100
AcDbEntity
  8
SEMA2D
100
AcDbLine
370
9
 62
0
 48
0
  6
_SOLID
 10
0.444496193096469
 20
1.22356270641137
 30
0
 11
0.444100238033176
 21
1.22299086045794
 31
0
  0
LINE
  5
33D
100
AcDbEntity
  8
SEMA2D
100
AcDbLine
370
9
 62
0
 48
0
  6
_SOLID
 10
0.444100238033176
 20
1.22299086045794
 30
0
 11
0.443684877348948
 21
1.22245280780371
 31
0
  0
LINE
  5
33E
100
AcDbEntity
  8
SEMA2D
100
AcDbLine
370
9
 62
0
 48
0
  6
_SOLID
 10
0.443684877348948
 20
1.22245280780371
 30
0
 11
0.443248445870976
 21
1.22194723440012
 31
0
  0
LINE
  5
33F
100
AcDbEntity
  8
SEMA2D
100
AcDbLine
370
9
 62
0
 48
0
  6
_SOLID
 10
0.443248445870976
 20
1.22194723440012
 30
0
 11
0.4427892123285
 21
1.22147364255021
 31
0
  0
LINE
  5
340
100
AcDbEntity
  8
SEMA2D
100
AcDbLine
370
9
 62
0
 48
0
  6
_SOLID
 10
0.4427892123285
 20
1.22147364255021
 30
0
 11
0.442307386979605
 21
1.22103430461545
 31
0
  0
LINE
  5
341
100
AcDbEntity
  8
SEMA2D
100
AcDbLine
370
9
 62
0
 48
0
  6
_SOLID
 10
0.442307386979605
 20
1.22103430461545
 30
0
 11
0.441804143322032
 21
1.22063238479858
 31
0
  0
LINE
  5
342
100
AcDbEntity
  8
SEMA2D
100
AcDbLine
370
9
 62
0
 48
0
  6
_SOLID
 10
0.441804143322032
 20
1.22063238479858
 30
0
 11
0.441274046898299
 21
1.22026616734585
 31
0
  0
LINE
  5
343
100
AcDbEntity
  8
SEMA2D
100
AcDbLine
370
9
 62
0
 48
0
  6
_SOLID
 10
0.441274046898299
 20
1.22026616734585
 30
0
 11
0.440710331777204
 21
1.21993516367482
 31
0
  0
LINE
  5
344
100
AcDbEntity
  8
SEMA2D
100
AcDbLine
370
9
 62
0
 48
0
  6
_SOLID
 10
0.440710331777204
 20
1.21993516367482
 30
0
 11
0.44028025087939
 21
1.21971969940955
 31
0
  0
LINE
  5
345
100
AcDbEntity
  8
SEMA2D
100
AcDbLine
370
9
 62
0
 48
0
  6
_SOLID
 10
0.427289363754363
 20
1.21515514739486
 30
0
 11
0.426858985034959
 21
1.21459818207524
 31
0
  0
LINE
  5
346
100
AcDbEntity
  8
SEMA2D
100
AcDbLine
370
9
 62
0
 48
0
  6
_SOLID
 10
0.428682701524643
 20
1.21719604554552
 30
0
 11
0.428433103198966
 21
1.21688356923827
 31
0
  0
LINE
  5
347
100
AcDbEntity
  8
SEMA2D
100
AcDbLine
370
9
 62
0
 48
0
  6
_SOLID
 10
0.46269407658462
 20
1.23353815439541
 30
0
 11
0.462455468346178
 21
1.23322873214066
 31
0
  0
LINE
  5
348
100
AcDbEntity
  8
SEMA2D
100
AcDbLine
370
9
 62
0
 48
0
  6
_SOLID
 10
0.462455468346178
 20
1.23322873214066
 30
0
 11
0.462230670377703
 21
1.23291079332252
 31
0
  0
LINE
  5
349
100
AcDbEntity
  8
SEMA2D
100
AcDbLine
370
9
 62
0
 48
0
  6
_SOLID
 10
0.462230670377703
 20
1.23291079332252
 30
0
 11
0.462022425473246
 21
1.23258684134535
 31
0
  0
LINE
  5
34A
100
AcDbEntity
  8
SEMA2D
100
AcDbLine
370
9
 62
0
 48
0
  6
_SOLID
 10
0.426861360320534
 20
1.21460108554699
 30
0
 11
0.42640542058553
 21
1.21407545334447
 31
0
  0
LINE
  5
34B
100
AcDbEntity
  8
SEMA2D
100
AcDbLine
370
9
 62
0
 48
0
  6
_SOLID
 10
0.42894242682062
 20
1.21748292629049
 30
0
 11
0.428679054509938
 21
1.21719175661071
 31
0
  0
LINE
  5
34C
100
AcDbEntity
  8
SEMA2D
100
AcDbLine
370
9
 62
0
 48
0
  6
_SOLID
 10
0.42640789128781
 20
1.21407813705075
 30
0
 11
0.425929239374543
 21
1.21358905183499
 31
0
  0
LINE
  5
34D
100
AcDbEntity
  8
SEMA2D
100
AcDbLine
370
9
 62
0
 48
0
  6
_SOLID
 10
0.462945457433997
 20
1.23383899605373
 30
0
 11
0.46269407658462
 21
1.23353815439541
 31
0
  0
LINE
  5
34E
100
AcDbEntity
  8
SEMA2D
100
AcDbLine
370
9
 62
0
 48
0
  6
_SOLID
 10
0.463152289023846
 20
1.23407059872777
 30
0
 11
0.462942939539989
 21
1.23383617669366
 31
0
  0
LINE
  5
34F
100
AcDbEntity
  8
SEMA2D
100
AcDbLine
370
9
 62
0
 48
0
  6
_SOLID
 10
0.429214698424891
 20
1.21774871254497
 30
0
 11
0.42893893769554
 21
1.21747930084666
 31
0
  0
LINE
  5
350
100
AcDbEntity
  8
SEMA2D
100
AcDbLine
370
9
 62
0
 48
0
  6
_SOLID
 10
0.425931773580504
 20
1.21359148412317
 30
0
 11
0.425434765365364
 21
1.21314431015672
 31
0
  0
LINE
  5
351
100
AcDbEntity
  8
SEMA2D
100
AcDbLine
370
9
 62
0
 48
0
  6
_SOLID
 10
0.429499173922216
 20
1.21799383858643
 30
0
 11
0.42921140515252
 21
1.21774568929273
 31
0
  0
LINE
  5
352
100
AcDbEntity
  8
SEMA2D
100
AcDbLine
370
9
 62
0
 48
0
  6
_SOLID
 10
0.425437335340525
 20
1.2131464731288
 30
0
 11
0.424928313493272
 21
1.21274640680094
 31
0
  0
LINE
  5
353
100
AcDbEntity
  8
SEMA2D
100
AcDbLine
370
9
 62
0
 48
0
  6
_SOLID
 10
0.424928313493272
 20
1.21274640680094
 30
0
 11
0.424439481268473
 21
1.21241266507494
 31
0
  0
LINE
  5
354
100
AcDbEntity
  8
SEMA2D
100
AcDbLine
370
9
 62
0
 48
0
  6
_SOLID
 10
0.429795430422912
 20
1.21821849505553
 30
0
 11
0.42949610971204
 21
1.21799135908531
 31
0
  0
LINE
  5
355
100
AcDbEntity
  8
SEMA2D
100
AcDbLine
370
9
 62
0
 48
0
  6
_SOLID
 10
0.423746966492509
 20
1.21196299599268
 30
0
 11
0.423560538734733
 21
1.21183146388334
 31
0
  0
LINE
  5
356
100
AcDbEntity
  8
SEMA2D
100
AcDbLine
370
9
 62
0
 48
0
  6
_SOLID
 10
0.423560538734733
 20
1.21183146388334
 30
0
 11
0.423382150155293
 21
1.21168929245637
 31
0
  0
LINE
  5
357
100
AcDbEntity
  8
SEMA2D
100
AcDbLine
370
9
 62
0
 48
0
  6
_SOLID
 10
0.423382150155293
 20
1.21168929245637
 30
0
 11
0.423212432145534
 21
1.2115369910724
 31
0
  0
LINE
  5
358
100
AcDbEntity
  8
SEMA2D
100
AcDbLine
370
9
 62
0
 48
0
  6
_SOLID
 10
0.423212432145534
 20
1.2115369910724
 30
0
 11
0.423052063678685
 21
1.21137511423012
 31
0
  0
LINE
  5
359
100
AcDbEntity
  8
SEMA2D
100
AcDbLine
370
9
 62
0
 48
0
  6
_SOLID
 10
0.423052063678685
 20
1.21137511423012
 30
0
 11
0.422901696737349
 21
1.21120420119419
 31
0
  0
LINE
  5
35A
100
AcDbEntity
  8
SEMA2D
100
AcDbLine
370
9
 62
0
 48
0
  6
_SOLID
 10
0.422901696737349
 20
1.21120420119419
 30
0
 11
0.422762014183319
 21
1.21102484071588
 31
0
  0
LINE
  5
35B
100
AcDbEntity
  8
SEMA2D
100
AcDbLine
370
9
 62
0
 48
0
  6
_SOLID
 10
0.422762014183319
 20
1.21102484071588
 30
0
 11
0.422633634828793
 21
1.21083764011794
 31
0
  0
LINE
  5
35C
100
AcDbEntity
  8
SEMA2D
100
AcDbLine
370
9
 62
0
 48
0
  6
_SOLID
 10
0.422633634828793
 20
1.21083764011794
 30
0
 11
0.422516957762674
 21
1.21064339776298
 31
0
  0
LINE
  5
35D
100
AcDbEntity
  8
SEMA2D
100
AcDbLine
370
9
 62
0
 48
0
  6
_SOLID
 10
0.422516957762674
 20
1.21064339776298
 30
0
 11
0.422412286511363
 21
1.21044298562388
 31
0
  0
LINE
  5
35E
100
AcDbEntity
  8
SEMA2D
100
AcDbLine
370
9
 62
0
 48
0
  6
_SOLID
 10
0.422412286511363
 20
1.21044298562388
 30
0
 11
0.422319877251212
 21
1.21023721773403
 31
0
  0
LINE
  5
35F
100
AcDbEntity
  8
SEMA2D
100
AcDbLine
370
9
 62
0
 48
0
  6
_SOLID
 10
0.422319877251212
 20
1.21023721773403
 30
0
 11
0.422239995015947
 21
1.21002695230971
 31
0
  0
LINE
  5
360
100
AcDbEntity
  8
SEMA2D
100
AcDbLine
370
9
 62
0
 48
0
  6
_SOLID
 10
0.422239995015947
 20
1.21002695230971
 30
0
 11
0.422172848296714
 21
1.20981291516632
 31
0
  0
LINE
  5
361
100
AcDbEntity
  8
SEMA2D
100
AcDbLine
370
9
 62
0
 48
0
  6
_SOLID
 10
0.422172848296714
 20
1.20981291516632
 30
0
 11
0.422118664682098
 21
1.20959585647187
 31
0
  0
LINE
  5
362
100
AcDbEntity
  8
SEMA2D
100
AcDbLine
370
9
 62
0
 48
0
  6
_SOLID
 10
0.422118664682098
 20
1.20959585647187
 30
0
 11
0.42207767322935
 21
1.2093765081011
 31
0
  0
LINE
  5
363
100
AcDbEntity
  8
SEMA2D
100
AcDbLine
370
9
 62
0
 48
0
  6
_SOLID
 10
0.42207767322935
 20
1.2093765081011
 30
0
 11
0.422050106666641
 21
1.20915557418033
 31
0
  0
LINE
  5
364
100
AcDbEntity
  8
SEMA2D
100
AcDbLine
370
9
 62
0
 48
0
  6
_SOLID
 10
0.422050106666641
 20
1.20915557418033
 30
0
 11
0.422036100915481
 21
1.20893385404388
 31
0
  0
LINE
  5
365
100
AcDbEntity
  8
SEMA2D
100
AcDbLine
370
9
 62
0
 48
0
  6
_SOLID
 10
0.422036100915481
 20
1.20893385404388
 30
0
 11
0.42203552268069
 21
1.20871214109442
 31
0
  0
LINE
  5
366
100
AcDbEntity
  8
SEMA2D
100
AcDbLine
370
9
 62
0
 48
0
  6
_SOLID
 10
0.42203552268069
 20
1.20871214109442
 30
0
 11
0.422048199472818
 21
1.20849121222344
 31
0
  0
LINE
  5
367
100
AcDbEntity
  8
SEMA2D
100
AcDbLine
370
9
 62
0
 48
0
  6
_SOLID
 10
0.422048199472818
 20
1.20849121222344
 30
0
 11
0.422073957088001
 21
1.20827184870887
 31
0
  0
LINE
  5
368
100
AcDbEntity
  8
SEMA2D
100
AcDbLine
370
9
 62
0
 48
0
  6
_SOLID
 10
0.422073957088001
 20
1.20827184870887
 30
0
 11
0.422112624508145
 21
1.20805479778542
 31
0
  0
LINE
  5
369
100
AcDbEntity
  8
SEMA2D
100
AcDbLine
370
9
 62
0
 48
0
  6
_SOLID
 10
0.422112624508145
 20
1.20805479778542
 30
0
 11
0.422164035412811
 21
1.20784079850657
 31
0
  0
LINE
  5
36A
100
AcDbEntity
  8
SEMA2D
100
AcDbLine
370
9
 62
0
 48
0
  6
_SOLID
 10
0.422164035412811
 20
1.20784079850657
 30
0
 11
0.422228015552948
 21
1.20763062230913
 31
0
  0
LINE
  5
36B
100
AcDbEntity
  8
SEMA2D
100
AcDbLine
370
9
 62
0
 48
0
  6
_SOLID
 10
0.422228015552948
 20
1.20763062230913
 30
0
 11
0.422300317340642
 21
1.20743509012162
 31
0
  0
LINE
  5
36C
100
AcDbEntity
  8
SEMA2D
100
AcDbLine
370
9
 62
0
 48
0
  6
_SOLID
 10
0.430102529388257
 20
1.21842252224537
 30
0
 11
0.429792621862749
 21
1.21821649921169
 31
0
  0
LINE
  5
36D
100
AcDbEntity
  8
SEMA2D
100
AcDbLine
370
9
 62
0
 48
0
  6
_SOLID
 10
0.423925912433234
 20
1.21208096344694
 30
0
 11
0.423746966492509
 21
1.21196299599268
 31
0
  0
LINE
  5
36E
100
AcDbEntity
  8
SEMA2D
100
AcDbLine
370
9
 62
0
 48
0
  6
_SOLID
 10
0.424100605430773
 20
1.21219488771465
 30
0
 11
0.423925912433234
 21
1.21208096344694
 31
0
  0
LINE
  5
36F
100
AcDbEntity
  8
SEMA2D
100
AcDbLine
370
9
 62
0
 48
0
  6
_SOLID
 10
0.424333747985049
 20
1.21234503240387
 30
0
 11
0.424100605430773
 21
1.21219488771465
 31
0
  0
LINE
  5
370
100
AcDbEntity
  8
SEMA2D
100
AcDbLine
370
9
 62
0
 48
0
  6
_SOLID
 10
0.430419766404727
 20
1.21860587547132
 30
0
 11
0.430100009284761
 21
1.21842095816109
 31
0
  0
LINE
  5
371
100
AcDbEntity
  8
SEMA2D
100
AcDbLine
370
9
 62
0
 48
0
  6
_SOLID
 10
0.464783275555374
 20
1.23525803086536
 30
0
 11
0.464502297525028
 21
1.23511514204919
 31
0
  0
LINE
  5
372
100
AcDbEntity
  8
SEMA2D
100
AcDbLine
370
9
 62
0
 48
0
  6
_SOLID
 10
0.464502297525028
 20
1.23511514204919
 30
0
 11
0.464229167417704
 21
1.23495664758049
 31
0
  0
LINE
  5
373
100
AcDbEntity
  8
SEMA2D
100
AcDbLine
370
9
 62
0
 48
0
  6
_SOLID
 10
0.464229167417704
 20
1.23495664758049
 30
0
 11
0.463966087422029
 21
1.23478295856146
 31
0
  0
LINE
  5
374
100
AcDbEntity
  8
SEMA2D
100
AcDbLine
370
9
 62
0
 48
0
  6
_SOLID
 10
0.463966087422029
 20
1.23478295856146
 30
0
 11
0.463714173138793
 21
1.23459411148441
 31
0
  0
LINE
  5
375
100
AcDbEntity
  8
SEMA2D
100
AcDbLine
370
9
 62
0
 48
0
  6
_SOLID
 10
0.463714173138793
 20
1.23459411148441
 30
0
 11
0.463476359535432
 21
1.23439198183895
 31
0
  0
LINE
  5
376
100
AcDbEntity
  8
SEMA2D
100
AcDbLine
370
9
 62
0
 48
0
  6
_SOLID
 10
0.463476359535432
 20
1.23439198183895
 30
0
 11
0.463255135636097
 21
1.23417912649052
 31
0
  0
LINE
  5
377
100
AcDbEntity
  8
SEMA2D
100
AcDbLine
370
9
 62
0
 48
0
  6
_SOLID
 10
0.430715373757334
 20
1.21875404264746
 30
0
 11
0.430417574266098
 21
1.21860469746333
 31
0
  0
LINE
  5
378
100
AcDbEntity
  8
SEMA2D
100
AcDbLine
370
9
 62
0
 48
0
  6
_SOLID
 10
0.447529934100762
 20
1.22659480090411
 30
0
 11
0.447232134518894
 21
1.22644545567772
 31
0
  0
LINE
  5
379
100
AcDbEntity
  8
SEMA2D
100
AcDbLine
370
9
 62
0
 48
0
  6
_SOLID
 10
0.447232134518894
 20
1.22644545567772
 30
0
 11
0.446914569628188
 21
1.22626171641774
 31
0
  0
LINE
  5
37A
100
AcDbEntity
  8
SEMA2D
100
AcDbLine
370
9
 62
0
 48
0
  6
_SOLID
 10
0.446914569628188
 20
1.22626171641774
 30
0
 11
0.446607182206176
 21
1.22605725746834
 31
0
  0
LINE
  5
37B
100
AcDbEntity
  8
SEMA2D
100
AcDbLine
370
9
 62
0
 48
0
  6
_SOLID
 10
0.446607182206176
 20
1.22605725746834
 30
0
 11
0.446310670055467
 21
1.22583211734196
 31
0
  0
LINE
  5
37C
100
AcDbEntity
  8
SEMA2D
100
AcDbLine
370
9
 62
0
 48
0
  6
_SOLID
 10
0.446310670055467
 20
1.22583211734196
 30
0
 11
0.446025965495947
 21
1.22558644754938
 31
0
  0
LINE
  5
37D
100
AcDbEntity
  8
SEMA2D
100
AcDbLine
370
9
 62
0
 48
0
  6
_SOLID
 10
0.446025965495947
 20
1.22558644754938
 30
0
 11
0.445753498129599
 21
1.22532005914557
 31
0
  0
LINE
  5
37E
100
AcDbEntity
  8
SEMA2D
100
AcDbLine
370
9
 62
0
 48
0
  6
_SOLID
 10
0.445753498129599
 20
1.22532005914557
 30
0
 11
0.445493614943996
 21
1.22503251490962
 31
0
  0
LINE
  5
37F
100
AcDbEntity
  8
SEMA2D
100
AcDbLine
370
9
 62
0
 48
0
  6
_SOLID
 10
0.445493614943996
 20
1.22503251490962
 30
0
 11
0.445247663633024
 21
1.22472432753718
 31
0
  0
LINE
  5
380
100
AcDbEntity
  8
SEMA2D
100
AcDbLine
370
9
 62
0
 48
0
  6
_SOLID
 10
0.445247663633024
 20
1.22472432753718
 30
0
 11
0.445016632916521
 21
1.22439566601172
 31
0
  0
LINE
  5
381
100
AcDbEntity
  8
SEMA2D
100
AcDbLine
370
9
 62
0
 48
0
  6
_SOLID
 10
0.445016632916521
 20
1.22439566601172
 30
0
 11
0.444496193096469
 21
1.22356270641137
 31
0
  0
LINE
  5
382
100
AcDbEntity
  8
SEMA2D
100
AcDbLine
370
9
 62
0
 48
0
  6
_SOLID
 10
0.761307687908794
 20
1.37353011900689
 30
0
 11
0.464783275555374
 21
1.23525803086536
 31
0
  0
LINE
  5
383
100
AcDbEntity
  8
SEMA2D
100
AcDbLine
370
9
 62
0
 48
0
  6
_SOLID
 10
0.462869353817851
 20
1.23374805511827
 30
0
 11
0.430714982146755
 21
1.21875422536488
 31
0
  0
LINE
  5
384
100
AcDbEntity
  8
SEMA2D
100
AcDbLine
370
9
 62
9
 48
0
  6
_SOLID
 10
0.432153569912216
 20
1.21862404382955
 30
0
 11
0.445254776264677
 21
1.2247332399929
 31
0
  0
LINE
  5
385
100
AcDbEntity
  8
SEMA2D
100
AcDbLine
370
9
 62
9
 48
0
  6
_SOLID
 10
0.448968129856966
 20
1.2264648022313
 30
0
 11
0.461994494543585
 21
1.23253909451854
 31
0
  0
LINE
  5
386
100
AcDbEntity
  8
SEMA2D
100
AcDbLine
370
9
 62
9
 48
0
  6
_SOLID
 10
0.763302063744972
 20
1.36958809070043
 30
0
 11
0.469376566119507
 21
1.23252838023066
 31
0
  0
LINE
  5
387
100
AcDbEntity
  8
SEMA2D
100
AcDbLine
370
9
 62
0
 48
0
  6
_SOLID
 10
0.768635490014602
 20
1.36512263468351
 30
0
 11
0.422947083581152
 21
1.20392548342819
 31
0
  0
LINE
  5
388
100
AcDbEntity
  8
SEMA2D
100
AcDbLine
370
9
 62
0
 48
0
  6
_SOLID
 10
0.769816979799709
 20
1.36258892166284
 30
0
 11
0.424128573366259
 21
1.20139177040752
 31
0
  0
LINE
  5
389
100
AcDbEntity
  8
SEMA2D
100
AcDbLine
370
9
 62
9
 48
0
  6
_SOLID
 10
0.767888487864748
 20
1.35849737499141
 30
0
 11
0.426782824581311
 21
1.19943719196231
 31
0
  0
LINE
  5
38A
100
AcDbEntity
  8
SEMA2D
100
AcDbLine
370
9
 62
0
 48
0
  6
_SOLID
 10
0.768634924817786
 20
1.3568966357799
 30
0
 11
0.429248898267503
 21
1.19863833252871
 31
0
  0
LINE
  5
38B
100
AcDbEntity
  8
SEMA2D
100
AcDbLine
370
9
 62
9
 48
0
  6
_SOLID
 10
0.754158129141341
 20
1.34785971075123
 30
0
 11
0.766613808436539
 21
1.3536678893941
 31
0
  0
LINE
  5
38C
100
AcDbEntity
  8
SEMA2D
100
AcDbLine
370
9
 62
9
 48
0
  6
_SOLID
 10
0.760587659225718
 20
1.33718863618885
 30
0
 11
0.765136586944626
 21
1.33930983602057
 31
0
  0
LINE
  5
38D
100
AcDbEntity
  8
SEMA2D
100
AcDbLine
370
9
 62
0
 48
0
  6
_SOLID
 10
0.76033647598423
 20
1.33554731792349
 30
0
 11
0.768322730964107
 21
1.33927136978059
 31
0
  0
LINE
  5
38E
100
AcDbEntity
  8
SEMA2D
100
AcDbLine
370
9
 62
0
 48
0
  6
_SOLID
 10
0.757989767887637
 20
1.33615236778762
 30
0
 11
0.750149793021782
 21
1.34727019585247
 31
0
  0
LINE
  5
38F
100
AcDbEntity
  8
SEMA2D
100
AcDbLine
370
9
 62
9
 48
0
  6
_SOLID
 10
0.760587659225718
 20
1.33718863618885
 30
0
 11
0.753281422204508
 21
1.34754946321091
 31
0
  0
LINE
  5
390
100
AcDbEntity
  8
SEMA2D
100
AcDbLine
370
9
 62
9
 48
0
  6
_SOLID
 10
0.765136586944626
 20
1.33930983602057
 30
0
 11
0.766613808436539
 21
1.3536678893941
 31
0
  0
LINE
  5
391
100
AcDbEntity
  8
SEMA2D
100
AcDbLine
370
9
 62
0
 48
0
  6
_SOLID
 10
0.769418920901532
 20
1.34079863535823
 30
0
 11
0.770880180244448
 21
1.35500150878332
 31
0
  0
LINE
  5
392
100
AcDbEntity
  8
SEMA2D
100
AcDbLine
370
9
 62
0
 48
0
  6
_SOLID
 10
0.767989745716338
 20
1.36482151917202
 30
0
 11
0.763773749770723
 21
1.37273125416988
 31
0
  0
LINE
  5
393
100
AcDbEntity
  8
SEMA2D
100
AcDbLine
370
9
 62
9
 48
0
  6
_SOLID
 10
0.754158129141341
 20
1.34785971075123
 30
0
 11
0.753282431434622
 21
1.34973765054356
 31
0
  0
LINE
  5
394
100
AcDbEntity
  8
SEMA2D
100
AcDbLine
370
9
 62
9
 48
0
  6
_SOLID
 10
0.760587659225718
 20
1.33718863618885
 30
0
 11
0.76117145771095
 21
1.33593667629708
 31
0
  0
LINE
  5
395
100
AcDbEntity
  8
SEMA2D
100
AcDbLine
370
9
 62
9
 48
0
  6
_SOLID
 10
0.765136586944626
 20
1.33930983602057
 30
0
 11
0.765720385429859
 21
1.3380578761288
 31
0
  0
LINE
  5
396
100
AcDbEntity
  8
SEMA2D
100
AcDbLine
370
9
 62
9
 48
0
  6
_SOLID
 10
0.751701020403641
 20
1.36905045637988
 30
0
 11
0.751307190475272
 21
1.36989502738678
 31
0
  0
LINE
  5
397
100
AcDbEntity
  8
SEMA2D
100
AcDbLine
370
9
 62
9
 48
0
  6
_SOLID
 10
0.751827501455692
 20
1.36910943546307
 30
0
 11
0.751433671527323
 21
1.36995400646996
 31
0
  0
LINE
  5
398
100
AcDbEntity
  8
SEMA2D
100
AcDbLine
370
9
 62
9
 48
0
  6
_SOLID
 10
0.76661381206177
 20
1.35366789108457
 30
0
 11
0.765738114355052
 21
1.3555458308769
 31
0
  0
LINE
  5
399
100
AcDbEntity
  8
SEMA2D
100
AcDbLine
370
9
 62
9
 48
0
  6
_SOLID
 10
0.768634924817786
 20
1.3568966357799
 30
0
 11
0.767888487864748
 21
1.35849737499141
 31
0
  0
LINE
  5
39A
100
AcDbEntity
  8
SEMA2D
100
AcDbLine
370
9
 62
0
 48
0
  6
_SOLID
 10
0.769816979799709
 20
1.36258892166284
 30
0
 11
0.768635490014602
 21
1.36512263468351
 31
0
  0
LINE
  5
39B
100
AcDbEntity
  8
SEMA2D
100
AcDbLine
370
9
 62
9
 48
0
  6
_SOLID
 10
0.766805866342659
 20
1.36118481639824
 30
0
 11
0.767888487864748
 21
1.35849737499141
 31
0
  0
LINE
  5
39C
100
AcDbEntity
  8
SEMA2D
100
AcDbLine
370
9
 62
0
 48
0
  6
_SOLID
 10
0.768525491203182
 20
1.36198669063985
 30
0
 11
0.770634176226832
 21
1.35675220444366
 31
0
  0
ARC
  5
39D
100
AcDbEntity
  8
SEMA2D
100
AcDbCircle
370
9
 62
9
 48
0
  6
_SOLID
 10
0.681029135048366
 20
1.54925412128629
 30
0
 40
0.2133334286
100
AcDbArc
 50
293.816524828806
 51
294.191266365231
  0
ARC
  5
39E
100
AcDbEntity
  8
SEMA2D
100
AcDbCircle
370
9
 62
9
 48
0
  6
_SOLID
 10
0.425998270053852
 20
1.20996022582098
 30
0
 40
0.00290590669999988
100
AcDbArc
 50
122.629149908183
 51
137.759116658635
  0
ARC
  5
39F
100
AcDbEntity
  8
SEMA2D
100
AcDbCircle
370
9
 62
9
 48
0
  6
_SOLID
 10
0.42599045956743
 20
1.20997121849471
 30
0
 40
0.00289243759999995
100
AcDbArc
 50
122.426580826633
 51
122.616263704012
  0
ARC
  5
3A0
100
AcDbEntity
  8
SEMA2D
100
AcDbCircle
370
9
 62
9
 48
0
  6
_SOLID
 10
0.817207301308877
 20
1.28656778173008
 30
0
 40
0.0840364566999999
100
AcDbArc
 50
126.538468276698
 51
127.016300374066
  0
ARC
  5
3A1
100
AcDbEntity
  8
SEMA2D
100
AcDbCircle
370
9
 62
0
 48
0
  6
_SOLID
 10
0.751921834816011
 20
1.36122318335151
 30
0
 40
0.00950144259999998
100
AcDbArc
 50
77.8730577430123
 51
85.4158117365814
  0
ARC
  5
3A2
100
AcDbEntity
  8
SEMA2D
100
AcDbCircle
370
9
 62
0
 48
0
  6
_SOLID
 10
0.751923121318568
 20
1.36123043772973
 30
0
 40
0.00949407989999997
100
AcDbArc
 50
77.8714508150408
 51
80.3992031504735
  0
ARC
  5
3A3
100
AcDbEntity
  8
SEMA2D
100
AcDbCircle
370
9
 62
0
 48
0
  6
_SOLID
 10
0.751780262202938
 20
1.36117371663359
 30
0
 40
0.00948286720000006
100
AcDbArc
 50
150.7683677874
 51
155.85785763025
  0
ARC
  5
3A4
100
AcDbEntity
  8
SEMA2D
100
AcDbCircle
370
9
 62
9
 48
0
  6
_SOLID
 10
0.752113013245374
 20
1.35224502612845
 30
0
 40
0.00483874890000004
100
AcDbArc
 50
283.973271791384
 51
295.002250996479
  0
ARC
  5
3A5
100
AcDbEntity
  8
SEMA2D
100
AcDbCircle
370
9
 62
0
 48
0
  6
_SOLID
 10
0.76722678031638
 20
1.35538096163353
 30
0
 40
0.00367285089999996
100
AcDbArc
 50
354.070352108694
 51
18.4462787530886
  0
ARC
  5
3A6
100
AcDbEntity
  8
SEMA2D
100
AcDbCircle
370
9
 62
0
 48
0
  6
_SOLID
 10
0.767234045946852
 20
1.3553848093199
 30
0
 40
0.00366474139999996
100
AcDbArc
 50
18.42515632975
 51
19.9271128516091
  0
ARC
  5
3A7
100
AcDbEntity
  8
SEMA2D
100
AcDbCircle
370
9
 62
0
 48
0
  6
_SOLID
 10
0.76724705019127
 20
1.35538955012786
 30
0
 40
0.0036509
100
AcDbArc
 50
19.9267237501524
 51
21.9151206646288
  0
ARC
  5
3A8
100
AcDbEntity
  8
SEMA2D
100
AcDbCircle
370
9
 62
9
 48
0
  6
_SOLID
 10
0.767421440136628
 20
1.35533906658896
 30
0
 40
0.00347514390000007
100
AcDbArc
 50
354.425656753335
 51
21.687169142015
  0
ARC
  5
3A9
100
AcDbEntity
  8
SEMA2D
100
AcDbCircle
370
9
 62
9
 48
0
  6
_SOLID
 10
0.767489466156426
 20
1.3553361857114
 30
0
 40
0.00340716179999991
100
AcDbArc
 50
354.125827897615
 51
354.362754560976
  0
ARC
  5
3AA
100
AcDbEntity
  8
SEMA2D
100
AcDbCircle
370
9
 62
0
 48
0
  6
_SOLID
 10
0.76781163292597
 20
1.35865798146688
 30
0
 40
0.00194432990000005
100
AcDbArc
 50
302.530714214163
 51
306.801070007156
  0
ARC
  5
3AB
100
AcDbEntity
  8
SEMA2D
100
AcDbCircle
370
9
 62
0
 48
0
  6
_SOLID
 10
0.767815071501013
 20
1.35865235556863
 30
0
 40
0.00193773619999998
100
AcDbArc
 50
299.065593770427
 51
302.53207982582
  0
ARC
  5
3AC
100
AcDbEntity
  8
SEMA2D
100
AcDbCircle
370
9
 62
0
 48
0
  6
_SOLID
 10
0.767818065877893
 20
1.35864999001283
 30
0
 40
0.00193408030000003
100
AcDbArc
 50
306.792915814957
 51
314.380665702995
  0
ARC
  5
3AD
100
AcDbEntity
  8
SEMA2D
100
AcDbCircle
370
9
 62
0
 48
0
  6
_SOLID
 10
0.767817354847856
 20
1.35864830151991
 30
0
 40
0.00193308340000005
100
AcDbArc
 50
298.843160050867
 51
299.064815281731
  0
ARC
  5
3AE
100
AcDbEntity
  8
SEMA2D
100
AcDbCircle
370
9
 62
0
 48
0
  6
_SOLID
 10
0.767509472842585
 20
1.34101506269478
 30
0
 40
0.00192402019999996
100
AcDbArc
 50
295.004339840177
 51
299.208823906755
  0
ARC
  5
3AF
100
AcDbEntity
  8
SEMA2D
100
AcDbCircle
370
9
 62
0
 48
0
  6
_SOLID
 10
0.767822085478209
 20
1.35863948337961
 30
0
 40
0.00192307709999991
100
AcDbArc
 50
295.003258090125
 51
298.8464427295
  0
ARC
  5
3B0
100
AcDbEntity
  8
SEMA2D
100
AcDbCircle
370
9
 62
0
 48
0
  6
_SOLID
 10
0.754319757825164
 20
1.37239166761116
 30
0
 40
0.00192144110000007
100
AcDbArc
 50
257.928050259679
 51
295.073948847006
  0
ARC
  5
3B1
100
AcDbEntity
  8
SEMA2D
100
AcDbCircle
370
9
 62
0
 48
0
  6
_SOLID
 10
0.767832673433624
 20
1.35863336521891
 30
0
 40
0.00191202800000001
100
AcDbArc
 50
320.500846261519
 51
323.562800724363
  0
ARC
  5
3B2
100
AcDbEntity
  8
SEMA2D
100
AcDbCircle
370
9
 62
0
 48
0
  6
_SOLID
 10
0.76783459924732
 20
1.35863180546627
 30
0
 40
0.00190954990000004
100
AcDbArc
 50
319.164989486736
 51
321.601279439699
  0
ARC
  5
3B3
100
AcDbEntity
  8
SEMA2D
100
AcDbCircle
370
9
 62
0
 48
0
  6
_SOLID
 10
0.76783646192678
 20
1.3586302339277
 30
0
 40
0.00190711300000004
100
AcDbArc
 50
318.846002427936
 51
320.501039552053
  0
ARC
  5
3B4
100
AcDbEntity
  8
SEMA2D
100
AcDbCircle
370
9
 62
0
 48
0
  6
_SOLID
 10
0.754317265712491
 20
1.37237500912875
 30
0
 40
0.00190463009999996
100
AcDbArc
 50
257.896555147919
 51
258.121748724584
  0
ARC
  5
3B5
100
AcDbEntity
  8
SEMA2D
100
AcDbCircle
370
9
 62
0
 48
0
  6
_SOLID
 10
0.767840856504165
 20
1.35862642211962
 30
0
 40
0.00190129589999999
100
AcDbArc
 50
314.386549736786
 51
318.84566253425
  0
ARC
  5
3B6
100
AcDbEntity
  8
SEMA2D
100
AcDbCircle
370
9
 62
0
 48
0
  6
_SOLID
 10
0.767557511628349
 20
1.3409908978005
 30
0
 40
0.00187121139999997
100
AcDbArc
 50
349.838290350701
 51
354.102908281628
  0
LINE
  5
3B7
100
AcDbEntity
  8
SEMA2D
100
AcDbLine
370
9
 62
9
 48
0
  6
_SOLID
 10
0.422299353514165
 20
1.2074374533026
 30
0
 11
0.423393734914209
 21
1.20806334725726
 31
0
  0
LINE
  5
3B8
100
AcDbEntity
  8
SEMA2D
100
AcDbLine
370
9
 62
9
 48
0
  6
_SOLID
 10
0.763302063744972
 20
1.36958809070043
 30
0
 11
0.761307687908794
 21
1.37353011900689
 31
0
  0
LINE
  5
3B9
100
AcDbEntity
  8
SEMA2D
100
AcDbLine
370
9
 62
0
 48
0
  6
_SOLID
 10
0.630793139244147
 20
1.32392546419906
 30
0
 11
0.631974629029255
 21
1.32139175117839
 31
0
  0
LINE
  5
3BA
100
AcDbEntity
  8
SEMA2D
100
AcDbLine
370
9
 62
0
 48
0
  6
_SOLID
 10
0.630146360817827
 20
1.32743506863062
 30
0
 11
0.631438883542411
 21
1.32422657971055
 31
0
  0
LINE
  5
3BB
100
AcDbEntity
  8
SEMA2D
100
AcDbLine
370
9
 62
0
 48
0
  6
_SOLID
 10
0.633266117625782
 20
1.32199398220137
 30
0
 11
0.6346289322891
 21
1.31943717162437
 31
0
  0
LINE
  5
3BC
100
AcDbEntity
  8
SEMA2D
100
AcDbLine
370
9
 62
9
 48
0
  6
_SOLID
 10
0.63568010202432
 20
1.31992736549961
 30
0
 11
0.634336119643867
 21
1.32249293233664
 31
0
  0
LINE
  5
3BD
100
AcDbEntity
  8
SEMA2D
100
AcDbLine
370
9
 62
9
 48
0
  6
_SOLID
 10
0.633218144851368
 20
1.32197161212928
 30
0
 11
0.632036655066261
 21
1.32450532514995
 31
0
  0
LINE
  5
3BE
100
AcDbEntity
  8
SEMA2D
100
AcDbLine
370
9
 62
9
 48
0
  6
_SOLID
 10
0.632595642507825
 20
1.32476598527477
 30
0
 11
0.631239830431783
 21
1.32806335069512
 31
0
  0
LINE
  5
3BF
100
AcDbEntity
  8
SEMA2D
100
AcDbLine
370
9
 62
9
 48
0
  6
_SOLID
 10
0.675516909381614
 20
1.33850357384677
 30
0
 11
0.67417292700116
 21
1.3410691406838
 31
0
  0
LINE
  5
3C0
100
AcDbEntity
  8
SEMA2D
100
AcDbLine
370
9
 62
9
 48
0
  6
_SOLID
 10
0.673054952208662
 20
1.34054782047643
 30
0
 11
0.671873462423554
 21
1.3430815334971
 31
0
  0
LINE
  5
3C1
100
AcDbEntity
  8
SEMA2D
100
AcDbLine
370
9
 62
9
 48
0
  6
_SOLID
 10
0.672432449865119
 20
1.34334219362192
 30
0
 11
0.669964745599435
 21
1.34934352726436
 31
0
  0
LINE
  5
3C2
100
AcDbEntity
  8
SEMA2D
100
AcDbLine
370
9
 62
9
 48
0
  6
_SOLID
 10
0.683036254303506
 20
1.34006109348911
 30
0
 11
0.677222663019507
 21
1.35252838023066
 31
0
  0
LINE
  5
3C3
100
AcDbEntity
  8
SEMA2D
100
AcDbLine
370
9
 62
0
 48
0
  6
_SOLID
 10
0.636048169382463
 20
1.33655490771281
 30
0
 11
0.635531971868791
 21
1.33572841509446
 31
0
  0
LINE
  5
3C4
100
AcDbEntity
  8
SEMA2D
100
AcDbLine
370
9
 62
0
 48
0
  6
_SOLID
 10
0.635534138597398
 20
1.33573172180673
 30
0
 11
0.635133192456337
 21
1.33515204195767
 31
0
  0
LINE
  5
3C5
100
AcDbEntity
  8
SEMA2D
100
AcDbLine
370
9
 62
0
 48
0
  6
_SOLID
 10
0.6362829637306
 20
1.336888586275
 30
0
 11
0.636048169382463
 21
1.33655490771281
 31
0
  0
LINE
  5
3C6
100
AcDbEntity
  8
SEMA2D
100
AcDbLine
370
9
 62
0
 48
0
  6
_SOLID
 10
0.669868522373246
 20
1.35258684134535
 30
0
 11
0.669354182791084
 21
1.3517125752169
 31
0
  0
LINE
  5
3C7
100
AcDbEntity
  8
SEMA2D
100
AcDbLine
370
9
 62
0
 48
0
  6
_SOLID
 10
0.669354182791084
 20
1.3517125752169
 30
0
 11
0.668947791895988
 21
1.35109386066794
 31
0
  0
LINE
  5
3C8
100
AcDbEntity
  8
SEMA2D
100
AcDbLine
370
9
 62
0
 48
0
  6
_SOLID
 10
0.668947791895988
 20
1.35109386066794
 30
0
 11
0.668519511173191
 21
1.35051175935296
 31
0
  0
LINE
  5
3C9
100
AcDbEntity
  8
SEMA2D
100
AcDbLine
370
9
 62
0
 48
0
  6
_SOLID
 10
0.668519511173191
 20
1.35051175935296
 30
0
 11
0.668067332206484
 21
1.34996469311785
 31
0
  0
LINE
  5
3CA
100
AcDbEntity
  8
SEMA2D
100
AcDbLine
370
9
 62
0
 48
0
  6
_SOLID
 10
0.668067332206484
 20
1.34996469311785
 30
0
 11
0.667588995021774
 21
1.3494519599866
 31
0
  0
LINE
  5
3CB
100
AcDbEntity
  8
SEMA2D
100
AcDbLine
370
9
 62
0
 48
0
  6
_SOLID
 10
0.667588995021774
 20
1.3494519599866
 30
0
 11
0.667085110136412
 21
1.34897668661862
 31
0
  0
LINE
  5
3CC
100
AcDbEntity
  8
SEMA2D
100
AcDbLine
370
9
 62
0
 48
0
  6
_SOLID
 10
0.667085110136412
 20
1.34897668661862
 30
0
 11
0.666557202937214
 21
1.34854281588673
 31
0
  0
LINE
  5
3CD
100
AcDbEntity
  8
SEMA2D
100
AcDbLine
370
9
 62
0
 48
0
  6
_SOLID
 10
0.666557202937214
 20
1.34854281588673
 30
0
 11
0.665999554056427
 21
1.34814875417197
 31
0
  0
LINE
  5
3CE
100
AcDbEntity
  8
SEMA2D
100
AcDbLine
370
9
 62
0
 48
0
  6
_SOLID
 10
0.665999554056427
 20
1.34814875417197
 30
0
 11
0.665405050202781
 21
1.34779431367193
 31
0
  0
LINE
  5
3CF
100
AcDbEntity
  8
SEMA2D
100
AcDbLine
370
9
 62
0
 48
0
  6
_SOLID
 10
0.665405050202781
 20
1.34779431367193
 30
0
 11
0.664940510936483
 21
1.34756027256551
 31
0
  0
LINE
  5
3D0
100
AcDbEntity
  8
SEMA2D
100
AcDbLine
370
9
 62
0
 48
0
  6
_SOLID
 10
0.652342289996469
 20
1.34356270641137
 30
0
 11
0.651946334933176
 21
1.34299086045794
 31
0
  0
LINE
  5
3D1
100
AcDbEntity
  8
SEMA2D
100
AcDbLine
370
9
 62
0
 48
0
  6
_SOLID
 10
0.651946334933176
 20
1.34299086045794
 30
0
 11
0.651530974248948
 21
1.34245280780371
 31
0
  0
LINE
  5
3D2
100
AcDbEntity
  8
SEMA2D
100
AcDbLine
370
9
 62
0
 48
0
  6
_SOLID
 10
0.651530974248948
 20
1.34245280780371
 30
0
 11
0.651094542770976
 21
1.34194723440012
 31
0
  0
LINE
  5
3D3
100
AcDbEntity
  8
SEMA2D
100
AcDbLine
370
9
 62
0
 48
0
  6
_SOLID
 10
0.651094542770976
 20
1.34194723440012
 30
0
 11
0.6506353092285
 21
1.34147364255021
 31
0
  0
LINE
  5
3D4
100
AcDbEntity
  8
SEMA2D
100
AcDbLine
370
9
 62
0
 48
0
  6
_SOLID
 10
0.6506353092285
 20
1.34147364255021
 30
0
 11
0.650153483879605
 21
1.34103430461545
 31
0
  0
LINE
  5
3D5
100
AcDbEntity
  8
SEMA2D
100
AcDbLine
370
9
 62
0
 48
0
  6
_SOLID
 10
0.650153483879605
 20
1.34103430461545
 30
0
 11
0.649650240222032
 21
1.34063238479858
 31
0
  0
LINE
  5
3D6
100
AcDbEntity
  8
SEMA2D
100
AcDbLine
370
9
 62
0
 48
0
  6
_SOLID
 10
0.649650240222032
 20
1.34063238479858
 30
0
 11
0.649120143798299
 21
1.34026616734585
 31
0
  0
LINE
  5
3D7
100
AcDbEntity
  8
SEMA2D
100
AcDbLine
370
9
 62
0
 48
0
  6
_SOLID
 10
0.649120143798299
 20
1.34026616734585
 30
0
 11
0.648556428677204
 21
1.33993516367482
 31
0
  0
LINE
  5
3D8
100
AcDbEntity
  8
SEMA2D
100
AcDbLine
370
9
 62
0
 48
0
  6
_SOLID
 10
0.648556428677204
 20
1.33993516367482
 30
0
 11
0.64812634777939
 21
1.33971969940955
 31
0
  0
LINE
  5
3D9
100
AcDbEntity
  8
SEMA2D
100
AcDbLine
370
9
 62
0
 48
0
  6
_SOLID
 10
0.635135460654363
 20
1.33515514739486
 30
0
 11
0.634705081934959
 21
1.33459818207524
 31
0
  0
LINE
  5
3DA
100
AcDbEntity
  8
SEMA2D
100
AcDbLine
370
9
 62
0
 48
0
  6
_SOLID
 10
0.636528798424643
 20
1.33719604554552
 30
0
 11
0.636279200098966
 21
1.33688356923827
 31
0
  0
LINE
  5
3DB
100
AcDbEntity
  8
SEMA2D
100
AcDbLine
370
9
 62
0
 48
0
  6
_SOLID
 10
0.67054017348462
 20
1.35353815439541
 30
0
 11
0.670301565246178
 21
1.35322873214066
 31
0
  0
LINE
  5
3DC
100
AcDbEntity
  8
SEMA2D
100
AcDbLine
370
9
 62
0
 48
0
  6
_SOLID
 10
0.670301565246178
 20
1.35322873214066
 30
0
 11
0.670076767277703
 21
1.35291079332252
 31
0
  0
LINE
  5
3DD
100
AcDbEntity
  8
SEMA2D
100
AcDbLine
370
9
 62
0
 48
0
  6
_SOLID
 10
0.670076767277703
 20
1.35291079332252
 30
0
 11
0.669868522373246
 21
1.35258684134535
 31
0
  0
LINE
  5
3DE
100
AcDbEntity
  8
SEMA2D
100
AcDbLine
370
9
 62
0
 48
0
  6
_SOLID
 10
0.634707457220534
 20
1.33460108554699
 30
0
 11
0.63425151748553
 21
1.33407545334447
 31
0
  0
LINE
  5
3DF
100
AcDbEntity
  8
SEMA2D
100
AcDbLine
370
9
 62
0
 48
0
  6
_SOLID
 10
0.63678852372062
 20
1.33748292629049
 30
0
 11
0.636525151409938
 21
1.33719175661071
 31
0
  0
LINE
  5
3E0
100
AcDbEntity
  8
SEMA2D
100
AcDbLine
370
9
 62
0
 48
0
  6
_SOLID
 10
0.63425398818781
 20
1.33407813705075
 30
0
 11
0.633775336274543
 21
1.33358905183499
 31
0
  0
LINE
  5
3E1
100
AcDbEntity
  8
SEMA2D
100
AcDbLine
370
9
 62
0
 48
0
  6
_SOLID
 10
0.670791554333997
 20
1.35383899605373
 30
0
 11
0.67054017348462
 21
1.35353815439541
 31
0
  0
LINE
  5
3E2
100
AcDbEntity
  8
SEMA2D
100
AcDbLine
370
9
 62
0
 48
0
  6
_SOLID
 10
0.670998385923846
 20
1.35407059872777
 30
0
 11
0.670789036439989
 21
1.35383617669366
 31
0
  0
LINE
  5
3E3
100
AcDbEntity
  8
SEMA2D
100
AcDbLine
370
9
 62
0
 48
0
  6
_SOLID
 10
0.637060795324891
 20
1.33774871254497
 30
0
 11
0.63678503459554
 21
1.33747930084666
 31
0
  0
LINE
  5
3E4
100
AcDbEntity
  8
SEMA2D
100
AcDbLine
370
9
 62
0
 48
0
  6
_SOLID
 10
0.633777870480504
 20
1.33359148412317
 30
0
 11
0.633280862265364
 21
1.33314431015672
 31
0
  0
LINE
  5
3E5
100
AcDbEntity
  8
SEMA2D
100
AcDbLine
370
9
 62
0
 48
0
  6
_SOLID
 10
0.637345270822216
 20
1.33799383858643
 30
0
 11
0.63705750205252
 21
1.33774568929273
 31
0
  0
LINE
  5
3E6
100
AcDbEntity
  8
SEMA2D
100
AcDbLine
370
9
 62
0
 48
0
  6
_SOLID
 10
0.633283432240525
 20
1.3331464731288
 30
0
 11
0.632774410393272
 21
1.33274640680094
 31
0
  0
LINE
  5
3E7
100
AcDbEntity
  8
SEMA2D
100
AcDbLine
370
9
 62
0
 48
0
  6
_SOLID
 10
0.632774410393272
 20
1.33274640680094
 30
0
 11
0.632285578168473
 21
1.33241266507494
 31
0
  0
LINE
  5
3E8
100
AcDbEntity
  8
SEMA2D
100
AcDbLine
370
9
 62
0
 48
0
  6
_SOLID
 10
0.637641527322912
 20
1.33821849505553
 30
0
 11
0.63734220661204
 21
1.33799135908531
 31
0
  0
LINE
  5
3E9
100
AcDbEntity
  8
SEMA2D
100
AcDbLine
370
9
 62
0
 48
0
  6
_SOLID
 10
0.631593063392509
 20
1.33196299599268
 30
0
 11
0.631406635634733
 21
1.33183146388335
 31
0
  0
LINE
  5
3EA
100
AcDbEntity
  8
SEMA2D
100
AcDbLine
370
9
 62
0
 48
0
  6
_SOLID
 10
0.631406635634733
 20
1.33183146388335
 30
0
 11
0.631228247055293
 21
1.33168929245637
 31
0
  0
LINE
  5
3EB
100
AcDbEntity
  8
SEMA2D
100
AcDbLine
370
9
 62
0
 48
0
  6
_SOLID
 10
0.631228247055293
 20
1.33168929245637
 30
0
 11
0.631058529045534
 21
1.3315369910724
 31
0
  0
LINE
  5
3EC
100
AcDbEntity
  8
SEMA2D
100
AcDbLine
370
9
 62
0
 48
0
  6
_SOLID
 10
0.631058529045534
 20
1.3315369910724
 30
0
 11
0.630898160578685
 21
1.33137511423012
 31
0
  0
LINE
  5
3ED
100
AcDbEntity
  8
SEMA2D
100
AcDbLine
370
9
 62
0
 48
0
  6
_SOLID
 10
0.630898160578685
 20
1.33137511423012
 30
0
 11
0.630747793637349
 21
1.33120420119419
 31
0
  0
LINE
  5
3EE
100
AcDbEntity
  8
SEMA2D
100
AcDbLine
370
9
 62
0
 48
0
  6
_SOLID
 10
0.630747793637349
 20
1.33120420119419
 30
0
 11
0.630608111083319
 21
1.33102484071588
 31
0
  0
LINE
  5
3EF
100
AcDbEntity
  8
SEMA2D
100
AcDbLine
370
9
 62
0
 48
0
  6
_SOLID
 10
0.630608111083319
 20
1.33102484071588
 30
0
 11
0.630479731728793
 21
1.33083764011794
 31
0
  0
LINE
  5
3F0
100
AcDbEntity
  8
SEMA2D
100
AcDbLine
370
9
 62
0
 48
0
  6
_SOLID
 10
0.630479731728793
 20
1.33083764011794
 30
0
 11
0.630363054662674
 21
1.33064339776298
 31
0
  0
LINE
  5
3F1
100
AcDbEntity
  8
SEMA2D
100
AcDbLine
370
9
 62
0
 48
0
  6
_SOLID
 10
0.630363054662674
 20
1.33064339776298
 30
0
 11
0.630258383411364
 21
1.33044298562388
 31
0
  0
LINE
  5
3F2
100
AcDbEntity
  8
SEMA2D
100
AcDbLine
370
9
 62
0
 48
0
  6
_SOLID
 10
0.630258383411364
 20
1.33044298562388
 30
0
 11
0.630165974151212
 21
1.33023721773403
 31
0
  0
LINE
  5
3F3
100
AcDbEntity
  8
SEMA2D
100
AcDbLine
370
9
 62
0
 48
0
  6
_SOLID
 10
0.630165974151212
 20
1.33023721773403
 30
0
 11
0.630086091915947
 21
1.33002695230971
 31
0
  0
LINE
  5
3F4
100
AcDbEntity
  8
SEMA2D
100
AcDbLine
370
9
 62
0
 48
0
  6
_SOLID
 10
0.630086091915947
 20
1.33002695230971
 30
0
 11
0.630018945196714
 21
1.32981291516632
 31
0
  0
LINE
  5
3F5
100
AcDbEntity
  8
SEMA2D
100
AcDbLine
370
9
 62
0
 48
0
  6
_SOLID
 10
0.630018945196714
 20
1.32981291516632
 30
0
 11
0.629964761582098
 21
1.32959585647187
 31
0
  0
LINE
  5
3F6
100
AcDbEntity
  8
SEMA2D
100
AcDbLine
370
9
 62
0
 48
0
  6
_SOLID
 10
0.629964761582098
 20
1.32959585647187
 30
0
 11
0.62992377012935
 21
1.3293765081011
 31
0
  0
LINE
  5
3F7
100
AcDbEntity
  8
SEMA2D
100
AcDbLine
370
9
 62
0
 48
0
  6
_SOLID
 10
0.62992377012935
 20
1.3293765081011
 30
0
 11
0.629896203566641
 21
1.32915557418033
 31
0
  0
LINE
  5
3F8
100
AcDbEntity
  8
SEMA2D
100
AcDbLine
370
9
 62
0
 48
0
  6
_SOLID
 10
0.629896203566641
 20
1.32915557418033
 30
0
 11
0.629882197815481
 21
1.32893385404388
 31
0
  0
LINE
  5
3F9
100
AcDbEntity
  8
SEMA2D
100
AcDbLine
370
9
 62
0
 48
0
  6
_SOLID
 10
0.629882197815481
 20
1.32893385404388
 30
0
 11
0.62988161958069
 21
1.32871214109442
 31
0
  0
LINE
  5
3FA
100
AcDbEntity
  8
SEMA2D
100
AcDbLine
370
9
 62
0
 48
0
  6
_SOLID
 10
0.62988161958069
 20
1.32871214109442
 30
0
 11
0.629894296372818
 21
1.32849121222344
 31
0
  0
LINE
  5
3FB
100
AcDbEntity
  8
SEMA2D
100
AcDbLine
370
9
 62
0
 48
0
  6
_SOLID
 10
0.629894296372818
 20
1.32849121222344
 30
0
 11
0.629920053988001
 21
1.32827184870887
 31
0
  0
LINE
  5
3FC
100
AcDbEntity
  8
SEMA2D
100
AcDbLine
370
9
 62
0
 48
0
  6
_SOLID
 10
0.629920053988001
 20
1.32827184870887
 30
0
 11
0.629958721408145
 21
1.32805479778542
 31
0
  0
LINE
  5
3FD
100
AcDbEntity
  8
SEMA2D
100
AcDbLine
370
9
 62
0
 48
0
  6
_SOLID
 10
0.629958721408145
 20
1.32805479778542
 30
0
 11
0.630010132312811
 21
1.32784079850657
 31
0
  0
LINE
  5
3FE
100
AcDbEntity
  8
SEMA2D
100
AcDbLine
370
9
 62
0
 48
0
  6
_SOLID
 10
0.630010132312811
 20
1.32784079850657
 30
0
 11
0.630074112452948
 21
1.32763062230913
 31
0
  0
LINE
  5
3FF
100
AcDbEntity
  8
SEMA2D
100
AcDbLine
370
9
 62
0
 48
0
  6
_SOLID
 10
0.630074112452948
 20
1.32763062230913
 30
0
 11
0.630146414240642
 21
1.32743509012162
 31
0
  0
LINE
  5
400
100
AcDbEntity
  8
SEMA2D
100
AcDbLine
370
9
 62
0
 48
0
  6
_SOLID
 10
0.637948626288257
 20
1.33842252224537
 30
0
 11
0.637638718762749
 21
1.33821649921169
 31
0
  0
LINE
  5
401
100
AcDbEntity
  8
SEMA2D
100
AcDbLine
370
9
 62
0
 48
0
  6
_SOLID
 10
0.631772009333234
 20
1.33208096344694
 30
0
 11
0.631593063392509
 21
1.33196299599268
 31
0
  0
LINE
  5
402
100
AcDbEntity
  8
SEMA2D
100
AcDbLine
370
9
 62
0
 48
0
  6
_SOLID
 10
0.631946702330773
 20
1.33219488771465
 30
0
 11
0.631772009333234
 21
1.33208096344694
 31
0
  0
LINE
  5
403
100
AcDbEntity
  8
SEMA2D
100
AcDbLine
370
9
 62
0
 48
0
  6
_SOLID
 10
0.632179844885049
 20
1.33234503240387
 30
0
 11
0.631946702330773
 21
1.33219488771465
 31
0
  0
LINE
  5
404
100
AcDbEntity
  8
SEMA2D
100
AcDbLine
370
9
 62
0
 48
0
  6
_SOLID
 10
0.638265863304727
 20
1.33860587547132
 30
0
 11
0.637946106184761
 21
1.33842095816109
 31
0
  0
LINE
  5
405
100
AcDbEntity
  8
SEMA2D
100
AcDbLine
370
9
 62
0
 48
0
  6
_SOLID
 10
0.672629372455374
 20
1.35525803086536
 30
0
 11
0.672348394425028
 21
1.35511514204919
 31
0
  0
LINE
  5
406
100
AcDbEntity
  8
SEMA2D
100
AcDbLine
370
9
 62
0
 48
0
  6
_SOLID
 10
0.672348394425028
 20
1.35511514204919
 30
0
 11
0.672075264317704
 21
1.35495664758049
 31
0
  0
LINE
  5
407
100
AcDbEntity
  8
SEMA2D
100
AcDbLine
370
9
 62
0
 48
0
  6
_SOLID
 10
0.672075264317704
 20
1.35495664758049
 30
0
 11
0.671812184322029
 21
1.35478295856146
 31
0
  0
LINE
  5
408
100
AcDbEntity
  8
SEMA2D
100
AcDbLine
370
9
 62
0
 48
0
  6
_SOLID
 10
0.671812184322029
 20
1.35478295856146
 30
0
 11
0.671560270038793
 21
1.35459411148441
 31
0
  0
LINE
  5
409
100
AcDbEntity
  8
SEMA2D
100
AcDbLine
370
9
 62
0
 48
0
  6
_SOLID
 10
0.671560270038793
 20
1.35459411148441
 30
0
 11
0.671322456435432
 21
1.35439198183895
 31
0
  0
LINE
  5
40A
100
AcDbEntity
  8
SEMA2D
100
AcDbLine
370
9
 62
0
 48
0
  6
_SOLID
 10
0.671322456435432
 20
1.35439198183895
 30
0
 11
0.671101232536097
 21
1.35417912649052
 31
0
  0
LINE
  5
40B
100
AcDbEntity
  8
SEMA2D
100
AcDbLine
370
9
 62
0
 48
0
  6
_SOLID
 10
0.638561470657334
 20
1.33875404264746
 30
0
 11
0.638263671166098
 21
1.33860469746333
 31
0
  0
LINE
  5
40C
100
AcDbEntity
  8
SEMA2D
100
AcDbLine
370
9
 62
0
 48
0
  6
_SOLID
 10
0.655376031000762
 20
1.34659480090411
 30
0
 11
0.655078231418894
 21
1.34644545567772
 31
0
  0
LINE
  5
40D
100
AcDbEntity
  8
SEMA2D
100
AcDbLine
370
9
 62
0
 48
0
  6
_SOLID
 10
0.655078231418894
 20
1.34644545567772
 30
0
 11
0.654760666528189
 21
1.34626171641774
 31
0
  0
LINE
  5
40E
100
AcDbEntity
  8
SEMA2D
100
AcDbLine
370
9
 62
0
 48
0
  6
_SOLID
 10
0.654760666528189
 20
1.34626171641774
 30
0
 11
0.654453279106176
 21
1.34605725746834
 31
0
  0
LINE
  5
40F
100
AcDbEntity
  8
SEMA2D
100
AcDbLine
370
9
 62
0
 48
0
  6
_SOLID
 10
0.654453279106176
 20
1.34605725746834
 30
0
 11
0.654156766955467
 21
1.34583211734196
 31
0
  0
LINE
  5
410
100
AcDbEntity
  8
SEMA2D
100
AcDbLine
370
9
 62
0
 48
0
  6
_SOLID
 10
0.654156766955467
 20
1.34583211734196
 30
0
 11
0.653872062395947
 21
1.34558644754938
 31
0
  0
LINE
  5
411
100
AcDbEntity
  8
SEMA2D
100
AcDbLine
370
9
 62
0
 48
0
  6
_SOLID
 10
0.653872062395947
 20
1.34558644754938
 30
0
 11
0.653599595029599
 21
1.34532005914557
 31
0
  0
LINE
  5
412
100
AcDbEntity
  8
SEMA2D
100
AcDbLine
370
9
 62
0
 48
0
  6
_SOLID
 10
0.653599595029599
 20
1.34532005914557
 30
0
 11
0.653339711843996
 21
1.34503251490962
 31
0
  0
LINE
  5
413
100
AcDbEntity
  8
SEMA2D
100
AcDbLine
370
9
 62
0
 48
0
  6
_SOLID
 10
0.653339711843996
 20
1.34503251490962
 30
0
 11
0.653093760533024
 21
1.34472432753718
 31
0
  0
LINE
  5
414
100
AcDbEntity
  8
SEMA2D
100
AcDbLine
370
9
 62
0
 48
0
  6
_SOLID
 10
0.653093760533024
 20
1.34472432753718
 30
0
 11
0.652862729816521
 21
1.34439566601172
 31
0
  0
LINE
  5
415
100
AcDbEntity
  8
SEMA2D
100
AcDbLine
370
9
 62
0
 48
0
  6
_SOLID
 10
0.652862729816521
 20
1.34439566601172
 30
0
 11
0.652342289996469
 21
1.34356270641137
 31
0
  0
LINE
  5
416
100
AcDbEntity
  8
SEMA2D
100
AcDbLine
370
9
 62
0
 48
0
  6
_SOLID
 10
0.969153784808794
 20
1.49353011900689
 30
0
 11
0.672629372455374
 21
1.35525803086536
 31
0
  0
LINE
  5
417
100
AcDbEntity
  8
SEMA2D
100
AcDbLine
370
9
 62
0
 48
0
  6
_SOLID
 10
0.670715450717851
 20
1.35374805511827
 30
0
 11
0.638561079046755
 21
1.33875422536488
 31
0
  0
LINE
  5
418
100
AcDbEntity
  8
SEMA2D
100
AcDbLine
370
9
 62
9
 48
0
  6
_SOLID
 10
0.639999666812216
 20
1.33862404382955
 30
0
 11
0.653100873164677
 21
1.3447332399929
 31
0
  0
LINE
  5
419
100
AcDbEntity
  8
SEMA2D
100
AcDbLine
370
9
 62
9
 48
0
  6
_SOLID
 10
0.656814226756966
 20
1.3464648022313
 30
0
 11
0.669840591443585
 21
1.35253909451854
 31
0
  0
LINE
  5
41A
100
AcDbEntity
  8
SEMA2D
100
AcDbLine
370
9
 62
9
 48
0
  6
_SOLID
 10
0.971148160644972
 20
1.48958809070043
 30
0
 11
0.677222663019507
 21
1.35252838023066
 31
0
  0
LINE
  5
41B
100
AcDbEntity
  8
SEMA2D
100
AcDbLine
370
9
 62
0
 48
0
  6
_SOLID
 10
0.976481586914602
 20
1.48512263468351
 30
0
 11
0.630793180481152
 21
1.32392548342819
 31
0
  0
LINE
  5
41C
100
AcDbEntity
  8
SEMA2D
100
AcDbLine
370
9
 62
0
 48
0
  6
_SOLID
 10
0.977663076699709
 20
1.48258892166284
 30
0
 11
0.63197467026626
 21
1.32139177040752
 31
0
  0
LINE
  5
41D
100
AcDbEntity
  8
SEMA2D
100
AcDbLine
370
9
 62
9
 48
0
  6
_SOLID
 10
0.975734584764748
 20
1.47849737499141
 30
0
 11
0.634628921481311
 21
1.31943719196231
 31
0
  0
LINE
  5
41E
100
AcDbEntity
  8
SEMA2D
100
AcDbLine
370
9
 62
0
 48
0
  6
_SOLID
 10
0.976481021717786
 20
1.4768966357799
 30
0
 11
0.637094995167503
 21
1.31863833252871
 31
0
  0
LINE
  5
41F
100
AcDbEntity
  8
SEMA2D
100
AcDbLine
370
9
 62
9
 48
0
  6
_SOLID
 10
0.962004226041341
 20
1.46785971075123
 30
0
 11
0.974459905336539
 21
1.4736678893941
 31
0
  0
LINE
  5
420
100
AcDbEntity
  8
SEMA2D
100
AcDbLine
370
9
 62
9
 48
0
  6
_SOLID
 10
0.968433756125718
 20
1.45718863618885
 30
0
 11
0.972982683844626
 21
1.45930983602057
 31
0
  0
LINE
  5
421
100
AcDbEntity
  8
SEMA2D
100
AcDbLine
370
9
 62
0
 48
0
  6
_SOLID
 10
0.96818257288423
 20
1.4555473179235
 30
0
 11
0.976168827864107
 21
1.45927136978059
 31
0
  0
LINE
  5
422
100
AcDbEntity
  8
SEMA2D
100
AcDbLine
370
9
 62
0
 48
0
  6
_SOLID
 10
0.965835864787637
 20
1.45615236778762
 30
0
 11
0.957995889921783
 21
1.46727019585247
 31
0
  0
LINE
  5
423
100
AcDbEntity
  8
SEMA2D
100
AcDbLine
370
9
 62
9
 48
0
  6
_SOLID
 10
0.968433756125718
 20
1.45718863618885
 30
0
 11
0.961127519104508
 21
1.46754946321091
 31
0
  0
LINE
  5
424
100
AcDbEntity
  8
SEMA2D
100
AcDbLine
370
9
 62
9
 48
0
  6
_SOLID
 10
0.972982683844626
 20
1.45930983602057
 30
0
 11
0.974459905336539
 21
1.4736678893941
 31
0
  0
LINE
  5
425
100
AcDbEntity
  8
SEMA2D
100
AcDbLine
370
9
 62
0
 48
0
  6
_SOLID
 10
0.977265017801532
 20
1.46079863535823
 30
0
 11
0.978726277144448
 21
1.47500150878333
 31
0
  0
LINE
  5
426
100
AcDbEntity
  8
SEMA2D
100
AcDbLine
370
9
 62
0
 48
0
  6
_SOLID
 10
0.975835842616338
 20
1.48482151917202
 30
0
 11
0.971619846670723
 21
1.49273125416988
 31
0
  0
LINE
  5
427
100
AcDbEntity
  8
SEMA2D
100
AcDbLine
370
9
 62
9
 48
0
  6
_SOLID
 10
0.962004226041341
 20
1.46785971075123
 30
0
 11
0.961128528334622
 21
1.46973765054356
 31
0
  0
LINE
  5
428
100
AcDbEntity
  8
SEMA2D
100
AcDbLine
370
9
 62
9
 48
0
  6
_SOLID
 10
0.968433756125718
 20
1.45718863618885
 30
0
 11
0.969017554610951
 21
1.45593667629708
 31
0
  0
LINE
  5
429
100
AcDbEntity
  8
SEMA2D
100
AcDbLine
370
9
 62
9
 48
0
  6
_SOLID
 10
0.972982683844626
 20
1.45930983602057
 30
0
 11
0.973566482329859
 21
1.4580578761288
 31
0
  0
LINE
  5
42A
100
AcDbEntity
  8
SEMA2D
100
AcDbLine
370
9
 62
9
 48
0
  6
_SOLID
 10
0.959547117303641
 20
1.48905045637988
 30
0
 11
0.959153287375272
 21
1.48989502738678
 31
0
  0
LINE
  5
42B
100
AcDbEntity
  8
SEMA2D
100
AcDbLine
370
9
 62
9
 48
0
  6
_SOLID
 10
0.959673598355692
 20
1.48910943546307
 30
0
 11
0.959279768427323
 21
1.48995400646996
 31
0
  0
LINE
  5
42C
100
AcDbEntity
  8
SEMA2D
100
AcDbLine
370
9
 62
9
 48
0
  6
_SOLID
 10
0.97445990896177
 20
1.47366789108457
 30
0
 11
0.973584211255052
 21
1.4755458308769
 31
0
  0
LINE
  5
42D
100
AcDbEntity
  8
SEMA2D
100
AcDbLine
370
9
 62
9
 48
0
  6
_SOLID
 10
0.976481021717786
 20
1.4768966357799
 30
0
 11
0.975734584764748
 21
1.47849737499141
 31
0
  0
LINE
  5
42E
100
AcDbEntity
  8
SEMA2D
100
AcDbLine
370
9
 62
0
 48
0
  6
_SOLID
 10
0.977663076699709
 20
1.48258892166284
 30
0
 11
0.976481586914602
 21
1.48512263468351
 31
0
  0
LINE
  5
42F
100
AcDbEntity
  8
SEMA2D
100
AcDbLine
370
9
 62
9
 48
0
  6
_SOLID
 10
0.974651963242659
 20
1.48118481639824
 30
0
 11
0.975734584764748
 21
1.47849737499141
 31
0
  0
LINE
  5
430
100
AcDbEntity
  8
SEMA2D
100
AcDbLine
370
9
 62
0
 48
0
  6
_SOLID
 10
0.976371588103182
 20
1.48198669063985
 30
0
 11
0.978480273126832
 21
1.47675220444366
 31
0
  0
ARC
  5
431
100
AcDbEntity
  8
SEMA2D
100
AcDbCircle
370
9
 62
9
 48
0
  6
_SOLID
 10
0.888875231948366
 20
1.66925412128629
 30
0
 40
0.2133334286
100
AcDbArc
 50
293.816524828806
 51
294.191266365231
  0
ARC
  5
432
100
AcDbEntity
  8
SEMA2D
100
AcDbCircle
370
9
 62
9
 48
0
  6
_SOLID
 10
0.633844366953852
 20
1.32996022582098
 30
0
 40
0.00290590669999995
100
AcDbArc
 50
122.629149908185
 51
137.759116658636
  0
ARC
  5
433
100
AcDbEntity
  8
SEMA2D
100
AcDbCircle
370
9
 62
9
 48
0
  6
_SOLID
 10
0.63383655646743
 20
1.32997121849471
 30
0
 40
0.00289243759999997
100
AcDbArc
 50
122.426580826633
 51
122.616263704012
  0
ARC
  5
434
100
AcDbEntity
  8
SEMA2D
100
AcDbCircle
370
9
 62
9
 48
0
  6
_SOLID
 10
1.02505339820888
 20
1.40656778173008
 30
0
 40
0.0840364567
100
AcDbArc
 50
126.538468276698
 51
127.016300374066
  0
ARC
  5
435
100
AcDbEntity
  8
SEMA2D
100
AcDbCircle
370
9
 62
0
 48
0
  6
_SOLID
 10
0.959767931716012
 20
1.48122318335151
 30
0
 40
0.00950144259999995
100
AcDbArc
 50
77.8730577430123
 51
85.4158117365814
  0
ARC
  5
436
100
AcDbEntity
  8
SEMA2D
100
AcDbCircle
370
9
 62
0
 48
0
  6
_SOLID
 10
0.959769218218568
 20
1.48123043772973
 30
0
 40
0.0094940799
100
AcDbArc
 50
77.8714508150415
 51
80.3992031504742
  0
ARC
  5
437
100
AcDbEntity
  8
SEMA2D
100
AcDbCircle
370
9
 62
0
 48
0
  6
_SOLID
 10
0.959626359102938
 20
1.48117371663359
 30
0
 40
0.00948286720000006
100
AcDbArc
 50
150.7683677874
 51
155.85785763025
  0
ARC
  5
438
100
AcDbEntity
  8
SEMA2D
100
AcDbCircle
370
9
 62
9
 48
0
  6
_SOLID
 10
0.959959110145375
 20
1.47224502612845
 30
0
 40
0.00483874890000001
100
AcDbArc
 50
283.973271791383
 51
295.002250996478
  0
ARC
  5
439
100
AcDbEntity
  8
SEMA2D
100
AcDbCircle
370
9
 62
0
 48
0
  6
_SOLID
 10
0.97507287721638
 20
1.47538096163353
 30
0
 40
0.00367285089999998
100
AcDbArc
 50
354.070352108694
 51
18.4462787530886
  0
ARC
  5
43A
100
AcDbEntity
  8
SEMA2D
100
AcDbCircle
370
9
 62
0
 48
0
  6
_SOLID
 10
0.975080142846852
 20
1.4753848093199
 30
0
 40
0.00366474140000004
100
AcDbArc
 50
18.4251563297494
 51
19.9271128516085
  0
ARC
  5
43B
100
AcDbEntity
  8
SEMA2D
100
AcDbCircle
370
9
 62
0
 48
0
  6
_SOLID
 10
0.97509314709127
 20
1.47538955012786
 30
0
 40
0.00365089999999995
100
AcDbArc
 50
19.926723750153
 51
21.9151206646294
  0
ARC
  5
43C
100
AcDbEntity
  8
SEMA2D
100
AcDbCircle
370
9
 62
9
 48
0
  6
_SOLID
 10
0.975267537036628
 20
1.47533906658896
 30
0
 40
0.00347514390000007
100
AcDbArc
 50
354.425656753335
 51
21.687169142015
  0
ARC
  5
43D
100
AcDbEntity
  8
SEMA2D
100
AcDbCircle
370
9
 62
9
 48
0
  6
_SOLID
 10
0.975335563056426
 20
1.4753361857114
 30
0
 40
0.00340716179999996
100
AcDbArc
 50
354.125827897616
 51
354.362754560977
  0
ARC
  5
43E
100
AcDbEntity
  8
SEMA2D
100
AcDbCircle
370
9
 62
0
 48
0
  6
_SOLID
 10
0.97565772982597
 20
1.47865798146688
 30
0
 40
0.00194432990000005
100
AcDbArc
 50
302.530714214163
 51
306.801070007156
  0
ARC
  5
43F
100
AcDbEntity
  8
SEMA2D
100
AcDbCircle
370
9
 62
0
 48
0
  6
_SOLID
 10
0.975661168401014
 20
1.47865235556863
 30
0
 40
0.00193773619999998
100
AcDbArc
 50
299.065593770427
 51
302.53207982582
  0
ARC
  5
440
100
AcDbEntity
  8
SEMA2D
100
AcDbCircle
370
9
 62
0
 48
0
  6
_SOLID
 10
0.975664162777893
 20
1.47864999001283
 30
0
 40
0.0019340803
100
AcDbArc
 50
306.792915814954
 51
314.380665702993
  0
ARC
  5
441
100
AcDbEntity
  8
SEMA2D
100
AcDbCircle
370
9
 62
0
 48
0
  6
_SOLID
 10
0.975663451747856
 20
1.47864830151991
 30
0
 40
0.0019330834000001
100
AcDbArc
 50
298.843160050867
 51
299.064815281731
  0
ARC
  5
442
100
AcDbEntity
  8
SEMA2D
100
AcDbCircle
370
9
 62
0
 48
0
  6
_SOLID
 10
0.975355569742585
 20
1.46101506269478
 30
0
 40
0.00192402020000001
100
AcDbArc
 50
295.004339840177
 51
299.208823906755
  0
ARC
  5
443
100
AcDbEntity
  8
SEMA2D
100
AcDbCircle
370
9
 62
0
 48
0
  6
_SOLID
 10
0.975668182378209
 20
1.47863948337961
 30
0
 40
0.00192307709999991
100
AcDbArc
 50
295.003258090125
 51
298.8464427295
  0
ARC
  5
444
100
AcDbEntity
  8
SEMA2D
100
AcDbCircle
370
9
 62
0
 48
0
  6
_SOLID
 10
0.962165854725164
 20
1.49239166761116
 30
0
 40
0.00192144110000005
100
AcDbArc
 50
257.928050259676
 51
295.073948847003
  0
ARC
  5
445
100
AcDbEntity
  8
SEMA2D
100
AcDbCircle
370
9
 62
0
 48
0
  6
_SOLID
 10
0.975678770333624
 20
1.47863336521891
 30
0
 40
0.00191202800000008
100
AcDbArc
 50
320.500846261521
 51
323.562800724367
  0
ARC
  5
446
100
AcDbEntity
  8
SEMA2D
100
AcDbCircle
370
9
 62
0
 48
0
  6
_SOLID
 10
0.97568069614732
 20
1.47863180546627
 30
0
 40
0.00190954989999999
100
AcDbArc
 50
319.164989486736
 51
321.601279439699
  0
ARC
  5
447
100
AcDbEntity
  8
SEMA2D
100
AcDbCircle
370
9
 62
0
 48
0
  6
_SOLID
 10
0.97568255882678
 20
1.4786302339277
 30
0
 40
0.00190711300000004
100
AcDbArc
 50
318.846002427936
 51
320.501039552053
  0
ARC
  5
448
100
AcDbEntity
  8
SEMA2D
100
AcDbCircle
370
9
 62
0
 48
0
  6
_SOLID
 10
0.962163362612491
 20
1.49237500912875
 30
0
 40
0.00190463010000004
100
AcDbArc
 50
257.896555147919
 51
258.121748724584
  0
ARC
  5
449
100
AcDbEntity
  8
SEMA2D
100
AcDbCircle
370
9
 62
0
 48
0
  6
_SOLID
 10
0.975686953404165
 20
1.47862642211962
 30
0
 40
0.00190129590000004
100
AcDbArc
 50
314.386549736788
 51
318.845662534252
  0
ARC
  5
44A
100
AcDbEntity
  8
SEMA2D
100
AcDbCircle
370
9
 62
0
 48
0
  6
_SOLID
 10
0.975403608528349
 20
1.4609908978005
 30
0
 40
0.00187121140000005
100
AcDbArc
 50
349.838290350702
 51
354.102908281628
  0
LINE
  5
44B
100
AcDbEntity
  8
SEMA2D
100
AcDbLine
370
9
 62
9
 48
0
  6
_SOLID
 10
0.630145450414165
 20
1.3274374533026
 30
0
 11
0.631239831814209
 21
1.32806334725726
 31
0
  0
LINE
  5
44C
100
AcDbEntity
  8
SEMA2D
100
AcDbLine
370
9
 62
9
 48
0
  6
_SOLID
 10
0.971148160644972
 20
1.48958809070043
 30
0
 11
0.969153784808794
 21
1.49353011900689
 31
0
  0
LINE
  5
44D
100
AcDbEntity
  8
SEMA2D
100
AcDbLine
370
9
 62
0
 48
0
  6
_SOLID
 10
0.838639236244147
 20
1.44392546409906
 30
0
 11
0.839820726029255
 21
1.44139175107839
 31
0
  0
LINE
  5
44E
100
AcDbEntity
  8
SEMA2D
100
AcDbLine
370
9
 62
0
 48
0
  6
_SOLID
 10
0.837992457817827
 20
1.44743506853062
 30
0
 11
0.839284980542411
 21
1.44422657961055
 31
0
  0
LINE
  5
44F
100
AcDbEntity
  8
SEMA2D
100
AcDbLine
370
9
 62
0
 48
0
  6
_SOLID
 10
0.841112214625782
 20
1.44199398210137
 30
0
 11
0.8424750292891
 21
1.43943717152437
 31
0
  0
LINE
  5
450
100
AcDbEntity
  8
SEMA2D
100
AcDbLine
370
9
 62
9
 48
0
  6
_SOLID
 10
0.84352619902432
 20
1.43992736539961
 30
0
 11
0.842182216643867
 21
1.44249293223664
 31
0
  0
LINE
  5
451
100
AcDbEntity
  8
SEMA2D
100
AcDbLine
370
9
 62
9
 48
0
  6
_SOLID
 10
0.841064241851368
 20
1.44197161202928
 30
0
 11
0.839882752066261
 21
1.44450532504995
 31
0
  0
LINE
  5
452
100
AcDbEntity
  8
SEMA2D
100
AcDbLine
370
9
 62
9
 48
0
  6
_SOLID
 10
0.840441739507825
 20
1.44476598517477
 30
0
 11
0.839085927431783
 21
1.44806335059512
 31
0
  0
LINE
  5
453
100
AcDbEntity
  8
SEMA2D
100
AcDbLine
370
9
 62
9
 48
0
  6
_SOLID
 10
0.883363006381614
 20
1.45850357374677
 30
0
 11
0.88201902400116
 21
1.4610691405838
 31
0
  0
LINE
  5
454
100
AcDbEntity
  8
SEMA2D
100
AcDbLine
370
9
 62
9
 48
0
  6
_SOLID
 10
0.880901049208662
 20
1.46054782037643
 30
0
 11
0.879719559423554
 21
1.4630815333971
 31
0
  0
LINE
  5
455
100
AcDbEntity
  8
SEMA2D
100
AcDbLine
370
9
 62
9
 48
0
  6
_SOLID
 10
0.880278546865119
 20
1.46334219352192
 30
0
 11
0.877810842599435
 21
1.46934352716436
 31
0
  0
LINE
  5
456
100
AcDbEntity
  8
SEMA2D
100
AcDbLine
370
9
 62
9
 48
0
  6
_SOLID
 10
0.890882351303506
 20
1.46006109338911
 30
0
 11
0.885068760019507
 21
1.47252838013066
 31
0
  0
LINE
  5
457
100
AcDbEntity
  8
SEMA2D
100
AcDbLine
370
9
 62
0
 48
0
  6
_SOLID
 10
0.843894266382463
 20
1.45655490761281
 30
0
 11
0.843378068868791
 21
1.45572841499446
 31
0
  0
LINE
  5
458
100
AcDbEntity
  8
SEMA2D
100
AcDbLine
370
9
 62
0
 48
0
  6
_SOLID
 10
0.843380235597398
 20
1.45573172170673
 30
0
 11
0.842979289456337
 21
1.45515204185767
 31
0
  0
LINE
  5
459
100
AcDbEntity
  8
SEMA2D
100
AcDbLine
370
9
 62
0
 48
0
  6
_SOLID
 10
0.8441290607306
 20
1.456888586175
 30
0
 11
0.843894266382463
 21
1.45655490761281
 31
0
  0
LINE
  5
45A
100
AcDbEntity
  8
SEMA2D
100
AcDbLine
370
9
 62
0
 48
0
  6
_SOLID
 10
0.877714619373246
 20
1.47258684124535
 30
0
 11
0.877200279791084
 21
1.4717125751169
 31
0
  0
LINE
  5
45B
100
AcDbEntity
  8
SEMA2D
100
AcDbLine
370
9
 62
0
 48
0
  6
_SOLID
 10
0.877200279791084
 20
1.4717125751169
 30
0
 11
0.876793888895988
 21
1.47109386056794
 31
0
  0
LINE
  5
45C
100
AcDbEntity
  8
SEMA2D
100
AcDbLine
370
9
 62
0
 48
0
  6
_SOLID
 10
0.876793888895988
 20
1.47109386056794
 30
0
 11
0.876365608173191
 21
1.47051175925297
 31
0
  0
LINE
  5
45D
100
AcDbEntity
  8
SEMA2D
100
AcDbLine
370
9
 62
0
 48
0
  6
_SOLID
 10
0.876365608173191
 20
1.47051175925297
 30
0
 11
0.875913429206484
 21
1.46996469301785
 31
0
  0
LINE
  5
45E
100
AcDbEntity
  8
SEMA2D
100
AcDbLine
370
9
 62
0
 48
0
  6
_SOLID
 10
0.875913429206484
 20
1.46996469301785
 30
0
 11
0.875435092021774
 21
1.4694519598866
 31
0
  0
LINE
  5
45F
100
AcDbEntity
  8
SEMA2D
100
AcDbLine
370
9
 62
0
 48
0
  6
_SOLID
 10
0.875435092021774
 20
1.4694519598866
 30
0
 11
0.874931207136412
 21
1.46897668651862
 31
0
  0
LINE
  5
460
100
AcDbEntity
  8
SEMA2D
100
AcDbLine
370
9
 62
0
 48
0
  6
_SOLID
 10
0.874931207136412
 20
1.46897668651862
 30
0
 11
0.874403299937214
 21
1.46854281578673
 31
0
  0
LINE
  5
461
100
AcDbEntity
  8
SEMA2D
100
AcDbLine
370
9
 62
0
 48
0
  6
_SOLID
 10
0.874403299937214
 20
1.46854281578673
 30
0
 11
0.873845651056427
 21
1.46814875407197
 31
0
  0
LINE
  5
462
100
AcDbEntity
  8
SEMA2D
100
AcDbLine
370
9
 62
0
 48
0
  6
_SOLID
 10
0.873845651056427
 20
1.46814875407197
 30
0
 11
0.873251147202781
 21
1.46779431357193
 31
0
  0
LINE
  5
463
100
AcDbEntity
  8
SEMA2D
100
AcDbLine
370
9
 62
0
 48
0
  6
_SOLID
 10
0.873251147202781
 20
1.46779431357193
 30
0
 11
0.872786607936483
 21
1.46756027246551
 31
0
  0
LINE
  5
464
100
AcDbEntity
  8
SEMA2D
100
AcDbLine
370
9
 62
0
 48
0
  6
_SOLID
 10
0.860188386996469
 20
1.46356270631137
 30
0
 11
0.859792431933176
 21
1.46299086035794
 31
0
  0
LINE
  5
465
100
AcDbEntity
  8
SEMA2D
100
AcDbLine
370
9
 62
0
 48
0
  6
_SOLID
 10
0.859792431933176
 20
1.46299086035794
 30
0
 11
0.859377071248948
 21
1.46245280770371
 31
0
  0
LINE
  5
466
100
AcDbEntity
  8
SEMA2D
100
AcDbLine
370
9
 62
0
 48
0
  6
_SOLID
 10
0.859377071248948
 20
1.46245280770371
 30
0
 11
0.858940639770976
 21
1.46194723430012
 31
0
  0
LINE
  5
467
100
AcDbEntity
  8
SEMA2D
100
AcDbLine
370
9
 62
0
 48
0
  6
_SOLID
 10
0.858940639770976
 20
1.46194723430012
 30
0
 11
0.8584814062285
 21
1.46147364245021
 31
0
  0
LINE
  5
468
100
AcDbEntity
  8
SEMA2D
100
AcDbLine
370
9
 62
0
 48
0
  6
_SOLID
 10
0.8584814062285
 20
1.46147364245021
 30
0
 11
0.857999580879605
 21
1.46103430451545
 31
0
  0
LINE
  5
469
100
AcDbEntity
  8
SEMA2D
100
AcDbLine
370
9
 62
0
 48
0
  6
_SOLID
 10
0.857999580879605
 20
1.46103430451545
 30
0
 11
0.857496337222032
 21
1.46063238469858
 31
0
  0
LINE
  5
46A
100
AcDbEntity
  8
SEMA2D
100
AcDbLine
370
9
 62
0
 48
0
  6
_SOLID
 10
0.857496337222032
 20
1.46063238469858
 30
0
 11
0.856966240798299
 21
1.46026616724585
 31
0
  0
LINE
  5
46B
100
AcDbEntity
  8
SEMA2D
100
AcDbLine
370
9
 62
0
 48
0
  6
_SOLID
 10
0.856966240798299
 20
1.46026616724585
 30
0
 11
0.856402525677204
 21
1.45993516357482
 31
0
  0
LINE
  5
46C
100
AcDbEntity
  8
SEMA2D
100
AcDbLine
370
9
 62
0
 48
0
  6
_SOLID
 10
0.856402525677204
 20
1.45993516357482
 30
0
 11
0.85597244477939
 21
1.45971969930955
 31
0
  0
LINE
  5
46D
100
AcDbEntity
  8
SEMA2D
100
AcDbLine
370
9
 62
0
 48
0
  6
_SOLID
 10
0.842981557654363
 20
1.45515514729486
 30
0
 11
0.842551178934959
 21
1.45459818197524
 31
0
  0
LINE
  5
46E
100
AcDbEntity
  8
SEMA2D
100
AcDbLine
370
9
 62
0
 48
0
  6
_SOLID
 10
0.844374895424643
 20
1.45719604544552
 30
0
 11
0.844125297098966
 21
1.45688356913827
 31
0
  0
LINE
  5
46F
100
AcDbEntity
  8
SEMA2D
100
AcDbLine
370
9
 62
0
 48
0
  6
_SOLID
 10
0.87838627048462
 20
1.47353815429541
 30
0
 11
0.878147662246178
 21
1.47322873204066
 31
0
  0
LINE
  5
470
100
AcDbEntity
  8
SEMA2D
100
AcDbLine
370
9
 62
0
 48
0
  6
_SOLID
 10
0.878147662246178
 20
1.47322873204066
 30
0
 11
0.877922864277703
 21
1.47291079322252
 31
0
  0
LINE
  5
471
100
AcDbEntity
  8
SEMA2D
100
AcDbLine
370
9
 62
0
 48
0
  6
_SOLID
 10
0.877922864277703
 20
1.47291079322252
 30
0
 11
0.877714619373246
 21
1.47258684124535
 31
0
  0
LINE
  5
472
100
AcDbEntity
  8
SEMA2D
100
AcDbLine
370
9
 62
0
 48
0
  6
_SOLID
 10
0.842553554220534
 20
1.45460108544699
 30
0
 11
0.84209761448553
 21
1.45407545324447
 31
0
  0
LINE
  5
473
100
AcDbEntity
  8
SEMA2D
100
AcDbLine
370
9
 62
0
 48
0
  6
_SOLID
 10
0.84463462072062
 20
1.45748292619049
 30
0
 11
0.844371248409938
 21
1.45719175651071
 31
0
  0
LINE
  5
474
100
AcDbEntity
  8
SEMA2D
100
AcDbLine
370
9
 62
0
 48
0
  6
_SOLID
 10
0.84210008518781
 20
1.45407813695075
 30
0
 11
0.841621433274543
 21
1.45358905173499
 31
0
  0
LINE
  5
475
100
AcDbEntity
  8
SEMA2D
100
AcDbLine
370
9
 62
0
 48
0
  6
_SOLID
 10
0.878637651333997
 20
1.47383899595373
 30
0
 11
0.87838627048462
 21
1.47353815429541
 31
0
  0
LINE
  5
476
100
AcDbEntity
  8
SEMA2D
100
AcDbLine
370
9
 62
0
 48
0
  6
_SOLID
 10
0.878844482923846
 20
1.47407059862777
 30
0
 11
0.878635133439989
 21
1.47383617659366
 31
0
  0
LINE
  5
477
100
AcDbEntity
  8
SEMA2D
100
AcDbLine
370
9
 62
0
 48
0
  6
_SOLID
 10
0.844906892324891
 20
1.45774871244497
 30
0
 11
0.84463113159554
 21
1.45747930074666
 31
0
  0
LINE
  5
478
100
AcDbEntity
  8
SEMA2D
100
AcDbLine
370
9
 62
0
 48
0
  6
_SOLID
 10
0.841623967480504
 20
1.45359148402317
 30
0
 11
0.841126959265364
 21
1.45314431005672
 31
0
  0
LINE
  5
479
100
AcDbEntity
  8
SEMA2D
100
AcDbLine
370
9
 62
0
 48
0
  6
_SOLID
 10
0.845191367822216
 20
1.45799383848643
 30
0
 11
0.84490359905252
 21
1.45774568919273
 31
0
  0
LINE
  5
47A
100
AcDbEntity
  8
SEMA2D
100
AcDbLine
370
9
 62
0
 48
0
  6
_SOLID
 10
0.841129529240525
 20
1.4531464730288
 30
0
 11
0.840620507393272
 21
1.45274640670094
 31
0
  0
LINE
  5
47B
100
AcDbEntity
  8
SEMA2D
100
AcDbLine
370
9
 62
0
 48
0
  6
_SOLID
 10
0.840620507393272
 20
1.45274640670094
 30
0
 11
0.840131675168473
 21
1.45241266497494
 31
0
  0
LINE
  5
47C
100
AcDbEntity
  8
SEMA2D
100
AcDbLine
370
9
 62
0
 48
0
  6
_SOLID
 10
0.845487624322912
 20
1.45821849495553
 30
0
 11
0.84518830361204
 21
1.45799135898531
 31
0
  0
LINE
  5
47D
100
AcDbEntity
  8
SEMA2D
100
AcDbLine
370
9
 62
0
 48
0
  6
_SOLID
 10
0.839439160392509
 20
1.45196299589268
 30
0
 11
0.839252732634733
 21
1.45183146378335
 31
0
  0
LINE
  5
47E
100
AcDbEntity
  8
SEMA2D
100
AcDbLine
370
9
 62
0
 48
0
  6
_SOLID
 10
0.839252732634733
 20
1.45183146378335
 30
0
 11
0.839074344055293
 21
1.45168929235637
 31
0
  0
LINE
  5
47F
100
AcDbEntity
  8
SEMA2D
100
AcDbLine
370
9
 62
0
 48
0
  6
_SOLID
 10
0.839074344055293
 20
1.45168929235637
 30
0
 11
0.838904626045534
 21
1.4515369909724
 31
0
  0
LINE
  5
480
100
AcDbEntity
  8
SEMA2D
100
AcDbLine
370
9
 62
0
 48
0
  6
_SOLID
 10
0.838904626045534
 20
1.4515369909724
 30
0
 11
0.838744257578685
 21
1.45137511413012
 31
0
  0
LINE
  5
481
100
AcDbEntity
  8
SEMA2D
100
AcDbLine
370
9
 62
0
 48
0
  6
_SOLID
 10
0.838744257578685
 20
1.45137511413012
 30
0
 11
0.838593890637349
 21
1.45120420109419
 31
0
  0
LINE
  5
482
100
AcDbEntity
  8
SEMA2D
100
AcDbLine
370
9
 62
0
 48
0
  6
_SOLID
 10
0.838593890637349
 20
1.45120420109419
 30
0
 11
0.838454208083319
 21
1.45102484061588
 31
0
  0
LINE
  5
483
100
AcDbEntity
  8
SEMA2D
100
AcDbLine
370
9
 62
0
 48
0
  6
_SOLID
 10
0.838454208083319
 20
1.45102484061588
 30
0
 11
0.838325828728793
 21
1.45083764001794
 31
0
  0
LINE
  5
484
100
AcDbEntity
  8
SEMA2D
100
AcDbLine
370
9
 62
0
 48
0
  6
_SOLID
 10
0.838325828728793
 20
1.45083764001794
 30
0
 11
0.838209151662674
 21
1.45064339766298
 31
0
  0
LINE
  5
485
100
AcDbEntity
  8
SEMA2D
100
AcDbLine
370
9
 62
0
 48
0
  6
_SOLID
 10
0.838209151662674
 20
1.45064339766298
 30
0
 11
0.838104480411364
 21
1.45044298552388
 31
0
  0
LINE
  5
486
100
AcDbEntity
  8
SEMA2D
100
AcDbLine
370
9
 62
0
 48
0
  6
_SOLID
 10
0.838104480411364
 20
1.45044298552388
 30
0
 11
0.838012071151212
 21
1.45023721763403
 31
0
  0
LINE
  5
487
100
AcDbEntity
  8
SEMA2D
100
AcDbLine
370
9
 62
0
 48
0
  6
_SOLID
 10
0.838012071151212
 20
1.45023721763403
 30
0
 11
0.837932188915947
 21
1.45002695220971
 31
0
  0
LINE
  5
488
100
AcDbEntity
  8
SEMA2D
100
AcDbLine
370
9
 62
0
 48
0
  6
_SOLID
 10
0.837932188915947
 20
1.45002695220971
 30
0
 11
0.837865042196714
 21
1.44981291506632
 31
0
  0
LINE
  5
489
100
AcDbEntity
  8
SEMA2D
100
AcDbLine
370
9
 62
0
 48
0
  6
_SOLID
 10
0.837865042196714
 20
1.44981291506632
 30
0
 11
0.837810858582098
 21
1.44959585637187
 31
0
  0
LINE
  5
48A
100
AcDbEntity
  8
SEMA2D
100
AcDbLine
370
9
 62
0
 48
0
  6
_SOLID
 10
0.837810858582098
 20
1.44959585637187
 30
0
 11
0.83776986712935
 21
1.4493765080011
 31
0
  0
LINE
  5
48B
100
AcDbEntity
  8
SEMA2D
100
AcDbLine
370
9
 62
0
 48
0
  6
_SOLID
 10
0.83776986712935
 20
1.4493765080011
 30
0
 11
0.837742300566641
 21
1.44915557408033
 31
0
  0
LINE
  5
48C
100
AcDbEntity
  8
SEMA2D
100
AcDbLine
370
9
 62
0
 48
0
  6
_SOLID
 10
0.837742300566641
 20
1.44915557408033
 30
0
 11
0.837728294815481
 21
1.44893385394388
 31
0
  0
LINE
  5
48D
100
AcDbEntity
  8
SEMA2D
100
AcDbLine
370
9
 62
0
 48
0
  6
_SOLID
 10
0.837728294815481
 20
1.44893385394388
 30
0
 11
0.83772771658069
 21
1.44871214099442
 31
0
  0
LINE
  5
48E
100
AcDbEntity
  8
SEMA2D
100
AcDbLine
370
9
 62
0
 48
0
  6
_SOLID
 10
0.83772771658069
 20
1.44871214099442
 30
0
 11
0.837740393372818
 21
1.44849121212344
 31
0
  0
LINE
  5
48F
100
AcDbEntity
  8
SEMA2D
100
AcDbLine
370
9
 62
0
 48
0
  6
_SOLID
 10
0.837740393372818
 20
1.44849121212344
 30
0
 11
0.837766150988001
 21
1.44827184860887
 31
0
  0
LINE
  5
490
100
AcDbEntity
  8
SEMA2D
100
AcDbLine
370
9
 62
0
 48
0
  6
_SOLID
 10
0.837766150988001
 20
1.44827184860887
 30
0
 11
0.837804818408145
 21
1.44805479768542
 31
0
  0
LINE
  5
491
100
AcDbEntity
  8
SEMA2D
100
AcDbLine
370
9
 62
0
 48
0
  6
_SOLID
 10
0.837804818408145
 20
1.44805479768542
 30
0
 11
0.837856229312811
 21
1.44784079840657
 31
0
  0
LINE
  5
492
100
AcDbEntity
  8
SEMA2D
100
AcDbLine
370
9
 62
0
 48
0
  6
_SOLID
 10
0.837856229312811
 20
1.44784079840657
 30
0
 11
0.837920209452948
 21
1.44763062220913
 31
0
  0
LINE
  5
493
100
AcDbEntity
  8
SEMA2D
100
AcDbLine
370
9
 62
0
 48
0
  6
_SOLID
 10
0.837920209452948
 20
1.44763062220913
 30
0
 11
0.837992511240642
 21
1.44743509002162
 31
0
  0
LINE
  5
494
100
AcDbEntity
  8
SEMA2D
100
AcDbLine
370
9
 62
0
 48
0
  6
_SOLID
 10
0.845794723288257
 20
1.45842252214537
 30
0
 11
0.845484815762749
 21
1.45821649911169
 31
0
  0
LINE
  5
495
100
AcDbEntity
  8
SEMA2D
100
AcDbLine
370
9
 62
0
 48
0
  6
_SOLID
 10
0.839618106333234
 20
1.45208096334694
 30
0
 11
0.839439160392509
 21
1.45196299589268
 31
0
  0
LINE
  5
496
100
AcDbEntity
  8
SEMA2D
100
AcDbLine
370
9
 62
0
 48
0
  6
_SOLID
 10
0.839792799330773
 20
1.45219488761465
 30
0
 11
0.839618106333234
 21
1.45208096334694
 31
0
  0
LINE
  5
497
100
AcDbEntity
  8
SEMA2D
100
AcDbLine
370
9
 62
0
 48
0
  6
_SOLID
 10
0.840025941885049
 20
1.45234503230387
 30
0
 11
0.839792799330773
 21
1.45219488761465
 31
0
  0
LINE
  5
498
100
AcDbEntity
  8
SEMA2D
100
AcDbLine
370
9
 62
0
 48
0
  6
_SOLID
 10
0.846111960304727
 20
1.45860587537132
 30
0
 11
0.845792203184761
 21
1.45842095806109
 31
0
  0
LINE
  5
499
100
AcDbEntity
  8
SEMA2D
100
AcDbLine
370
9
 62
0
 48
0
  6
_SOLID
 10
0.880475469455374
 20
1.47525803076536
 30
0
 11
0.880194491425028
 21
1.47511514194919
 31
0
  0
LINE
  5
49A
100
AcDbEntity
  8
SEMA2D
100
AcDbLine
370
9
 62
0
 48
0
  6
_SOLID
 10
0.880194491425028
 20
1.47511514194919
 30
0
 11
0.879921361317704
 21
1.47495664748049
 31
0
  0
LINE
  5
49B
100
AcDbEntity
  8
SEMA2D
100
AcDbLine
370
9
 62
0
 48
0
  6
_SOLID
 10
0.879921361317704
 20
1.47495664748049
 30
0
 11
0.879658281322029
 21
1.47478295846146
 31
0
  0
LINE
  5
49C
100
AcDbEntity
  8
SEMA2D
100
AcDbLine
370
9
 62
0
 48
0
  6
_SOLID
 10
0.879658281322029
 20
1.47478295846146
 30
0
 11
0.879406367038793
 21
1.47459411138441
 31
0
  0
LINE
  5
49D
100
AcDbEntity
  8
SEMA2D
100
AcDbLine
370
9
 62
0
 48
0
  6
_SOLID
 10
0.879406367038793
 20
1.47459411138441
 30
0
 11
0.879168553435432
 21
1.47439198173895
 31
0
  0
LINE
  5
49E
100
AcDbEntity
  8
SEMA2D
100
AcDbLine
370
9
 62
0
 48
0
  6
_SOLID
 10
0.879168553435432
 20
1.47439198173895
 30
0
 11
0.878947329536097
 21
1.47417912639052
 31
0
  0
LINE
  5
49F
100
AcDbEntity
  8
SEMA2D
100
AcDbLine
370
9
 62
0
 48
0
  6
_SOLID
 10
0.846407567657334
 20
1.45875404254746
 30
0
 11
0.846109768166098
 21
1.45860469736333
 31
0
  0
LINE
  5
4A0
100
AcDbEntity
  8
SEMA2D
100
AcDbLine
370
9
 62
0
 48
0
  6
_SOLID
 10
0.863222128000762
 20
1.46659480080411
 30
0
 11
0.862924328418894
 21
1.46644545557772
 31
0
  0
LINE
  5
4A1
100
AcDbEntity
  8
SEMA2D
100
AcDbLine
370
9
 62
0
 48
0
  6
_SOLID
 10
0.862924328418894
 20
1.46644545557772
 30
0
 11
0.862606763528189
 21
1.46626171631774
 31
0
  0
LINE
  5
4A2
100
AcDbEntity
  8
SEMA2D
100
AcDbLine
370
9
 62
0
 48
0
  6
_SOLID
 10
0.862606763528189
 20
1.46626171631774
 30
0
 11
0.862299376106176
 21
1.46605725736834
 31
0
  0
LINE
  5
4A3
100
AcDbEntity
  8
SEMA2D
100
AcDbLine
370
9
 62
0
 48
0
  6
_SOLID
 10
0.862299376106176
 20
1.46605725736834
 30
0
 11
0.862002863955467
 21
1.46583211724196
 31
0
  0
LINE
  5
4A4
100
AcDbEntity
  8
SEMA2D
100
AcDbLine
370
9
 62
0
 48
0
  6
_SOLID
 10
0.862002863955467
 20
1.46583211724196
 30
0
 11
0.861718159395947
 21
1.46558644744938
 31
0
  0
LINE
  5
4A5
100
AcDbEntity
  8
SEMA2D
100
AcDbLine
370
9
 62
0
 48
0
  6
_SOLID
 10
0.861718159395947
 20
1.46558644744938
 30
0
 11
0.861445692029599
 21
1.46532005904557
 31
0
  0
LINE
  5
4A6
100
AcDbEntity
  8
SEMA2D
100
AcDbLine
370
9
 62
0
 48
0
  6
_SOLID
 10
0.861445692029599
 20
1.46532005904557
 30
0
 11
0.861185808843996
 21
1.46503251480962
 31
0
  0
LINE
  5
4A7
100
AcDbEntity
  8
SEMA2D
100
AcDbLine
370
9
 62
0
 48
0
  6
_SOLID
 10
0.861185808843996
 20
1.46503251480962
 30
0
 11
0.860939857533024
 21
1.46472432743718
 31
0
  0
LINE
  5
4A8
100
AcDbEntity
  8
SEMA2D
100
AcDbLine
370
9
 62
0
 48
0
  6
_SOLID
 10
0.860939857533024
 20
1.46472432743718
 30
0
 11
0.860708826816521
 21
1.46439566591172
 31
0
  0
LINE
  5
4A9
100
AcDbEntity
  8
SEMA2D
100
AcDbLine
370
9
 62
0
 48
0
  6
_SOLID
 10
0.860708826816521
 20
1.46439566591172
 30
0
 11
0.860188386996469
 21
1.46356270631137
 31
0
  0
LINE
  5
4AA
100
AcDbEntity
  8
SEMA2D
100
AcDbLine
370
9
 62
0
 48
0
  6
_SOLID
 10
1.17699988180879
 20
1.61353011890689
 30
0
 11
0.880475469455374
 21
1.47525803076536
 31
0
  0
LINE
  5
4AB
100
AcDbEntity
  8
SEMA2D
100
AcDbLine
370
9
 62
0
 48
0
  6
_SOLID
 10
0.878561547717851
 20
1.47374805501827
 30
0
 11
0.846407176046755
 21
1.45875422526488
 31
0
  0
LINE
  5
4AC
100
AcDbEntity
  8
SEMA2D
100
AcDbLine
370
9
 62
9
 48
0
  6
_SOLID
 10
0.847845763812216
 20
1.45862404372955
 30
0
 11
0.860946970164677
 21
1.4647332398929
 31
0
  0
LINE
  5
4AD
100
AcDbEntity
  8
SEMA2D
100
AcDbLine
370
9
 62
9
 48
0
  6
_SOLID
 10
0.864660323756966
 20
1.4664648021313
 30
0
 11
0.877686688443585
 21
1.47253909441854
 31
0
  0
LINE
  5
4AE
100
AcDbEntity
  8
SEMA2D
100
AcDbLine
370
9
 62
9
 48
0
  6
_SOLID
 10
1.17899425764497
 20
1.60958809060043
 30
0
 11
0.885068760019507
 21
1.47252838013066
 31
0
  0
LINE
  5
4AF
100
AcDbEntity
  8
SEMA2D
100
AcDbLine
370
9
 62
0
 48
0
  6
_SOLID
 10
1.1843276839146
 20
1.60512263458351
 30
0
 11
0.838639277481152
 21
1.44392548332819
 31
0
  0
LINE
  5
4B0
100
AcDbEntity
  8
SEMA2D
100
AcDbLine
370
9
 62
0
 48
0
  6
_SOLID
 10
1.18550917369971
 20
1.60258892156284
 30
0
 11
0.83982076726626
 21
1.44139177030752
 31
0
  0
LINE
  5
4B1
100
AcDbEntity
  8
SEMA2D
100
AcDbLine
370
9
 62
9
 48
0
  6
_SOLID
 10
1.18358068176475
 20
1.59849737489141
 30
0
 11
0.842475018481311
 21
1.43943719186231
 31
0
  0
LINE
  5
4B2
100
AcDbEntity
  8
SEMA2D
100
AcDbLine
370
9
 62
0
 48
0
  6
_SOLID
 10
1.18432711871779
 20
1.5968966356799
 30
0
 11
0.844941092167503
 21
1.43863833242871
 31
0
  0
LINE
  5
4B3
100
AcDbEntity
  8
SEMA2D
100
AcDbLine
370
9
 62
9
 48
0
  6
_SOLID
 10
1.16985032304134
 20
1.58785971065123
 30
0
 11
1.18230600233654
 21
1.5936678892941
 31
0
  0
LINE
  5
4B4
100
AcDbEntity
  8
SEMA2D
100
AcDbLine
370
9
 62
9
 48
0
  6
_SOLID
 10
1.17627985312572
 20
1.57718863608885
 30
0
 11
1.18082878084463
 21
1.57930983592057
 31
0
  0
LINE
  5
4B5
100
AcDbEntity
  8
SEMA2D
100
AcDbLine
370
9
 62
0
 48
0
  6
_SOLID
 10
1.17602866988423
 20
1.5755473178235
 30
0
 11
1.18401492486411
 21
1.57927136968059
 31
0
  0
LINE
  5
4B6
100
AcDbEntity
  8
SEMA2D
100
AcDbLine
370
9
 62
0
 48
0
  6
_SOLID
 10
1.17368196178764
 20
1.57615236768762
 30
0
 11
1.16584198692178
 21
1.58727019575247
 31
0
  0
LINE
  5
4B7
100
AcDbEntity
  8
SEMA2D
100
AcDbLine
370
9
 62
9
 48
0
  6
_SOLID
 10
1.17627985312572
 20
1.57718863608885
 30
0
 11
1.16897361610451
 21
1.58754946311091
 31
0
  0
LINE
  5
4B8
100
AcDbEntity
  8
SEMA2D
100
AcDbLine
370
9
 62
9
 48
0
  6
_SOLID
 10
1.18082878084463
 20
1.57930983592057
 30
0
 11
1.18230600233654
 21
1.5936678892941
 31
0
  0
LINE
  5
4B9
100
AcDbEntity
  8
SEMA2D
100
AcDbLine
370
9
 62
0
 48
0
  6
_SOLID
 10
1.18511111480153
 20
1.58079863525823
 30
0
 11
1.18657237414445
 21
1.59500150868333
 31
0
  0
LINE
  5
4BA
100
AcDbEntity
  8
SEMA2D
100
AcDbLine
370
9
 62
0
 48
0
  6
_SOLID
 10
1.18368193961634
 20
1.60482151907202
 30
0
 11
1.17946594367072
 21
1.61273125406988
 31
0
  0
LINE
  5
4BB
100
AcDbEntity
  8
SEMA2D
100
AcDbLine
370
9
 62
9
 48
0
  6
_SOLID
 10
1.16985032304134
 20
1.58785971065123
 30
0
 11
1.16897462533462
 21
1.58973765044356
 31
0
  0
LINE
  5
4BC
100
AcDbEntity
  8
SEMA2D
100
AcDbLine
370
9
 62
9
 48
0
  6
_SOLID
 10
1.17627985312572
 20
1.57718863608885
 30
0
 11
1.17686365161095
 21
1.57593667619708
 31
0
  0
LINE
  5
4BD
100
AcDbEntity
  8
SEMA2D
100
AcDbLine
370
9
 62
9
 48
0
  6
_SOLID
 10
1.18082878084463
 20
1.57930983592057
 30
0
 11
1.18141257932986
 21
1.5780578760288
 31
0
  0
LINE
  5
4BE
100
AcDbEntity
  8
SEMA2D
100
AcDbLine
370
9
 62
9
 48
0
  6
_SOLID
 10
1.16739321430364
 20
1.60905045627988
 30
0
 11
1.16699938437527
 21
1.60989502728678
 31
0
  0
LINE
  5
4BF
100
AcDbEntity
  8
SEMA2D
100
AcDbLine
370
9
 62
9
 48
0
  6
_SOLID
 10
1.16751969535569
 20
1.60910943536307
 30
0
 11
1.16712586542732
 21
1.60995400636996
 31
0
  0
LINE
  5
4C0
100
AcDbEntity
  8
SEMA2D
100
AcDbLine
370
9
 62
9
 48
0
  6
_SOLID
 10
1.18230600596177
 20
1.59366789098457
 30
0
 11
1.18143030825505
 21
1.5955458307769
 31
0
  0
LINE
  5
4C1
100
AcDbEntity
  8
SEMA2D
100
AcDbLine
370
9
 62
9
 48
0
  6
_SOLID
 10
1.18432711871779
 20
1.5968966356799
 30
0
 11
1.18358068176475
 21
1.59849737489141
 31
0
  0
LINE
  5
4C2
100
AcDbEntity
  8
SEMA2D
100
AcDbLine
370
9
 62
0
 48
0
  6
_SOLID
 10
1.18550917369971
 20
1.60258892156284
 30
0
 11
1.1843276839146
 21
1.60512263458351
 31
0
  0
LINE
  5
4C3
100
AcDbEntity
  8
SEMA2D
100
AcDbLine
370
9
 62
9
 48
0
  6
_SOLID
 10
1.18249806024266
 20
1.60118481629824
 30
0
 11
1.18358068176475
 21
1.59849737489141
 31
0
  0
LINE
  5
4C4
100
AcDbEntity
  8
SEMA2D
100
AcDbLine
370
9
 62
0
 48
0
  6
_SOLID
 10
1.18421768510318
 20
1.60198669053985
 30
0
 11
1.18632637012683
 21
1.59675220434366
 31
0
  0
ARC
  5
4C5
100
AcDbEntity
  8
SEMA2D
100
AcDbCircle
370
9
 62
9
 48
0
  6
_SOLID
 10
1.09672132894837
 20
1.78925412118629
 30
0
 40
0.2133334286
100
AcDbArc
 50
293.816524828806
 51
294.191266365231
  0
ARC
  5
4C6
100
AcDbEntity
  8
SEMA2D
100
AcDbCircle
370
9
 62
9
 48
0
  6
_SOLID
 10
0.841690463953852
 20
1.44996022572098
 30
0
 40
0.00290590669999995
100
AcDbArc
 50
122.629149908185
 51
137.759116658636
  0
ARC
  5
4C7
100
AcDbEntity
  8
SEMA2D
100
AcDbCircle
370
9
 62
9
 48
0
  6
_SOLID
 10
0.84168265346743
 20
1.44997121839471
 30
0
 40
0.00289243759999997
100
AcDbArc
 50
122.426580826633
 51
122.616263704012
  0
ARC
  5
4C8
100
AcDbEntity
  8
SEMA2D
100
AcDbCircle
370
9
 62
9
 48
0
  6
_SOLID
 10
1.23289949520888
 20
1.52656778163008
 30
0
 40
0.0840364567
100
AcDbArc
 50
126.538468276698
 51
127.016300374066
  0
ARC
  5
4C9
100
AcDbEntity
  8
SEMA2D
100
AcDbCircle
370
9
 62
0
 48
0
  6
_SOLID
 10
1.16761402871601
 20
1.60122318325151
 30
0
 40
0.0095014426
100
AcDbArc
 50
77.8730577430136
 51
85.4158117365821
  0
ARC
  5
4CA
100
AcDbEntity
  8
SEMA2D
100
AcDbCircle
370
9
 62
0
 48
0
  6
_SOLID
 10
1.16761531521857
 20
1.60123043762973
 30
0
 40
0.00949407989999995
100
AcDbArc
 50
77.8714508150402
 51
80.3992031504735
  0
ARC
  5
4CB
100
AcDbEntity
  8
SEMA2D
100
AcDbCircle
370
9
 62
0
 48
0
  6
_SOLID
 10
1.16747245610294
 20
1.60117371653359
 30
0
 40
0.00948286720000006
100
AcDbArc
 50
150.7683677874
 51
155.85785763025
  0
ARC
  5
4CC
100
AcDbEntity
  8
SEMA2D
100
AcDbCircle
370
9
 62
9
 48
0
  6
_SOLID
 10
1.16780520714537
 20
1.59224502602845
 30
0
 40
0.00483874890000001
100
AcDbArc
 50
283.973271791382
 51
295.002250996479
  0
ARC
  5
4CD
100
AcDbEntity
  8
SEMA2D
100
AcDbCircle
370
9
 62
0
 48
0
  6
_SOLID
 10
1.18291897421638
 20
1.59538096153353
 30
0
 40
0.00367285089999996
100
AcDbArc
 50
354.070352108694
 51
18.4462787530886
  0
ARC
  5
4CE
100
AcDbEntity
  8
SEMA2D
100
AcDbCircle
370
9
 62
0
 48
0
  6
_SOLID
 10
1.18292623984685
 20
1.5953848092199
 30
0
 40
0.00366474140000001
100
AcDbArc
 50
18.4251563297494
 51
19.9271128516091
  0
ARC
  5
4CF
100
AcDbEntity
  8
SEMA2D
100
AcDbCircle
370
9
 62
0
 48
0
  6
_SOLID
 10
1.18293924409127
 20
1.59538955002786
 30
0
 40
0.00365090000000008
100
AcDbArc
 50
19.9267237501512
 51
21.9151206646281
  0
ARC
  5
4D0
100
AcDbEntity
  8
SEMA2D
100
AcDbCircle
370
9
 62
9
 48
0
  6
_SOLID
 10
1.18311363403663
 20
1.59533906648896
 30
0
 40
0.00347514389999999
100
AcDbArc
 50
354.425656753334
 51
21.6871691420163
  0
ARC
  5
4D1
100
AcDbEntity
  8
SEMA2D
100
AcDbCircle
370
9
 62
9
 48
0
  6
_SOLID
 10
1.18318166005643
 20
1.59533618561141
 30
0
 40
0.00340716179999993
100
AcDbArc
 50
354.125827897616
 51
354.362754560976
  0
ARC
  5
4D2
100
AcDbEntity
  8
SEMA2D
100
AcDbCircle
370
9
 62
0
 48
0
  6
_SOLID
 10
1.18350382682597
 20
1.59865798136688
 30
0
 40
0.00194432990000003
100
AcDbArc
 50
302.53071421416
 51
306.801070007154
  0
ARC
  5
4D3
100
AcDbEntity
  8
SEMA2D
100
AcDbCircle
370
9
 62
0
 48
0
  6
_SOLID
 10
1.18350726540101
 20
1.59865235546863
 30
0
 40
0.00193773620000005
100
AcDbArc
 50
299.065593770432
 51
302.532079825822
  0
ARC
  5
4D4
100
AcDbEntity
  8
SEMA2D
100
AcDbCircle
370
9
 62
0
 48
0
  6
_SOLID
 10
1.18351025977789
 20
1.59864998991283
 30
0
 40
0.00193408030000005
100
AcDbArc
 50
306.792915814959
 51
314.380665702998
  0
ARC
  5
4D5
100
AcDbEntity
  8
SEMA2D
100
AcDbCircle
370
9
 62
0
 48
0
  6
_SOLID
 10
1.18350954874786
 20
1.59864830141991
 30
0
 40
0.0019330834000001
100
AcDbArc
 50
298.843160050864
 51
299.064815281734
  0
ARC
  5
4D6
100
AcDbEntity
  8
SEMA2D
100
AcDbCircle
370
9
 62
0
 48
0
  6
_SOLID
 10
1.18320166674258
 20
1.58101506259478
 30
0
 40
0.00192402019999991
100
AcDbArc
 50
295.004339840177
 51
299.208823906755
  0
ARC
  5
4D7
100
AcDbEntity
  8
SEMA2D
100
AcDbCircle
370
9
 62
0
 48
0
  6
_SOLID
 10
1.18351427937821
 20
1.59863948327961
 30
0
 40
0.00192307709999991
100
AcDbArc
 50
295.003258090128
 51
298.846442729503
  0
ARC
  5
4D8
100
AcDbEntity
  8
SEMA2D
100
AcDbCircle
370
9
 62
0
 48
0
  6
_SOLID
 10
1.17001195172516
 20
1.61239166751116
 30
0
 40
0.0019214411
100
AcDbArc
 50
257.928050259679
 51
295.073948847003
  0
ARC
  5
4D9
100
AcDbEntity
  8
SEMA2D
100
AcDbCircle
370
9
 62
0
 48
0
  6
_SOLID
 10
1.18352486733362
 20
1.59863336511891
 30
0
 40
0.00191202800000008
100
AcDbArc
 50
320.500846261521
 51
323.562800724365
  0
ARC
  5
4DA
100
AcDbEntity
  8
SEMA2D
100
AcDbCircle
370
9
 62
0
 48
0
  6
_SOLID
 10
1.18352679314732
 20
1.59863180536627
 30
0
 40
0.00190954990000009
100
AcDbArc
 50
319.164989486738
 51
321.601279439701
  0
ARC
  5
4DB
100
AcDbEntity
  8
SEMA2D
100
AcDbCircle
370
9
 62
0
 48
0
  6
_SOLID
 10
1.18352865582678
 20
1.5986302338277
 30
0
 40
0.00190711300000007
100
AcDbArc
 50
318.84600242794
 51
320.501039552055
  0
ARC
  5
4DC
100
AcDbEntity
  8
SEMA2D
100
AcDbCircle
370
9
 62
0
 48
0
  6
_SOLID
 10
1.17000945961249
 20
1.61237500902875
 30
0
 40
0.00190463009999999
100
AcDbArc
 50
257.896555147922
 51
258.121748724588
  0
ARC
  5
4DD
100
AcDbEntity
  8
SEMA2D
100
AcDbCircle
370
9
 62
0
 48
0
  6
_SOLID
 10
1.18353305040416
 20
1.59862642201962
 30
0
 40
0.00190129589999999
100
AcDbArc
 50
314.386549736788
 51
318.845662534252
  0
ARC
  5
4DE
100
AcDbEntity
  8
SEMA2D
100
AcDbCircle
370
9
 62
0
 48
0
  6
_SOLID
 10
1.18324970552835
 20
1.5809908977005
 30
0
 40
0.00187121140000005
100
AcDbArc
 50
349.838290350701
 51
354.102908281628
  0
LINE
  5
4DF
100
AcDbEntity
  8
SEMA2D
100
AcDbLine
370
9
 62
9
 48
0
  6
_SOLID
 10
0.837991547414165
 20
1.4474374532026
 30
0
 11
0.839085928814209
 21
1.44806334715726
 31
0
  0
LINE
  5
4E0
100
AcDbEntity
  8
SEMA2D
100
AcDbLine
370
9
 62
9
 48
0
  6
_SOLID
 10
1.17899425764497
 20
1.60958809060043
 30
0
 11
1.17699988180879
 21
1.61353011890689
 31
0
  0
VIEWPORT
  5
4F9
100
AcDbEntity
 67
1
  8
0
100
AcDbViewport
370
-1
 48
0
 10
0
 20
0
 30
0
 40
-2E20
 41
-2E20
 68
1
 69
1
 12
0
 22
0
 32
0
 16
0
 26
0
 36
1
 17
0
 27
0
 37
0
 42
50
 43
0
 44
0
 45
-2E20
 51
0
 90
32800
340
0
  0
ENDSEC
  0
SECTION
  2
OBJECTS
  0
DICTIONARY
  5
4FA
100
AcDbDictionary
  3
ACAD_GROUP
350
4FB
  3
ACAD_MATERIAL
350
4FC
  3
ACAD_WIPEOUT_VARS
350
4FD
  3
ACAD_MLINESTYLE
350
4FE
  3
ACAD_LAYOUT
350
4FF
  0
DICTIONARY
  5
4FB
100
AcDbDictionary
  0
DICTIONARY
  5
4FC
100
AcDbDictionary
  0
WIPEOUTVARIABLES
  5
4FD
100
AcDbWipeoutVariables
 70
1
  0
DICTIONARY
  5
4FE
100
AcDbDictionary
  3
STANDARD
350
500
  0
MLINESTYLE
  5
500
100
AcDbMlineStyle
  2
STANDARD
 70
0
  3

 62
256
 51
90
 52
90
 71
2
 49
0.5
 62
256
  6
ByLayer
 49
-0.5
 62
256
  6
ByLayer
  0
DICTIONARY
  5
4FF
100
AcDbDictionary
  3
Model
350
4E1
  3
Layout1
350
4E2
  0
LAYOUT
  5
4E1
100
AcDbPlotSettings
100
AcDbLayout
  1
Model
 70
1
 71
1
 10
0.00150500345690927
 20
0.821
 11
1.273398113
 21
1.6204115427
 12
0
 22
0
 32
0
 14
0.00150500345690927
 24
0.821
 34
0
 15
1.273398113
 25
1.6204115427
 35
0
146
0
 13
0
 23
0
 33
0
 16
1
 26
0
 36
0
 17
0
 27
1
 37
0
 76
0
330
4E6
  0
LAYOUT
  5
4E2
100
AcDbPlotSettings
100
AcDbLayout
  1
Layout1
 70
1
 71
2
 10
1E20
 20
1E20
 11
-1E20
 21
-1E20
 12
0
 22
0
 32
0
 14
1E20
 24
1E20
 34
1E20
 15
-1E20
 25
-1E20
 35
-1E20
146
0
 13
0
 23
0
 33
0
 16
1
 26
0
 36
0
 17
0
 27
1
 37
0
 76
0
330
4E7
  0
ENDSEC
  0
EOF
